  0
SECTION
  2
HEADER
  9
$ACADVER
  1
AC1015
  9
$ACADMAINTVER
 70
     6
  9
$DWGCODEPAGE
  3
ANSI_932
  9
$INSBASE
 10
0.0
 20
0.0
 30
0.0
  9
$EXTMIN
 10
0.0
 20
0.0
 30
0.0
  9
$EXTMAX
 10
210.0
 20
297.0
 30
0.0
  9
$LIMMIN
 10
0.0
 20
0.0
  9
$LIMMAX
 10
210.0
 20
297.0
  9
$ORTHOMODE
 70
     0
  9
$REGENMODE
 70
     1
  9
$FILLMODE
 70
     1
  9
$QTEXTMODE
 70
     0
  9
$MIRRTEXT
 70
     1
  9
$LTSCALE
 40
1.0
  9
$ATTMODE
 70
     1
  9
$TEXTSIZE
 40
0.2
  9
$TRACEWID
 40
0.05
  9
$TEXTSTYLE
  7
Standard
  9
$CLAYER
  8
0
  9
$CELTYPE
  6
ByLayer
  9
$CECOLOR
 62
   256
  9
$CELTSCALE
 40
25.4
  9
$DISPSILH
 70
     0
  9
$DIMSCALE
 40
1.0
  9
$DIMASZ
 40
0.18
  9
$DIMEXO
 40
0.0625
  9
$DIMDLI
 40
0.38
  9
$DIMRND
 40
0.0
  9
$DIMDLE
 40
0.0
  9
$DIMEXE
 40
0.18
  9
$DIMTP
 40
0.0
  9
$DIMTM
 40
0.0
  9
$DIMTXT
 40
0.18
  9
$DIMCEN
 40
0.09
  9
$DIMTSZ
 40
0.0
  9
$DIMTOL
 70
     0
  9
$DIMLIM
 70
     0
  9
$DIMTIH
 70
     1
  9
$DIMTOH
 70
     1
  9
$DIMSE1
 70
     0
  9
$DIMSE2
 70
     0
  9
$DIMTAD
 70
     0
  9
$DIMZIN
 70
     0
  9
$DIMBLK
  1

  9
$DIMASO
 70
     1
  9
$DIMSHO
 70
     1
  9
$DIMPOST
  1

  9
$DIMAPOST
  1

  9
$DIMALT
 70
     0
  9
$DIMALTD
 70
     2
  9
$DIMALTF
 40
25.4
  9
$DIMLFAC
 40
1.0
  9
$DIMTOFL
 70
     0
  9
$DIMTVP
 40
0.0
  9
$DIMTIX
 70
     0
  9
$DIMSOXD
 70
     0
  9
$DIMSAH
 70
     0
  9
$DIMBLK1
  1

  9
$DIMBLK2
  1

  9
$DIMSTYLE
  2
Standard
  9
$DIMCLRD
 70
     0
  9
$DIMCLRE
 70
     0
  9
$DIMCLRT
 70
     0
  9
$DIMTFAC
 40
1.0
  9
$DIMGAP
 40
0.09
  9
$DIMJUST
 70
     0
  9
$DIMSD1
 70
     0
  9
$DIMSD2
 70
     0
  9
$DIMTOLJ
 70
     1
  9
$DIMTZIN
 70
     0
  9
$DIMALTZ
 70
     0
  9
$DIMALTTZ
 70
     0
  9
$DIMUPT
 70
     0
  9
$DIMDEC
 70
     4
  9
$DIMTDEC
 70
     4
  9
$DIMALTU
 70
     2
  9
$DIMALTTD
 70
     2
  9
$DIMTXSTY
  7
Standard
  9
$DIMAUNIT
 70
     0
  9
$DIMADEC
 70
     0
  9
$DIMALTRND
 40
0.0
  9
$DIMAZIN
 70
     0
  9
$DIMDSEP
 70
    46
  9
$DIMATFIT
 70
     3
  9
$DIMFRAC
 70
     0
  9
$DIMLDRBLK
  1

  9
$DIMLUNIT
 70
     2
  9
$DIMLWD
 70
    -2
  9
$DIMLWE
 70
    -2
  9
$DIMTMOVE
 70
     0
  9
$LUNITS
 70
     2
  9
$LUPREC
 70
     4
  9
$SKETCHINC
 40
0.1
  9
$FILLETRAD
 40
0.5
  9
$AUNITS
 70
     0
  9
$AUPREC
 70
     0
  9
$MENU
  1
.
  9
$ELEVATION
 40
0.0
  9
$PELEVATION
 40
0.0
  9
$THICKNESS
 40
0.0
  9
$LIMCHECK
 70
     0
  9
$CHAMFERA
 40
0.5
  9
$CHAMFERB
 40
0.5
  9
$CHAMFERC
 40
1.0
  9
$CHAMFERD
 40
0.0
  9
$SKPOLY
 70
     0
  9
$TDCREATE
 40
2454132.792225648
  9
$TDUCREATE
 40
2454132.417225648
  9
$TDUPDATE
 40
2454132.79222566
  9
$TDUUPDATE
 40
2454132.41722566
  9
$TDINDWG
 40
0.0000000116
  9
$TDUSRTIMER
 40
0.0000000116
  9
$USRTIMER
 70
     1
  9
$ANGBASE
 50
0.0
  9
$ANGDIR
 70
     0
  9
$PDMODE
 70
     0
  9
$PDSIZE
 40
0.0
  9
$PLINEWID
 40
0.0
  9
$SPLFRAME
 70
     0
  9
$SPLINETYPE
 70
     6
  9
$SPLINESEGS
 70
     8
  9
$HANDSEED
  5
55C
  9
$SURFTAB1
 70
     6
  9
$SURFTAB2
 70
     6
  9
$SURFTYPE
 70
     6
  9
$SURFU
 70
     6
  9
$SURFV
 70
     6
  9
$UCSBASE
  2

  9
$UCSNAME
  2

  9
$UCSORG
 10
0.0
 20
0.0
 30
0.0
  9
$UCSXDIR
 10
1.0
 20
0.0
 30
0.0
  9
$UCSYDIR
 10
0.0
 20
1.0
 30
0.0
  9
$UCSORTHOREF
  2

  9
$UCSORTHOVIEW
 70
     0
  9
$UCSORGTOP
 10
0.0
 20
0.0
 30
0.0
  9
$UCSORGBOTTOM
 10
0.0
 20
0.0
 30
0.0
  9
$UCSORGLEFT
 10
0.0
 20
0.0
 30
0.0
  9
$UCSORGRIGHT
 10
0.0
 20
0.0
 30
0.0
  9
$UCSORGFRONT
 10
0.0
 20
0.0
 30
0.0
  9
$UCSORGBACK
 10
0.0
 20
0.0
 30
0.0
  9
$PUCSBASE
  2

  9
$PUCSNAME
  2

  9
$PUCSORG
 10
0.0
 20
0.0
 30
0.0
  9
$PUCSXDIR
 10
1.0
 20
0.0
 30
0.0
  9
$PUCSYDIR
 10
0.0
 20
1.0
 30
0.0
  9
$PUCSORTHOREF
  2

  9
$PUCSORTHOVIEW
 70
     0
  9
$PUCSORGTOP
 10
0.0
 20
0.0
 30
0.0
  9
$PUCSORGBOTTOM
 10
0.0
 20
0.0
 30
0.0
  9
$PUCSORGLEFT
 10
0.0
 20
0.0
 30
0.0
  9
$PUCSORGRIGHT
 10
0.0
 20
0.0
 30
0.0
  9
$PUCSORGFRONT
 10
0.0
 20
0.0
 30
0.0
  9
$PUCSORGBACK
 10
0.0
 20
0.0
 30
0.0
  9
$USERI1
 70
     0
  9
$USERI2
 70
     0
  9
$USERI3
 70
     0
  9
$USERI4
 70
     0
  9
$USERI5
 70
     0
  9
$USERR1
 40
0.0
  9
$USERR2
 40
0.0
  9
$USERR3
 40
0.0
  9
$USERR4
 40
0.0
  9
$USERR5
 40
0.0
  9
$WORLDVIEW
 70
     1
  9
$SHADEDGE
 70
     3
  9
$SHADEDIF
 70
    70
  9
$TILEMODE
 70
     1
  9
$MAXACTVP
 70
    64
  9
$PINSBASE
 10
0.0
 20
0.0
 30
0.0
  9
$PLIMCHECK
 70
     0
  9
$PEXTMIN
 10
0.0
 20
0.0
 30
0.0
  9
$PEXTMAX
 10
210.0
 20
297.0
 30
0.0
  9
$PLIMMIN
 10
0.0
 20
0.0
  9
$PLIMMAX
 10
210.0
 20
297.0
  9
$UNITMODE
 70
     0
  9
$VISRETAIN
 70
     1
  9
$PLINEGEN
 70
     0
  9
$PSLTSCALE
 70
     1
  9
$TREEDEPTH
 70
  3020
  9
$CMLSTYLE
  2
Standard
  9
$CMLJUST
 70
     0
  9
$CMLSCALE
 40
1.0
  9
$PROXYGRAPHICS
 70
     1
  9
$MEASUREMENT
 70
     1
  9
$CELWEIGHT
370
    -1
  9
$ENDCAPS
280
     0
  9
$JOINSTYLE
280
     0
  9
$LWDISPLAY
290
     0
  9
$INSUNITS
 70
     1
  9
$HYPERLINKBASE
  1

  9
$STYLESHEET
  1

  9
$XEDIT
290
     1
  9
$CEPSNTYPE
380
     0
  9
$PSTYLEMODE
290
     1
  9
$FINGERPRINTGUID
  2
{5B4DDB98-0E67-4276-B837-EA904680BAA8}
  9
$VERSIONGUID
  2
{FAEB1C32-E019-11D5-929B-00C0DF256EC4}
  9
$EXTNAMES
290
     1
  9
$PSVPSCALE
 40
0.0
  9
$OLESTARTUP
290
     0
  0
ENDSEC
  0
SECTION
  2
CLASSES
  0
CLASS
  1
ACDBDICTIONARYWDFLT
  2
AcDbDictionaryWithDefault
  3
ObjectDBX Classes
 90
        0
280
     0
281
     0
  0
CLASS
  1
ACDBPLACEHOLDER
  2
AcDbPlaceHolder
  3
ObjectDBX Classes
 90
        0
280
     0
281
     0
  0
CLASS
  1
LAYOUT
  2
AcDbLayout
  3
ObjectDBX Classes
 90
        0
280
     0
281
     0
  0
ENDSEC
  0
SECTION
  2
TABLES
  0
TABLE
  2
VPORT
  5
8
330
0
100
AcDbSymbolTable
 70
     1
  0
VPORT
  5
29
330
8
100
AcDbSymbolTableRecord
100
AcDbViewportTableRecord
  2
*Active
 70
     0
 10
0.0
 20
0.0
 11
1.0
 21
1.0
 12
10.4299065421
 22
4.5
 13
0.0
 23
0.0
 14
0.5
 24
0.5
 15
0.5
 25
0.5
 16
0.0
 26
0.0
 36
1.0
 17
0.0
 27
0.0
 37
0.0
 40
9.0
 41
1.9729729729
 42
50.0
 43
0.0
 44
0.0
 50
0.0
 51
0.0
 71
     0
 72
   100
 73
     1
 74
     3
 75
     0
 76
     0
 77
     0
 78
     0
281
     0
 65
     1
110
0.0
120
0.0
130
0.0
111
1.0
121
0.0
131
0.0
112
0.0
122
1.0
132
0.0
 79
     0
146
0.0
  0
ENDTAB
  0
TABLE
  2
LTYPE
  5
5
330
0
100
AcDbSymbolTable
 70
     3
  0
LTYPE
  5
14
330
5
100
AcDbSymbolTableRecord
100
AcDbLinetypeTableRecord
  2
ByBlock
 70
     0
  3

 72
    65
 73
     0
 40
0.0
  0
LTYPE
  5
15
330
5
100
AcDbSymbolTableRecord
100
AcDbLinetypeTableRecord
  2
ByLayer
 70
     0
  3

 72
    65
 73
     0
 40
0.0
  0
LTYPE
  5
16
330
5
100
AcDbSymbolTableRecord
100
AcDbLinetypeTableRecord
  2
Continuous
 70
     0
  3
Solid line
 72
    65
 73
     0
 40
0.0
  0
LTYPE
  5
32
330
5
100
AcDbSymbolTableRecord
100
AcDbLinetypeTableRecord
  2
CENTER2
 70
     0
  3
___ _ ___ _ ___ _ ___ _ ___ _ ___ _ ___ _ ___ _
 72
    65
 73
     4
 40
1.125
 49
0.75
 74
     4
 75
     0
340
0
 46
0.0
 50
0.0
 44
0.0
 45
0.0
 49
-0.125
 74
     4
 75
     0
340
0
 46
0.0
 50
0.0
 44
0.0
 45
0.0
 49
0.125
 74
     4
 75
     0
340
0
 46
0.0
 50
0.0
 44
0.0
 45
0.0
 49
-0.125
 74
     4
 75
     0
340
0
 46
0.0
 50
0.0
 44
0.0
 45
0.0
  0
LTYPE
  5
5F
330
5
100
AcDbSymbolTableRecord
100
AcDbLinetypeTableRecord
  2
HIDDEN2
 70
     0
  3
_ _ _ _ _ _ _ _ _ _ _ _ _ _ _ _ _ _ _ _ _ _ _ _
 72
    65
 73
     2
 40
0.1875
 49
0.125
 74
     4
 75
     0
340
0
 46
0.0
 50
0.0
 44
0.0
 45
0.0
 49
-0.0625
 74
     4
 75
     0
340
0
 46
0.0
 50
0.0
 44
0.0
 45
0.0
  0
ENDTAB
  0
TABLE
  2
LAYER
  5
2
330
0
100
AcDbSymbolTable
 70
    40
  0
LAYER
  5
10
330
2
100
AcDbSymbolTableRecord
100
AcDbLayerTableRecord
  2
0
 70
     0
 62
     7
  6
Continuous
370
    -3
390
F
  0
LAYER
  5
2C
330
2
100
AcDbSymbolTableRecord
100
AcDbLayerTableRecord
  2
Layer03
 70
     0
 62
     7
  6
Continuous
370
    -3
390
F
  0
LAYER
  5
2F
330
2
100
AcDbSymbolTableRecord
100
AcDbLayerTableRecord
  2
Default
 70
     0
 62
     7
  6
Continuous
370
    -3
390
F
  0
LAYER
  5
42
330
2
100
AcDbSymbolTableRecord
100
AcDbLayerTableRecord
  2
Layer3
 70
     0
 62
     7
  6
Continuous
370
    -3
390
F
  0
LAYER
  5
44
330
2
100
AcDbSymbolTableRecord
100
AcDbLayerTableRecord
  2
Bogenauslauf_55grad_unten
 70
     0
 62
     7
  6
Continuous
370
    -3
390
F
  0
LAYER
  5
55
330
2
100
AcDbSymbolTableRecord
100
AcDbLayerTableRecord
  2
DV1_Hebel
 70
     0
 62
     7
  6
Continuous
370
    -3
390
F
  0
LAYER
  5
5D
330
2
100
AcDbSymbolTableRecord
100
AcDbLayerTableRecord
  2
DV1_Default
 70
     0
 62
     7
  6
Continuous
370
    -3
390
F
  0
LAYER
  5
AB
330
2
100
AcDbSymbolTableRecord
100
AcDbLayerTableRecord
  2
DV2_Layer9
 70
     0
 62
     7
  6
Continuous
370
    -3
390
F
  0
LAYER
  5
AD
330
2
100
AcDbSymbolTableRecord
100
AcDbLayerTableRecord
  2
DV2_Layer17
 70
     0
 62
     7
  6
Continuous
370
    -3
390
F
  0
LAYER
  5
AF
330
2
100
AcDbSymbolTableRecord
100
AcDbLayerTableRecord
  2
DV2_Layer5
 70
     0
 62
     7
  6
Continuous
370
    -3
390
F
  0
LAYER
  5
B2
330
2
100
AcDbSymbolTableRecord
100
AcDbLayerTableRecord
  2
DV2_Layer12
 70
     0
 62
     7
  6
Continuous
370
    -3
390
F
  0
LAYER
  5
BA
330
2
100
AcDbSymbolTableRecord
100
AcDbLayerTableRecord
  2
DV2_Layer13
 70
     0
 62
     7
  6
Continuous
370
    -3
390
F
  0
LAYER
  5
C2
330
2
100
AcDbSymbolTableRecord
100
AcDbLayerTableRecord
  2
DV2_Layer16
 70
     0
 62
     7
  6
Continuous
370
    -3
390
F
  0
LAYER
  5
C7
330
2
100
AcDbSymbolTableRecord
100
AcDbLayerTableRecord
  2
DV2_Layer14
 70
     0
 62
     7
  6
Continuous
370
    -3
390
F
  0
LAYER
  5
D5
330
2
100
AcDbSymbolTableRecord
100
AcDbLayerTableRecord
  2
DV2_Layer15
 70
     0
 62
     7
  6
Continuous
370
    -3
390
F
  0
LAYER
  5
10D
330
2
100
AcDbSymbolTableRecord
100
AcDbLayerTableRecord
  2
DV2_Layer18
 70
     0
 62
     7
  6
Continuous
370
    -3
390
F
  0
LAYER
  5
2F7
330
2
100
AcDbSymbolTableRecord
100
AcDbLayerTableRecord
  2
DV2_Layer2
 70
     0
 62
     7
  6
Continuous
370
    -3
390
F
  0
LAYER
  5
2F9
330
2
100
AcDbSymbolTableRecord
100
AcDbLayerTableRecord
  2
DV2_Layer3
 70
     0
 62
     7
  6
Continuous
370
    -3
390
F
  0
LAYER
  5
2FD
330
2
100
AcDbSymbolTableRecord
100
AcDbLayerTableRecord
  2
DV2_Layer11
 70
     0
 62
     7
  6
Continuous
370
    -3
390
F
  0
LAYER
  5
30C
330
2
100
AcDbSymbolTableRecord
100
AcDbLayerTableRecord
  2
Layer5
 70
     0
 62
     7
  6
Continuous
370
    -3
390
F
  0
LAYER
  5
30E
330
2
100
AcDbSymbolTableRecord
100
AcDbLayerTableRecord
  2
Layer7
 70
     0
 62
     7
  6
Continuous
370
    -3
390
F
  0
LAYER
  5
311
330
2
100
AcDbSymbolTableRecord
100
AcDbLayerTableRecord
  2
Layer6
 70
     0
 62
     7
  6
Continuous
370
    -3
390
F
  0
LAYER
  5
331
330
2
100
AcDbSymbolTableRecord
100
AcDbLayerTableRecord
  2
Layer4
 70
     0
 62
     7
  6
Continuous
370
    -3
390
F
  0
LAYER
  5
35D
330
2
100
AcDbSymbolTableRecord
100
AcDbLayerTableRecord
  2
DV2_Layer1
 70
     0
 62
     7
  6
Continuous
370
    -3
390
F
  0
LAYER
  5
372
330
2
100
AcDbSymbolTableRecord
100
AcDbLayerTableRecord
  2
DV2_Standard
 70
     0
 62
     7
  6
Continuous
370
    -3
390
F
  0
LAYER
  5
374
330
2
100
AcDbSymbolTableRecord
100
AcDbLayerTableRecord
  2
DV2_Layer4
 70
     0
 62
     7
  6
Continuous
370
    -3
390
F
  0
LAYER
  5
382
330
2
100
AcDbSymbolTableRecord
100
AcDbLayerTableRecord
  2
DV2_Layer10
 70
     0
 62
     7
  6
Continuous
370
    -3
390
F
  0
LAYER
  5
38A
330
2
100
AcDbSymbolTableRecord
100
AcDbLayerTableRecord
  2
DV2_Layer8
 70
     0
 62
     7
  6
Continuous
370
    -3
390
F
  0
LAYER
  5
38D
330
2
100
AcDbSymbolTableRecord
100
AcDbLayerTableRecord
  2
DV2_020
 70
     0
 62
     7
  6
Continuous
370
    -3
390
F
  0
LAYER
  5
3A6
330
2
100
AcDbSymbolTableRecord
100
AcDbLayerTableRecord
  2
DV3_ﾃﾞﾌｫﾙﾄ
 70
     0
 62
     7
  6
Continuous
370
    -3
390
F
  0
LAYER
  5
3E0
330
2
100
AcDbSymbolTableRecord
100
AcDbLayerTableRecord
  2
DV4_ﾃﾞﾌｫﾙﾄ
 70
     0
 62
     7
  6
Continuous
370
    -3
390
F
  0
LAYER
  5
484
330
2
100
AcDbSymbolTableRecord
100
AcDbLayerTableRecord
  2
DV5_Standard
 70
     0
 62
     7
  6
Continuous
370
    -3
390
F
  0
LAYER
  5
486
330
2
100
AcDbSymbolTableRecord
100
AcDbLayerTableRecord
  2
DV5_Layer4
 70
     0
 62
     7
  6
Continuous
370
    -3
390
F
  0
LAYER
  5
488
330
2
100
AcDbSymbolTableRecord
100
AcDbLayerTableRecord
  2
DV5_Layer5
 70
     0
 62
     7
  6
Continuous
370
    -3
390
F
  0
LAYER
  5
496
330
2
100
AcDbSymbolTableRecord
100
AcDbLayerTableRecord
  2
DV5_Layer6
 70
     0
 62
     7
  6
Continuous
370
    -3
390
F
  0
LAYER
  5
4A8
330
2
100
AcDbSymbolTableRecord
100
AcDbLayerTableRecord
  2
DV5_Layer9
 70
     0
 62
     7
  6
Continuous
370
    -3
390
F
  0
LAYER
  5
4AA
330
2
100
AcDbSymbolTableRecord
100
AcDbLayerTableRecord
  2
DV5_Layer1
 70
     0
 62
     7
  6
Continuous
370
    -3
390
F
  0
LAYER
  5
4B5
330
2
100
AcDbSymbolTableRecord
100
AcDbLayerTableRecord
  2
DV5_Default
 70
     0
 62
     7
  6
Continuous
370
    -3
390
F
  0
LAYER
  5
503
330
2
100
AcDbSymbolTableRecord
100
AcDbLayerTableRecord
  2
MDS_Layer_90
 70
     0
 62
     7
  6
Continuous
370
    -3
390
F
  0
LAYER
  5
506
330
2
100
AcDbSymbolTableRecord
100
AcDbLayerTableRecord
  2
MDS_Layer_94
 70
     0
 62
     7
  6
Continuous
370
    -3
390
F
  0
ENDTAB
  0
TABLE
  2
STYLE
  5
3
330
0
100
AcDbSymbolTable
 70
     5
  0
STYLE
  5
11
330
3
100
AcDbSymbolTableRecord
100
AcDbTextStyleTableRecord
  2
Standard
 70
     0
 40
0.0
 41
1.0
 50
0.0
 71
     0
 42
0.2
  3
txt
  4

  0
STYLE
  5
2A
330
3
100
AcDbSymbolTableRecord
100
AcDbTextStyleTableRecord
  2
SEACAD_arial_ttfB
 70
     0
 40
0.2
 41
1.0
 50
0.0
 71
     0
 42
0.2
  3
arial.ttf
  4

  0
STYLE
  5
7A
330
3
100
AcDbSymbolTableRecord
100
AcDbTextStyleTableRecord
  2
SEACAD_arial_ttf
 70
     0
 40
0.2
 41
1.0
 50
0.0
 71
     0
 42
0.2
  3
arial.ttf
  4

  0
STYLE
  5
A0
330
3
100
AcDbSymbolTableRecord
100
AcDbTextStyleTableRecord
  2
SEACAD_semeca1_ttf
 70
     0
 40
0.2
 41
1.0
 50
0.0
 71
     0
 42
0.2
  3
semeca1.ttf
  4

  0
STYLE
  5
54F
330
3
100
AcDbSymbolTableRecord
100
AcDbTextStyleTableRecord
  2
SEACAD_seiso_ttf
 70
     0
 40
0.2
 41
1.0
 50
0.0
 71
     0
 42
0.2
  3
seiso.ttf
  4

  0
ENDTAB
  0
TABLE
  2
VIEW
  5
6
330
0
100
AcDbSymbolTable
 70
     0
  0
ENDTAB
  0
TABLE
  2
UCS
  5
7
330
0
100
AcDbSymbolTable
 70
     0
  0
ENDTAB
  0
TABLE
  2
APPID
  5
9
330
0
100
AcDbSymbolTable
 70
     1
  0
APPID
  5
12
330
9
100
AcDbSymbolTableRecord
100
AcDbRegAppTableRecord
  2
ACAD
 70
     0
  0
ENDTAB
  0
TABLE
  2
DIMSTYLE
  5
A
330
0
100
AcDbSymbolTable
 70
     1
100
AcDbDimStyleTable
  0
DIMSTYLE
105
27
330
A
100
AcDbSymbolTableRecord
100
AcDbDimStyleTableRecord
  2
Standard
 70
     0
340
11
  0
ENDTAB
  0
TABLE
  2
BLOCK_RECORD
  5
1
330
0
100
AcDbSymbolTable
 70
    26
  0
BLOCK_RECORD
  5
1F
330
1
100
AcDbSymbolTableRecord
100
AcDbBlockTableRecord
  2
*Model_Space
340
22
  0
BLOCK_RECORD
  5
1B
330
1
100
AcDbSymbolTableRecord
100
AcDbBlockTableRecord
  2
*Paper_Space
340
1E
  0
BLOCK_RECORD
  5
30
330
1
100
AcDbSymbolTableRecord
100
AcDbBlockTableRecord
  2
SEANNOT_GROUP
340
0
102
{BLKREFS
331
31
102
}
  0
BLOCK_RECORD
  5
36
330
1
100
AcDbSymbolTableRecord
100
AcDbBlockTableRecord
  2
SEANNOT_GROUP1
340
0
102
{BLKREFS
331
37
102
}
  0
BLOCK_RECORD
  5
3B
330
1
100
AcDbSymbolTableRecord
100
AcDbBlockTableRecord
  2
SEANNOT_GROUP2
340
0
102
{BLKREFS
331
3C
102
}
  0
BLOCK_RECORD
  5
53
330
1
100
AcDbSymbolTableRecord
100
AcDbBlockTableRecord
  2
SE
340
0
102
{BLKREFS
331
54
102
}
  0
BLOCK_RECORD
  5
70
330
1
100
AcDbSymbolTableRecord
100
AcDbBlockTableRecord
  2
GDimGGroup
340
0
102
{BLKREFS
331
71
102
}
  0
BLOCK_RECORD
  5
7E
330
1
100
AcDbSymbolTableRecord
100
AcDbBlockTableRecord
  2
GDimGGroup1
340
0
102
{BLKREFS
331
7F
102
}
  0
BLOCK_RECORD
  5
8B
330
1
100
AcDbSymbolTableRecord
100
AcDbBlockTableRecord
  2
GDimGGroup2
340
0
102
{BLKREFS
331
8C
102
}
  0
BLOCK_RECORD
  5
98
330
1
100
AcDbSymbolTableRecord
100
AcDbBlockTableRecord
  2
GDimGGroup3
340
0
102
{BLKREFS
331
99
102
}
  0
BLOCK_RECORD
  5
A9
330
1
100
AcDbSymbolTableRecord
100
AcDbBlockTableRecord
  2
SE1
340
0
102
{BLKREFS
331
AA
102
}
  0
BLOCK_RECORD
  5
3A4
330
1
100
AcDbSymbolTableRecord
100
AcDbBlockTableRecord
  2
SE2
340
0
102
{BLKREFS
331
3A5
102
}
  0
BLOCK_RECORD
  5
3DE
330
1
100
AcDbSymbolTableRecord
100
AcDbBlockTableRecord
  2
SE3
340
0
102
{BLKREFS
331
3DF
102
}
  0
BLOCK_RECORD
  5
418
330
1
100
AcDbSymbolTableRecord
100
AcDbBlockTableRecord
  2
GDimGGroup4
340
0
102
{BLKREFS
331
419
102
}
  0
BLOCK_RECORD
  5
425
330
1
100
AcDbSymbolTableRecord
100
AcDbBlockTableRecord
  2
GDimGGroup5
340
0
102
{BLKREFS
331
426
102
}
  0
BLOCK_RECORD
  5
432
330
1
100
AcDbSymbolTableRecord
100
AcDbBlockTableRecord
  2
GDimGGroup6
340
0
102
{BLKREFS
331
433
102
}
  0
BLOCK_RECORD
  5
43F
330
1
100
AcDbSymbolTableRecord
100
AcDbBlockTableRecord
  2
GDimGGroup7
340
0
102
{BLKREFS
331
440
102
}
  0
BLOCK_RECORD
  5
44C
330
1
100
AcDbSymbolTableRecord
100
AcDbBlockTableRecord
  2
GDimGGroup8
340
0
102
{BLKREFS
331
44D
102
}
  0
BLOCK_RECORD
  5
45A
330
1
100
AcDbSymbolTableRecord
100
AcDbBlockTableRecord
  2
GDimGGroup9
340
0
102
{BLKREFS
331
45B
102
}
  0
BLOCK_RECORD
  5
468
330
1
100
AcDbSymbolTableRecord
100
AcDbBlockTableRecord
  2
GDimGGroup10
340
0
102
{BLKREFS
331
469
102
}
  0
BLOCK_RECORD
  5
474
330
1
100
AcDbSymbolTableRecord
100
AcDbBlockTableRecord
  2
GDimGGroup11
340
0
102
{BLKREFS
331
475
102
}
  0
BLOCK_RECORD
  5
482
330
1
100
AcDbSymbolTableRecord
100
AcDbBlockTableRecord
  2
SE4
340
0
102
{BLKREFS
331
483
102
}
  0
BLOCK_RECORD
  5
4BE
330
1
100
AcDbSymbolTableRecord
100
AcDbBlockTableRecord
  2
GDimGGroup12
340
0
102
{BLKREFS
331
4BF
102
}
  0
BLOCK_RECORD
  5
4D0
330
1
100
AcDbSymbolTableRecord
100
AcDbBlockTableRecord
  2
GDimGGroup13
340
0
102
{BLKREFS
331
4D1
102
}
  0
BLOCK_RECORD
  5
4DD
330
1
100
AcDbSymbolTableRecord
100
AcDbBlockTableRecord
  2
GDimGGroup14
340
0
102
{BLKREFS
331
4DE
102
}
  0
BLOCK_RECORD
  5
4EA
330
1
100
AcDbSymbolTableRecord
100
AcDbBlockTableRecord
  2
GDimGGroup15
340
0
102
{BLKREFS
331
4EB
102
}
  0
BLOCK_RECORD
  5
4F7
330
1
100
AcDbSymbolTableRecord
100
AcDbBlockTableRecord
  2
GDimGGroup16
340
0
102
{BLKREFS
331
4F8
102
}
  0
ENDTAB
  0
ENDSEC
  0
SECTION
  2
BLOCKS
  0
BLOCK
  5
20
330
1F
100
AcDbEntity
  8
0
100
AcDbBlockBegin
  2
*Model_Space
 70
     0
 71
     0
 10
0.0
 20
0.0
 30
0.0
  3
*Model_Space
  1

  0
ENDBLK
  5
21
330
1F
100
AcDbEntity
  8
0
100
AcDbBlockEnd
  0
BLOCK
  5
1C
330
1B
100
AcDbEntity
 67
     1
  8
0
100
AcDbBlockBegin
  2
*Paper_Space
 70
     0
 71
     0
 10
0.0
 20
0.0
 30
0.0
  3
*Paper_Space
  1

  0
ENDBLK
  5
1D
330
1B
100
AcDbEntity
 67
     1
  8
0
100
AcDbBlockEnd
  0
BLOCK
  5
34
330
30
100
AcDbEntity
  8
0
100
AcDbBlockBegin
  2
SEANNOT_GROUP
 70
     0
 71
     0
 10
0.0
 20
0.0
 30
0.0
  3
SEANNOT_GROUP
  1

  0
LINE
  5
33
330
30
100
AcDbEntity
  8
Default
  6
CENTER2
 62
     7
 48
25.4
100
AcDbLine
 10
39.4112892844
 20
222.3092240833
 30
0.0
 11
39.4112892844
 21
241.9895225362
 31
0.0
  0
ENDBLK
  5
35
330
30
100
AcDbEntity
  8
0
100
AcDbBlockEnd
  0
BLOCK
  5
39
330
36
100
AcDbEntity
  8
0
100
AcDbBlockBegin
  2
SEANNOT_GROUP1
 70
     0
 71
     0
 10
0.0
 20
0.0
 30
0.0
  3
SEANNOT_GROUP1
  1

  0
LINE
  5
38
330
36
100
AcDbEntity
  8
Default
  6
CENTER2
 62
     7
 48
25.4
100
AcDbLine
 10
42.9570603621
 20
220.6558038757
 30
0.0
 11
58.0330436309
 21
233.3060558762
 31
0.0
  0
ENDBLK
  5
3A
330
36
100
AcDbEntity
  8
0
100
AcDbBlockEnd
  0
BLOCK
  5
3E
330
3B
100
AcDbEntity
  8
0
100
AcDbBlockBegin
  2
SEANNOT_GROUP2
 70
     0
 71
     0
 10
0.0
 20
0.0
 30
0.0
  3
SEANNOT_GROUP2
  1

  0
LINE
  5
3D
330
3B
100
AcDbEntity
  8
Default
  6
CENTER2
 62
     7
 48
25.4
100
AcDbLine
 10
35.8655182067
 20
220.6558038757
 30
0.0
 11
20.7895349379
 21
233.3060558762
 31
0.0
  0
ENDBLK
  5
3F
330
3B
100
AcDbEntity
  8
0
100
AcDbBlockEnd
  0
BLOCK
  5
6E
330
53
100
AcDbEntity
  8
0
100
AcDbBlockBegin
  2
SE
 70
     0
 71
     0
 10
0.0
 20
0.0
 30
0.0
  3
SE
  1

  0
LINE
  5
56
330
53
100
AcDbEntity
  8
DV1_Hebel
  6
Continuous
 62
     7
 48
25.4
100
AcDbLine
 10
38.2862892844
 20
240.3645225362
 30
0.0
 11
40.5362892844
 21
240.3645225362
 31
0.0
  0
ARC
  5
57
330
53
100
AcDbEntity
  8
DV1_Hebel
  6
Continuous
 62
     7
 48
25.4
100
AcDbCircle
 10
40.5362892844
 20
240.2395225362
 30
0.0
 40
0.125
100
AcDbArc
 50
0.0
 51
90.0
  0
LINE
  5
58
330
53
100
AcDbEntity
  8
DV1_Hebel
  6
Continuous
 62
     7
 48
25.4
100
AcDbLine
 10
40.6612892844
 20
240.2395225362
 30
0.0
 11
40.6612892844
 21
224.0592240833
 31
0.0
  0
ARC
  5
59
330
53
100
AcDbEntity
  8
DV1_Hebel
  6
Continuous
 62
     7
 48
25.4
100
AcDbCircle
 10
38.2862892844
 20
240.2395225362
 30
0.0
 40
0.125
100
AcDbArc
 50
90.0
 51
180.0
  0
LINE
  5
5A
330
53
100
AcDbEntity
  8
DV1_Hebel
  6
Continuous
 62
     7
 48
25.4
100
AcDbLine
 10
38.1612892844
 20
240.2395225362
 30
0.0
 11
38.1612892844
 21
224.0592240833
 31
0.0
  0
LINE
  5
5B
330
53
100
AcDbEntity
  8
DV1_Hebel
  6
Continuous
 62
     7
 48
25.4
100
AcDbLine
 10
38.2862892844
 20
240.3645225362
 30
0.0
 11
40.5362892844
 21
240.3645225362
 31
0.0
  0
LINE
  5
5C
330
53
100
AcDbEntity
  8
DV1_Hebel
  6
Continuous
 62
     7
 48
25.4
100
AcDbLine
 10
38.2862892844
 20
240.3645225362
 30
0.0
 11
40.5362892844
 21
240.3645225362
 31
0.0
  0
CIRCLE
  5
5E
330
53
100
AcDbEntity
  8
DV1_Default
  6
Continuous
 62
     7
 48
25.4
100
AcDbCircle
 10
39.4112892844
 20
217.6805486722
 30
0.0
 40
6.500000000000001
  0
LINE
  5
60
330
53
100
AcDbEntity
  8
DV1_Hebel
  6
HIDDEN2
 62
     7
 48
25.4
100
AcDbLine
 10
56.0650853499
 20
233.1233260089
 30
0.0
 11
57.5113574717
 21
231.3997260119
 31
0.0
  0
ARC
  5
61
330
53
100
AcDbEntity
  8
DV1_Hebel
  6
HIDDEN2
 62
     7
 48
25.4
100
AcDbCircle
 10
57.4156019163
 20
231.3193775607
 30
0.0
 40
0.125
100
AcDbArc
 50
310.0
 51
40.0
  0
LINE
  5
62
330
53
100
AcDbEntity
  8
DV1_Hebel
  6
HIDDEN2
 62
     7
 48
25.4
100
AcDbLine
 10
57.4959503675
 20
231.2236220053
 30
0.0
 11
45.1011226496
 21
220.8231266387
 31
0.0
  0
ARC
  5
63
330
53
100
AcDbEntity
  8
DV1_Hebel
  6
HIDDEN2
 62
     7
 48
25.4
100
AcDbCircle
 10
55.9693297945
 20
233.0429775577
 30
0.0
 40
0.125
100
AcDbArc
 50
40.0
 51
130.0
  0
LINE
  5
64
330
53
100
AcDbEntity
  8
DV1_Hebel
  6
HIDDEN2
 62
     7
 48
25.4
100
AcDbLine
 10
55.8889813433
 20
233.1387331131
 30
0.0
 11
43.4941536254
 21
222.7382377465
 31
0.0
  0
LINE
  5
65
330
53
100
AcDbEntity
  8
DV1_Hebel
  6
HIDDEN2
 62
     7
 48
25.4
100
AcDbLine
 10
56.0650853499
 20
233.1233260089
 30
0.0
 11
57.5113574717
 21
231.3997260119
 31
0.0
  0
LINE
  5
66
330
53
100
AcDbEntity
  8
DV1_Hebel
  6
HIDDEN2
 62
     7
 48
25.4
100
AcDbLine
 10
56.0650853499
 20
233.1233260089
 30
0.0
 11
57.5113574717
 21
231.3997260119
 31
0.0
  0
LINE
  5
67
330
53
100
AcDbEntity
  8
DV1_Hebel
  6
HIDDEN2
 62
     7
 48
25.4
100
AcDbLine
 10
21.3112210971
 20
231.3997260119
 30
0.0
 11
22.7574932189
 21
233.1233260089
 31
0.0
  0
ARC
  5
68
330
53
100
AcDbEntity
  8
DV1_Hebel
  6
HIDDEN2
 62
     7
 48
25.4
100
AcDbCircle
 10
22.8532487743
 20
233.0429775577
 30
0.0
 40
0.125
100
AcDbArc
 50
50.0
 51
140.0
  0
LINE
  5
69
330
53
100
AcDbEntity
  8
DV1_Hebel
  6
HIDDEN2
 62
     7
 48
25.4
100
AcDbLine
 10
22.9335972255
 20
233.1387331131
 30
0.0
 11
35.3284249434
 21
222.7382377465
 31
0.0
  0
ARC
  5
6A
330
53
100
AcDbEntity
  8
DV1_Hebel
  6
HIDDEN2
 62
     7
 48
25.4
100
AcDbCircle
 10
21.4069766525
 20
231.3193775607
 30
0.0
 40
0.125
100
AcDbArc
 50
140.0
 51
230.0
  0
LINE
  5
6B
330
53
100
AcDbEntity
  8
DV1_Hebel
  6
HIDDEN2
 62
     7
 48
25.4
100
AcDbLine
 10
21.3266282013
 20
231.2236220053
 30
0.0
 11
33.7214559192
 21
220.8231266387
 31
0.0
  0
LINE
  5
6C
330
53
100
AcDbEntity
  8
DV1_Hebel
  6
HIDDEN2
 62
     7
 48
25.4
100
AcDbLine
 10
21.3112210971
 20
231.3997260119
 30
0.0
 11
22.7574932189
 21
233.1233260089
 31
0.0
  0
LINE
  5
6D
330
53
100
AcDbEntity
  8
DV1_Hebel
  6
HIDDEN2
 62
     7
 48
25.4
100
AcDbLine
 10
21.3112210971
 20
231.3997260119
 30
0.0
 11
22.7574932189
 21
233.1233260089
 31
0.0
  0
ENDBLK
  5
6F
330
53
100
AcDbEntity
  8
0
100
AcDbBlockEnd
  0
BLOCK
  5
7C
330
70
100
AcDbEntity
  8
0
100
AcDbBlockBegin
  2
GDimGGroup
 70
     0
 71
     0
 10
0.0
 20
0.0
 30
0.0
  3
GDimGGroup
  1

  0
HATCH
  5
72
330
70
100
AcDbEntity
  8
Default
  6
Continuous
 62
   136
 48
25.4
100
AcDbHatch
 10
0.0
 20
0.0
 30
0.0
210
0.0
220
0.0
230
1.0
  2
SOLID
 70
     1
 71
     0
 91
        1
 92
        1
 93
        3
 72
     1
 10
33.41128923224936
 20
262.88083302813
 11
33.41128923224936
 21
260.8808330107453
 72
     1
 10
33.41128923224936
 20
260.8808330107453
 11
39.41128928440342
 21
261.8808330194377
 72
     1
 10
39.41128928440342
 20
261.8808330194377
 11
33.41128923224936
 21
262.88083302813
 97
        0
 75
     0
 76
     1
 98
        0
  0
LWPOLYLINE
  5
73
330
70
100
AcDbEntity
  8
Default
  6
Continuous
 62
   136
 48
25.4
370
    30
100
AcDbPolyline
 90
        4
 70
     1
 43
0.0
 10
33.4112892322
 20
262.8808330281
 10
39.4112892844
 20
261.8808330194
 10
33.4112892322
 20
260.8808330107
 10
33.4112892322
 20
262.8808330281
  0
HATCH
  5
74
330
70
100
AcDbEntity
  8
Default
  6
Continuous
 62
   136
 48
25.4
100
AcDbHatch
 10
0.0
 20
0.0
 30
0.0
210
0.0
220
0.0
230
1.0
  2
SOLID
 70
     1
 71
     0
 91
        1
 92
        1
 93
        3
 72
     1
 10
63.5401263057375
 20
262.88083302813
 11
57.54012625358342
 21
261.8808330194377
 72
     1
 10
57.54012625358342
 20
261.8808330194377
 11
63.5401263057375
 21
260.8808330107453
 72
     1
 10
63.5401263057375
 20
260.8808330107453
 11
63.5401263057375
 21
262.88083302813
 97
        0
 75
     0
 76
     1
 98
        0
  0
LWPOLYLINE
  5
75
330
70
100
AcDbEntity
  8
Default
  6
Continuous
 62
   136
 48
25.4
370
    30
100
AcDbPolyline
 90
        4
 70
     1
 43
0.0
 10
63.5401263057
 20
262.8808330281
 10
57.5401262536
 20
261.8808330194
 10
63.5401263057
 20
260.8808330107
 10
63.5401263057
 20
262.8808330281
  0
LINE
  5
76
330
70
100
AcDbEntity
  8
Default
  6
Continuous
 62
     7
 48
25.4
100
AcDbLine
 10
39.4112892844
 20
241.9895225362
 30
0.0
 11
39.4112892844
 21
264.8808330455
 31
0.0
  0
LINE
  5
77
330
70
100
AcDbEntity
  8
Default
  6
Continuous
 62
     7
 48
25.4
100
AcDbLine
 10
57.5401262536
 20
231.3084830929
 30
0.0
 11
57.5401262536
 21
264.8808330455
 31
0.0
  0
LINE
  5
78
330
70
100
AcDbEntity
  8
Default
  6
Continuous
 62
     7
 48
25.4
100
AcDbLine
 10
27.4112891801
 20
261.8808330194
 30
0.0
 11
39.4112892844
 21
261.8808330194
 31
0.0
  0
LINE
  5
79
330
70
100
AcDbEntity
  8
Default
  6
Continuous
 62
     7
 48
25.4
100
AcDbLine
 10
57.5401262536
 20
261.8808330194
 30
0.0
 11
69.5401263579
 21
261.8808330194
 31
0.0
  0
TEXT
  5
7B
330
70
100
AcDbEntity
  8
Default
  6
Continuous
 62
     7
 48
25.4
100
AcDbText
 10
43.7800553742
 20
258.8808330194
 30
0.0
 40
6.0
  1
73
  7
SEACAD_arial_ttf
 11
43.7800553742
 21
264.8808330194
 31
0.0
100
AcDbText
 73
     3
  0
ENDBLK
  5
7D
330
70
100
AcDbEntity
  8
0
100
AcDbBlockEnd
  0
BLOCK
  5
89
330
7E
100
AcDbEntity
  8
0
100
AcDbBlockBegin
  2
GDimGGroup1
 70
     0
 71
     0
 10
0.0
 20
0.0
 30
0.0
  3
GDimGGroup1
  1

  0
HATCH
  5
80
330
7E
100
AcDbEntity
  8
Default
  6
Continuous
 62
   136
 48
25.4
100
AcDbHatch
 10
0.0
 20
0.0
 30
0.0
210
0.0
220
0.0
230
1.0
  2
SOLID
 70
     1
 71
     0
 91
        1
 92
        1
 93
        3
 72
     1
 10
60.4389238314802
 20
243.0113370212641
 11
65.39286091379515
 21
239.4816758437998
 72
     1
 10
65.39286091379515
 20
239.4816758437998
 11
61.85145919078293
 21
244.4272268221519
 72
     1
 10
61.85145919078293
 20
244.4272268221519
 11
60.4389238314802
 21
243.0113370212641
 97
        0
 75
     0
 76
     1
 98
        0
  0
LWPOLYLINE
  5
81
330
7E
100
AcDbEntity
  8
Default
  6
Continuous
 62
   136
 48
25.4
370
    30
100
AcDbPolyline
 90
        4
 70
     1
 43
0.0
 10
60.4389238315
 20
243.0113370213
 10
65.3928609138
 20
239.4816758438
 10
61.8514591908
 20
244.4272268222
 10
60.4389238315
 20
243.0113370213
  0
HATCH
  5
82
330
7E
100
AcDbEntity
  8
Default
  6
Continuous
 62
   136
 48
25.4
100
AcDbHatch
 10
0.0
 20
0.0
 30
0.0
210
0.0
220
0.0
230
1.0
  2
SOLID
 70
     1
 71
     0
 91
        1
 92
        1
 93
        3
 72
     1
 10
45.47617027836485
 20
252.0631494420172
 11
39.41128928440342
 21
251.5970816654879
 72
     1
 10
39.41128928440342
 20
251.5970816654878
 11
45.29949598999807
 21
250.0709681587578
 72
     1
 10
45.29949598999807
 20
250.0709681587578
 11
45.47617027836485
 21
252.0631494420172
 97
        0
 75
     0
 76
     1
 98
        0
  0
LWPOLYLINE
  5
83
330
7E
100
AcDbEntity
  8
Default
  6
Continuous
 62
   136
 48
25.4
370
    30
100
AcDbPolyline
 90
        4
 70
     1
 43
0.0
 10
45.4761702784
 20
252.063149442
 10
39.4112892844
 20
251.5970816655
 10
45.29949599
 20
250.0709681588
 10
45.4761702784
 20
252.063149442
  0
LINE
  5
84
330
7E
100
AcDbEntity
  8
Default
  6
Continuous
 62
     7
 48
25.4
100
AcDbLine
 10
58.0330436763
 20
233.3060559143
 30
0.0
 11
67.690993193
 21
241.4100377917
 31
0.0
  0
LINE
  5
85
330
7E
100
AcDbEntity
  8
Default
  6
Continuous
 62
     7
 48
25.4
100
AcDbLine
 10
39.4112892844
 20
241.9895225955
 30
0.0
 11
39.4112892844
 21
254.5970802946
 31
0.0
  0
ARC
  5
86
330
7E
100
AcDbEntity
  8
Default
  6
Continuous
 62
     7
 48
25.4
100
AcDbCircle
 10
39.4112892844
 20
217.6805486722
 30
0.0
 40
33.91653299331295
100
AcDbArc
 50
40.0
 51
49.107454494
  0
ARC
  5
87
330
7E
100
AcDbEntity
  8
Default
  6
Continuous
 62
     7
 48
25.4
100
AcDbCircle
 10
39.4112892844
 20
217.6805486722
 30
0.0
 40
33.91653299331562
100
AcDbArc
 50
80.0807877684
 51
90.0
  0
TEXT
  5
88
330
7E
100
AcDbEntity
  8
Default
  6
Continuous
 62
     7
 48
25.4
100
AcDbText
 10
47.3537311545
 20
245.4193666333
 30
0.0
 40
6.0
  1
50°
  7
SEACAD_arial_ttf
 11
47.3537311545
 21
251.4193666333
 31
0.0
100
AcDbText
 73
     3
  0
ENDBLK
  5
8A
330
7E
100
AcDbEntity
  8
0
100
AcDbBlockEnd
  0
BLOCK
  5
96
330
8B
100
AcDbEntity
  8
0
100
AcDbBlockBegin
  2
GDimGGroup2
 70
     0
 71
     0
 10
0.0
 20
0.0
 30
0.0
  3
GDimGGroup2
  1

  0
HATCH
  5
8D
330
8B
100
AcDbEntity
  8
Default
  6
Continuous
 62
   136
 48
25.4
100
AcDbHatch
 10
0.0
 20
0.0
 30
0.0
210
0.0
220
0.0
230
1.0
  2
SOLID
 70
     1
 71
     0
 91
        1
 92
        1
 93
        3
 72
     1
 10
33.52308257763541
 20
250.070968163285
 11
39.41128928440342
 21
251.5970816654878
 72
     1
 10
39.41128928440342
 20
251.5970816654878
 11
33.34640829080035
 21
252.0631494466802
 72
     1
 10
33.34640829080035
 20
252.0631494466802
 11
33.52308257763541
 21
250.070968163285
 97
        0
 75
     0
 76
     1
 98
        0
  0
LWPOLYLINE
  5
8E
330
8B
100
AcDbEntity
  8
Default
  6
Continuous
 62
   136
 48
25.4
370
    30
100
AcDbPolyline
 90
        4
 70
     1
 43
0.0
 10
33.5230825776
 20
250.0709681633
 10
39.4112892844
 20
251.5970816655
 10
33.3464082908
 20
252.0631494467
 10
33.5230825776
 20
250.0709681633
  0
HATCH
  5
8F
330
8B
100
AcDbEntity
  8
Default
  6
Continuous
 62
   136
 48
25.4
100
AcDbHatch
 10
0.0
 20
0.0
 30
0.0
210
0.0
220
0.0
230
1.0
  2
SOLID
 70
     1
 71
     0
 91
        1
 92
        1
 93
        3
 72
     1
 10
16.97111938182636
 20
244.4272268194291
 11
13.42971765501171
 21
239.4816758437998
 72
     1
 10
13.42971765501171
 20
239.4816758437998
 11
18.38365474004047
 21
243.0113370174552
 72
     1
 10
18.38365474004047
 20
243.0113370174552
 11
16.97111938182636
 21
244.4272268194291
 97
        0
 75
     0
 76
     1
 98
        0
  0
LWPOLYLINE
  5
90
330
8B
100
AcDbEntity
  8
Default
  6
Continuous
 62
   136
 48
25.4
370
    30
100
AcDbPolyline
 90
        4
 70
     1
 43
0.0
 10
16.9711193818
 20
244.4272268194
 10
13.429717655
 20
239.4816758438
 10
18.38365474
 20
243.0113370175
 10
16.9711193818
 20
244.4272268194
  0
LINE
  5
91
330
8B
100
AcDbEntity
  8
Default
  6
Continuous
 62
     7
 48
25.4
100
AcDbLine
 10
39.4112892844
 20
241.9895225955
 30
0.0
 11
39.4112892844
 21
254.5970802946
 31
0.0
  0
LINE
  5
92
330
8B
100
AcDbEntity
  8
Default
  6
Continuous
 62
     7
 48
25.4
100
AcDbLine
 10
20.7895348925
 20
233.3060559143
 30
0.0
 11
11.1315853758
 21
241.4100377917
 31
0.0
  0
ARC
  5
93
330
8B
100
AcDbEntity
  8
Default
  6
Continuous
 62
     7
 48
25.4
100
AcDbCircle
 10
39.4112892844
 20
217.6805486722
 30
0.0
 40
33.91653299331562
100
AcDbArc
 50
90.0
 51
99.9192122316
  0
ARC
  5
94
330
8B
100
AcDbEntity
  8
Default
  6
Continuous
 62
     7
 48
25.4
100
AcDbCircle
 10
39.4112892844
 20
217.6805486722
 30
0.0
 40
33.91653299331824
100
AcDbArc
 50
130.892545506
 51
140.0
  0
TEXT
  5
95
330
8B
100
AcDbEntity
  8
Default
  6
Continuous
 62
     7
 48
25.4
100
AcDbText
 10
18.6862387187
 20
245.4193666333
 30
0.0
 40
6.0
  1
50°
  7
SEACAD_arial_ttf
 11
18.6862387187
 21
251.4193666333
 31
0.0
100
AcDbText
 73
     3
  0
ENDBLK
  5
97
330
8B
100
AcDbEntity
  8
0
100
AcDbBlockEnd
  0
BLOCK
  5
A7
330
98
100
AcDbEntity
  8
0
100
AcDbBlockBegin
  2
GDimGGroup3
 70
     0
 71
     0
 10
0.0
 20
0.0
 30
0.0
  3
GDimGGroup3
  1

  0
LINE
  5
9A
330
98
100
AcDbEntity
  8
Default
  6
Continuous
 62
     7
 48
25.4
100
AcDbLine
 10
83.5302689065
 20
76.691779409
 30
0.0
 11
66.1459130416
 21
88.0207986533
 31
0.0
  0
LINE
  5
9B
330
98
100
AcDbEntity
  8
Default
  6
Continuous
 62
     7
 48
25.4
100
AcDbLine
 10
66.1459130728
 20
88.020798633
 30
0.0
 11
3.8224859564
 21
128.6356658543
 31
0.0
  0
HATCH
  5
9C
330
98
100
AcDbEntity
  8
Default
  6
Continuous
 62
   136
 48
25.4
100
AcDbHatch
 10
0.0
 20
0.0
 30
0.0
210
0.0
220
0.0
230
1.0
  2
SOLID
 70
     1
 71
     0
 91
        1
 92
        1
 93
        3
 72
     1
 10
77.95749036914313
 20
79.12984011720479
 11
79.04944403329348
 21
80.80544068562419
 72
     1
 10
79.04944403329348
 20
80.80544068562419
 11
73.47666549596012
 21
83.24350139386553
 72
     1
 10
73.47666549596013
 20
83.24350139386552
 11
77.95749036914314
 21
79.12984011720479
 97
        0
 75
     0
 76
     1
 98
        0
  0
LWPOLYLINE
  5
9D
330
98
100
AcDbEntity
  8
Default
  6
Continuous
 62
   136
 48
25.4
370
    30
100
AcDbPolyline
 90
        4
 70
     1
 43
0.0
 10
77.9574903691
 20
79.1298401172
 10
73.476665496
 20
83.2435013939
 10
79.0494440333
 20
80.8054406856
 10
77.9574903691
 20
79.1298401172
  0
HATCH
  5
9E
330
98
100
AcDbEntity
  8
Default
  6
Continuous
 62
   136
 48
25.4
100
AcDbHatch
 10
0.0
 20
0.0
 30
0.0
210
0.0
220
0.0
230
1.0
  2
SOLID
 70
     1
 71
     0
 91
        1
 92
        1
 93
        3
 72
     1
 10
60.57313453551335
 20
90.45885934123869
 11
66.1459130728467
 21
88.02079863299736
 72
     1
 10
66.1459130728467
 20
88.02079863299736
 11
61.66508819966369
 21
92.13445990965808
 72
     1
 10
61.66508819966369
 20
92.13445990965809
 11
60.57313453551335
 21
90.45885934123869
 97
        0
 75
     0
 76
     1
 98
        0
  0
LWPOLYLINE
  5
9F
330
98
100
AcDbEntity
  8
Default
  6
Continuous
 62
   136
 48
25.4
370
    30
100
AcDbPolyline
 90
        4
 70
     1
 43
0.0
 10
60.5731345355
 20
90.4588593412
 10
66.1459130728
 20
88.020798633
 10
61.6650881997
 20
92.1344599097
 10
60.5731345355
 20
90.4588593412
  0
TEXT
  5
A1
330
98
100
AcDbEntity
  8
Default
  6
Continuous
 62
     7
 48
25.4
100
AcDbText
 10
6.4008351921
 20
128.7458127079
 30
0.0
 40
6.0
  1
O
 50
326.9085581029
  7
SEACAD_semeca1_ttf
 11
9.6766961561
 21
133.7726143695
 31
0.0
100
AcDbText
 73
     3
  0
TEXT
  5
A2
330
98
100
AcDbEntity
  8
Default
  6
Continuous
 62
     7
 48
25.4
100
AcDbText
 10
12.1331528764
 20
125.0101817841
 30
0.0
 40
6.0
  1
35(
 50
326.9085581029
  7
SEACAD_arial_ttf
 11
15.4090138404
 21
130.0369834457
 31
0.0
100
AcDbText
 73
     3
  0
TEXT
  5
A3
330
98
100
AcDbEntity
  8
Default
  6
Continuous
 62
     7
 48
25.4
100
AcDbText
 10
22.2960344965
 20
118.3872454874
 30
0.0
 40
6.0
  1
O
 50
326.9085581029
  7
SEACAD_semeca1_ttf
 11
25.5718954605
 21
123.4140471489
 31
0.0
100
AcDbText
 73
     3
  0
TEXT
  5
A4
330
98
100
AcDbEntity
  8
Default
  6
Continuous
 62
     7
 48
25.4
100
AcDbText
 10
28.0283521807
 20
114.6516145635
 30
0.0
 40
6.0
  1
34-
 50
326.9085581029
  7
SEACAD_arial_ttf
 11
31.3042131447
 21
119.6784162251
 31
0.0
100
AcDbText
 73
     3
  0
TEXT
  5
A5
330
98
100
AcDbEntity
  8
Default
  6
Continuous
 62
     7
 48
25.4
100
AcDbText
 10
38.1912338009
 20
108.0286782668
 30
0.0
 40
6.0
  1
O
 50
326.9085581029
  7
SEACAD_semeca1_ttf
 11
41.4670947648
 21
113.0554799284
 31
0.0
100
AcDbText
 73
     3
  0
TEXT
  5
A6
330
98
100
AcDbEntity
  8
Default
  6
Continuous
 62
     7
 48
25.4
100
AcDbText
 10
43.9235514851
 20
104.293047343
 30
0.0
 40
6.0
  1
37)
 50
326.9085581029
  7
SEACAD_arial_ttf
 11
47.1994124491
 21
109.3198490045
 31
0.0
100
AcDbText
 73
     3
  0
ENDBLK
  5
A8
330
98
100
AcDbEntity
  8
0
100
AcDbBlockEnd
  0
BLOCK
  5
3A2
330
A9
100
AcDbEntity
  8
0
100
AcDbBlockBegin
  2
SE1
 70
     0
 71
     0
 10
0.0
 20
0.0
 30
0.0
  3
SE1
  1

  0
LINE
  5
AC
330
A9
100
AcDbEntity
  8
DV2_Layer9
  6
Continuous
 62
     7
 48
25.4
100
AcDbLine
 10
96.1862892844
 20
195.6321500134
 30
0.0
 11
96.1862892844
 21
195.6571500134
 31
0.0
  0
LINE
  5
AE
330
A9
100
AcDbEntity
  8
DV2_Layer17
  6
Continuous
 62
     7
 48
25.4
100
AcDbLine
 10
91.9362892844
 20
177.0486757455
 30
0.0
 11
91.9362892844
 21
179.3821500134
 31
0.0
  0
LINE
  5
B0
330
A9
100
AcDbEntity
  8
DV2_Layer5
  6
Continuous
 62
     7
 48
25.4
100
AcDbLine
 10
86.0612892844
 20
228.1821500134
 30
0.0
 11
86.0612892844
 21
224.3755586337
 31
0.0
  0
LINE
  5
B1
330
A9
100
AcDbEntity
  8
DV2_Layer5
  6
Continuous
 62
     7
 48
25.4
100
AcDbLine
 10
92.8112892844
 20
224.3756356254
 30
0.0
 11
92.8112892844
 21
227.0946500134
 31
0.0
  0
LINE
  5
B3
330
A9
100
AcDbEntity
  8
DV2_Layer12
  6
Continuous
 62
     7
 48
25.4
100
AcDbLine
 10
90.1487892844
 20
183.1321500134
 30
0.0
 11
90.1487892844
 21
180.6321500134
 31
0.0
  0
LINE
  5
B4
330
A9
100
AcDbEntity
  8
DV2_Layer12
  6
Continuous
 62
     7
 48
25.4
100
AcDbLine
 10
96.1862892844
 20
180.6321500134
 30
0.0
 11
96.1862892844
 21
183.1321500134
 31
0.0
  0
LINE
  5
B5
330
A9
100
AcDbEntity
  8
DV2_Layer12
  6
Continuous
 62
     7
 48
25.4
100
AcDbLine
 10
96.1862892844
 20
181.0355250134
 30
0.0
 11
101.8972392844
 21
183.1321500134
 31
0.0
  0
LINE
  5
B6
330
A9
100
AcDbEntity
  8
DV2_Layer12
  6
Continuous
 62
     7
 48
25.4
100
AcDbLine
 10
102.8112892844
 20
184.3821500134
 30
0.0
 11
102.4763392844
 21
183.1321500134
 31
0.0
  0
LINE
  5
B7
330
A9
100
AcDbEntity
  8
DV2_Layer12
  6
Continuous
 62
     7
 48
25.4
100
AcDbLine
 10
91.2237892844
 20
183.1321500134
 30
0.0
 11
91.2237892844
 21
180.6321500134
 31
0.0
  0
LINE
  5
B8
330
A9
100
AcDbEntity
  8
DV2_Layer12
  6
Continuous
 62
     7
 48
25.4
100
AcDbLine
 10
85.1862892844
 20
180.6321500134
 30
0.0
 11
85.1862892844
 21
183.1321500134
 31
0.0
  0
LINE
  5
B9
330
A9
100
AcDbEntity
  8
DV2_Layer12
  6
Continuous
 62
     7
 48
25.4
100
AcDbLine
 10
85.1862892844
 20
180.6321500134
 30
0.0
 11
96.1862892844
 21
180.6321500134
 31
0.0
  0
LINE
  5
BB
330
A9
100
AcDbEntity
  8
DV2_Layer13
  6
Continuous
 62
     7
 48
25.4
100
AcDbLine
 10
84.6865530495
 20
180.1321500134
 30
0.0
 11
84.6865530495
 21
180.6321500134
 31
0.0
  0
LINE
  5
BC
330
A9
100
AcDbEntity
  8
DV2_Layer13
  6
Continuous
 62
     7
 48
25.4
100
AcDbLine
 10
96.6865530495
 20
180.6321500134
 30
0.0
 11
84.6865530495
 21
180.6321500134
 31
0.0
  0
LINE
  5
BD
330
A9
100
AcDbEntity
  8
DV2_Layer13
  6
Continuous
 62
     7
 48
25.4
100
AcDbLine
 10
96.6865530495
 20
180.1321500134
 30
0.0
 11
96.6865530495
 21
180.6321500134
 31
0.0
  0
LINE
  5
BE
330
A9
100
AcDbEntity
  8
DV2_Layer13
  6
Continuous
 62
     7
 48
25.4
100
AcDbLine
 10
96.6865530495
 20
180.1321500134
 30
0.0
 11
84.6865530495
 21
180.1321500134
 31
0.0
  0
LINE
  5
BF
330
A9
100
AcDbEntity
  8
DV2_Layer12
  6
Continuous
 62
     7
 48
25.4
100
AcDbLine
 10
102.4763392844
 20
183.1321500134
 30
0.0
 11
78.8962392844
 21
183.1321500134
 31
0.0
  0
LINE
  5
C0
330
A9
100
AcDbEntity
  8
DV2_Layer12
  6
Continuous
 62
     7
 48
25.4
100
AcDbLine
 10
78.5612892844
 20
184.3821500134
 30
0.0
 11
78.8962392844
 21
183.1321500134
 31
0.0
  0
LINE
  5
C1
330
A9
100
AcDbEntity
  8
DV2_Layer12
  6
Continuous
 62
     7
 48
25.4
100
AcDbLine
 10
85.1862892844
 20
181.0355250134
 30
0.0
 11
79.4753392844
 21
183.1321500134
 31
0.0
  0
LINE
  5
C3
330
A9
100
AcDbEntity
  8
DV2_Layer16
  6
Continuous
 62
     7
 48
25.4
100
AcDbLine
 10
89.8112892844
 20
195.6321500134
 30
0.0
 11
89.8112892844
 21
184.3821500134
 31
0.0
  0
LINE
  5
C4
330
A9
100
AcDbEntity
  8
DV2_Layer16
  6
Continuous
 62
     7
 48
25.4
100
AcDbLine
 10
89.6362892844
 20
195.6321500134
 30
0.0
 11
89.6362892844
 21
184.3821500134
 31
0.0
  0
LINE
  5
C5
330
A9
100
AcDbEntity
  8
DV2_Layer16
  6
Continuous
 62
     7
 48
25.4
100
AcDbLine
 10
87.9862892844
 20
195.6321500134
 30
0.0
 11
87.9862892844
 21
184.3821500134
 31
0.0
  0
LINE
  5
C6
330
A9
100
AcDbEntity
  8
DV2_Layer16
  6
Continuous
 62
     7
 48
25.4
100
AcDbLine
 10
87.8112892844
 20
195.6321500134
 30
0.0
 11
87.8112892844
 21
184.3821500134
 31
0.0
  0
LINE
  5
C8
330
A9
100
AcDbEntity
  8
DV2_Layer14
  6
Continuous
 62
     7
 48
25.4
100
AcDbLine
 10
94.1862892844
 20
179.3821500134
 30
0.0
 11
94.1862892844
 21
180.1321500134
 31
0.0
  0
ARC
  5
C9
330
A9
100
AcDbEntity
  8
DV2_Layer14
  6
Continuous
 62
     7
 48
25.4
100
AcDbCircle
 10
91.1134674476
 20
179.3821500134
 30
0.0
 40
0.3750000000000405
100
AcDbArc
 50
270.0
 51
336.4218234746
  0
ARC
  5
CA
330
A9
100
AcDbEntity
  8
DV2_Layer14
  6
Continuous
 62
     7
 48
25.4
100
AcDbCircle
 10
91.6862893512
 20
179.1321500232
 30
0.0
 40
0.2499999902383662
100
AcDbArc
 50
90.0000153003
 51
156.4218153041
  0
LINE
  5
CB
330
A9
100
AcDbEntity
  8
DV2_Layer14
  6
Continuous
 62
     7
 48
25.4
100
AcDbLine
 10
86.4362892844
 20
179.0071500134
 30
0.0
 11
91.1134674476
 21
179.0071500134
 31
0.0
  0
LINE
  5
CC
330
A9
100
AcDbEntity
  8
DV2_Layer14
  6
Continuous
 62
     7
 48
25.4
100
AcDbLine
 10
87.009111188
 20
179.3821500134
 30
0.0
 11
94.1862892844
 21
179.3821500134
 31
0.0
  0
LINE
  5
CD
330
A9
100
AcDbEntity
  8
DV2_Layer14
  6
Continuous
 62
     7
 48
25.4
100
AcDbLine
 10
85.3112892844
 20
180.1321500134
 30
0.0
 11
94.1862892844
 21
180.1321500134
 31
0.0
  0
ARC
  5
CE
330
A9
100
AcDbEntity
  8
DV2_Layer14
  6
Continuous
 62
     7
 48
25.4
100
AcDbCircle
 10
87.009111188
 20
179.1321500232
 30
0.0
 40
0.2499999902383609
100
AcDbArc
 50
90.0000153003
 51
156.421815304
  0
ARC
  5
CF
330
A9
100
AcDbEntity
  8
DV2_Layer14
  6
Continuous
 62
     7
 48
25.4
100
AcDbCircle
 10
86.4362892844
 20
179.3821500134
 30
0.0
 40
0.3750000000000212
100
AcDbArc
 50
270.0
 51
336.4218234746
  0
LINE
  5
D0
330
A9
100
AcDbEntity
  8
DV2_Layer14
  6
Continuous
 62
     7
 48
25.4
100
AcDbLine
 10
86.1862892844
 20
179.0071500134
 30
0.0
 11
86.4362892844
 21
179.0071500134
 31
0.0
  0
ARC
  5
D1
330
A9
100
AcDbEntity
  8
DV2_Layer14
  6
Continuous
 62
     7
 48
25.4
100
AcDbCircle
 10
86.1862892844
 20
179.3821500134
 30
0.0
 40
0.3750000000000462
100
AcDbArc
 50
203.5781804506
 51
270.0
  0
ARC
  5
D2
330
A9
100
AcDbEntity
  8
DV2_Layer14
  6
Continuous
 62
     7
 48
25.4
100
AcDbCircle
 10
85.6134673894
 20
179.1321500036
 30
0.0
 40
0.2499999427177586
100
AcDbArc
 50
23.5781837147
 51
89.9999866623
  0
LINE
  5
D3
330
A9
100
AcDbEntity
  8
DV2_Layer14
  6
Continuous
 62
     7
 48
25.4
100
AcDbLine
 10
85.3112892844
 20
179.3821500134
 30
0.0
 11
85.6134674476
 21
179.3821500134
 31
0.0
  0
LINE
  5
D4
330
A9
100
AcDbEntity
  8
DV2_Layer14
  6
Continuous
 62
     7
 48
25.4
100
AcDbLine
 10
85.3112892844
 20
180.1321500134
 30
0.0
 11
85.3112892844
 21
179.3821500134
 31
0.0
  0
LINE
  5
D6
330
A9
100
AcDbEntity
  8
DV2_Layer15
  6
Continuous
 62
     7
 48
25.4
100
AcDbLine
 10
88.8112892844
 20
176.7571500134
 30
0.0
 11
90.4362892844
 21
176.7571500134
 31
0.0
  0
LINE
  5
D7
330
A9
100
AcDbEntity
  8
DV2_Layer15
  6
Continuous
 62
     7
 48
25.4
100
AcDbLine
 10
87.1862892844
 20
176.7571500134
 30
0.0
 11
88.8112892844
 21
176.7571500134
 31
0.0
  0
LINE
  5
D8
330
A9
100
AcDbEntity
  8
DV2_Layer15
  6
Continuous
 62
     7
 48
25.4
100
AcDbLine
 10
90.4362892844
 20
176.7571500134
 30
0.0
 11
90.5362892844
 21
176.8571500134
 31
0.0
  0
LINE
  5
D9
330
A9
100
AcDbEntity
  8
DV2_Layer15
  6
Continuous
 62
     7
 48
25.4
100
AcDbLine
 10
90.4362892844
 20
176.7571500134
 30
0.0
 11
90.5362892844
 21
176.6571500134
 31
0.0
  0
LINE
  5
DA
330
A9
100
AcDbEntity
  8
DV2_Layer15
  6
Continuous
 62
     7
 48
25.4
100
AcDbLine
 10
90.5362892844
 20
169.9912735283
 30
0.0
 11
90.5362892844
 21
176.6571500134
 31
0.0
  0
LINE
  5
DB
330
A9
100
AcDbEntity
  8
DV2_Layer15
  6
Continuous
 62
     7
 48
25.4
100
AcDbLine
 10
90.5362892844
 20
176.8571500134
 30
0.0
 11
90.5362892844
 21
178.9494173402
 31
0.0
  0
LINE
  5
DC
330
A9
100
AcDbEntity
  8
DV2_Layer15
  6
Continuous
 62
     7
 48
25.4
100
AcDbLine
 10
87.1862892844
 20
176.7571500134
 30
0.0
 11
87.0862892844
 21
176.6571500134
 31
0.0
  0
LINE
  5
DD
330
A9
100
AcDbEntity
  8
DV2_Layer15
  6
Continuous
 62
     7
 48
25.4
100
AcDbLine
 10
87.1862892844
 20
176.7571500134
 30
0.0
 11
87.0862892844
 21
176.8571500134
 31
0.0
  0
LINE
  5
DE
330
A9
100
AcDbEntity
  8
DV2_Layer15
  6
Continuous
 62
     7
 48
25.4
100
AcDbLine
 10
87.0862892844
 20
169.9912735283
 30
0.0
 11
87.0862892844
 21
176.6571500134
 31
0.0
  0
LINE
  5
DF
330
A9
100
AcDbEntity
  8
DV2_Layer15
  6
Continuous
 62
     7
 48
25.4
100
AcDbLine
 10
87.0862892844
 20
176.8571500134
 30
0.0
 11
87.0862892844
 21
178.9494173402
 31
0.0
  0
LINE
  5
E0
330
A9
100
AcDbEntity
  8
DV2_Layer15
  6
Continuous
 62
     7
 48
25.4
100
AcDbLine
 10
87.0862892844
 20
176.8571500134
 30
0.0
 11
88.8112892844
 21
176.8571500134
 31
0.0
  0
LINE
  5
E1
330
A9
100
AcDbEntity
  8
DV2_Layer15
  6
Continuous
 62
     7
 48
25.4
100
AcDbLine
 10
90.5362892844
 20
176.8571500134
 30
0.0
 11
88.8112892844
 21
176.8571500134
 31
0.0
  0
LINE
  5
E2
330
A9
100
AcDbEntity
  8
DV2_Layer15
  6
Continuous
 62
     7
 48
25.4
100
AcDbLine
 10
87.0862892844
 20
176.6571500134
 30
0.0
 11
88.8112892844
 21
176.6571500134
 31
0.0
  0
LINE
  5
E3
330
A9
100
AcDbEntity
  8
DV2_Layer15
  6
Continuous
 62
     7
 48
25.4
100
AcDbLine
 10
90.5362892844
 20
176.6571500134
 30
0.0
 11
88.8112892844
 21
176.6571500134
 31
0.0
  0
LINE
  5
E4
330
A9
100
AcDbEntity
  8
DV2_Layer15
  6
Continuous
 62
     7
 48
25.4
100
AcDbLine
 10
87.8461072396
 20
169.9191076867
 30
0.0
 11
87.6934294536
 21
169.9912735283
 31
0.0
  0
LINE
  5
E5
330
A9
100
AcDbEntity
  8
DV2_Layer15
  6
Continuous
 62
     7
 48
25.4
100
AcDbLine
 10
86.9612892844
 20
169.9191076867
 30
0.0
 11
87.114595334
 21
169.9912735283
 31
0.0
  0
LINE
  5
E6
330
A9
100
AcDbEntity
  8
DV2_Layer15
  6
Continuous
 62
     7
 48
25.4
100
AcDbLine
 10
89.6955262436
 20
169.9191076867
 30
0.0
 11
89.3900811296
 21
169.9912735283
 31
0.0
  0
LINE
  5
E7
330
A9
100
AcDbEntity
  8
DV2_Layer15
  6
Continuous
 62
     7
 48
25.4
100
AcDbLine
 10
90.6612892844
 20
169.9191076867
 30
0.0
 11
90.5079832348
 21
169.9912735283
 31
0.0
  0
LINE
  5
E8
330
A9
100
AcDbEntity
  8
DV2_Layer15
  6
Continuous
 62
     7
 48
25.4
100
AcDbLine
 10
89.6955262436
 20
169.9191076867
 30
0.0
 11
89.7764713293
 21
169.9191076867
 31
0.0
  0
LINE
  5
E9
330
A9
100
AcDbEntity
  8
DV2_Layer15
  6
Continuous
 62
     7
 48
25.4
100
AcDbLine
 10
87.9270523252
 20
169.9191076867
 30
0.0
 11
88.2324974393
 21
169.9912735283
 31
0.0
  0
ARC
  5
EA
330
A9
100
AcDbEntity
  8
DV2_Layer15
  6
Continuous
 62
     7
 48
25.4
100
AcDbCircle
 10
87.4036970341
 20
167.0685563331
 30
0.0
 40
0.8114061983873935
100
AcDbArc
 50
240.0010114176
 51
299.9989885824
  0
ARC
  5
EB
330
A9
100
AcDbEntity
  8
DV2_Layer15
  6
Continuous
 62
     7
 48
25.4
100
AcDbCircle
 10
88.8112892844
 20
169.3316602381
 30
0.0
 40
3.074510224670591
100
AcDbArc
 50
277.0058478695
 51
286.714478082
  0
LINE
  5
EC
330
A9
100
AcDbEntity
  8
DV2_Layer15
  6
Continuous
 62
     7
 48
25.4
100
AcDbLine
 10
87.1862892844
 20
179.0071500134
 30
0.0
 11
88.8112892844
 21
179.0071500134
 31
0.0
  0
LINE
  5
ED
330
A9
100
AcDbEntity
  8
DV2_Layer15
  6
Continuous
 62
     7
 48
25.4
100
AcDbLine
 10
90.4362892844
 20
179.0071500134
 30
0.0
 11
90.5362892844
 21
178.9494173402
 31
0.0
  0
LINE
  5
EE
330
A9
100
AcDbEntity
  8
DV2_Layer15
  6
Continuous
 62
     7
 48
25.4
100
AcDbLine
 10
87.8093883427
 20
166.3658497275
 30
0.0
 11
87.8461072396
 21
166.3870485283
 31
0.0
  0
LINE
  5
EF
330
A9
100
AcDbEntity
  8
DV2_Layer15
  6
Continuous
 62
     7
 48
25.4
100
AcDbLine
 10
88.8112892844
 20
178.9494173402
 30
0.0
 11
90.5362892844
 21
178.9494173402
 31
0.0
  0
LINE
  5
F0
330
A9
100
AcDbEntity
  8
DV2_Layer15
  6
Continuous
 62
     7
 48
25.4
100
AcDbLine
 10
87.1862892844
 20
166.2571500134
 30
0.0
 11
86.9612892844
 21
166.3870485283
 31
0.0
  0
LINE
  5
F1
330
A9
100
AcDbEntity
  8
DV2_Layer15
  6
Continuous
 62
     7
 48
25.4
100
AcDbLine
 10
88.4362892844
 20
166.2571500134
 30
0.0
 11
88.4362892844
 21
167.2571500134
 31
0.0
  0
LINE
  5
F2
330
A9
100
AcDbEntity
  8
DV2_Layer15
  6
Continuous
 62
     7
 48
25.4
100
AcDbLine
 10
87.1862892844
 20
179.0071500134
 30
0.0
 11
87.0862892844
 21
178.9494173402
 31
0.0
  0
LINE
  5
F3
330
A9
100
AcDbEntity
  8
DV2_Layer15
  6
Continuous
 62
     7
 48
25.4
100
AcDbLine
 10
87.0862892844
 20
169.9912735283
 30
0.0
 11
86.9612892844
 21
169.9191076867
 31
0.0
  0
LINE
  5
F4
330
A9
100
AcDbEntity
  8
DV2_Layer15
  6
Continuous
 62
     7
 48
25.4
100
AcDbLine
 10
89.6955262436
 20
166.3870485283
 30
0.0
 11
89.6955262436
 21
169.9191076867
 31
0.0
  0
ARC
  5
F5
330
A9
100
AcDbEntity
  8
DV2_Layer15
  6
Continuous
 62
     7
 48
25.4
100
AcDbCircle
 10
90.2188815347
 20
167.0685563331
 30
0.0
 40
0.8114061983873809
100
AcDbArc
 50
240.0010114176
 51
299.9989885824
  0
ARC
  5
F6
330
A9
100
AcDbEntity
  8
DV2_Layer15
  6
Continuous
 62
     7
 48
25.4
100
AcDbCircle
 10
88.8112892844
 20
169.3316602381
 30
0.0
 40
3.074510224672976
100
AcDbArc
 50
253.285521918
 51
262.9941521305
  0
LINE
  5
F7
330
A9
100
AcDbEntity
  8
DV2_Layer15
  6
Continuous
 62
     7
 48
25.4
100
AcDbLine
 10
87.0862892844
 20
169.9912735283
 30
0.0
 11
90.5362892844
 21
169.9912735283
 31
0.0
  0
LINE
  5
F8
330
A9
100
AcDbEntity
  8
DV2_Layer15
  6
Continuous
 62
     7
 48
25.4
100
AcDbLine
 10
87.8461072396
 20
166.3870485283
 30
0.0
 11
87.9270523252
 21
166.3870485283
 31
0.0
  0
LINE
  5
F9
330
A9
100
AcDbEntity
  8
DV2_Layer15
  6
Continuous
 62
     7
 48
25.4
100
AcDbLine
 10
87.1862892844
 20
166.2571500134
 30
0.0
 11
88.4362892844
 21
166.2571500134
 31
0.0
  0
LINE
  5
FA
330
A9
100
AcDbEntity
  8
DV2_Layer15
  6
Continuous
 62
     7
 48
25.4
100
AcDbLine
 10
86.9612892844
 20
166.3870485283
 30
0.0
 11
86.9612892844
 21
169.9191076867
 31
0.0
  0
LINE
  5
FB
330
A9
100
AcDbEntity
  8
DV2_Layer15
  6
Continuous
 62
     7
 48
25.4
100
AcDbLine
 10
89.8131902261
 20
166.3658497275
 30
0.0
 11
89.7764713293
 21
166.3870485283
 31
0.0
  0
LINE
  5
FC
330
A9
100
AcDbEntity
  8
DV2_Layer15
  6
Continuous
 62
     7
 48
25.4
100
AcDbLine
 10
88.8112892844
 20
179.0071500134
 30
0.0
 11
90.4362892844
 21
179.0071500134
 31
0.0
  0
LINE
  5
FD
330
A9
100
AcDbEntity
  8
DV2_Layer15
  6
Continuous
 62
     7
 48
25.4
100
AcDbLine
 10
89.1862892844
 20
166.2571500134
 30
0.0
 11
89.1862892844
 21
167.2571500134
 31
0.0
  0
LINE
  5
FE
330
A9
100
AcDbEntity
  8
DV2_Layer15
  6
Continuous
 62
     7
 48
25.4
100
AcDbLine
 10
88.4362892844
 20
167.2571500134
 30
0.0
 11
88.8112892844
 21
167.2571500134
 31
0.0
  0
LINE
  5
FF
330
A9
100
AcDbEntity
  8
DV2_Layer15
  6
Continuous
 62
     7
 48
25.4
100
AcDbLine
 10
88.8112892844
 20
167.2571500134
 30
0.0
 11
89.1862892844
 21
167.2571500134
 31
0.0
  0
LINE
  5
100
330
A9
100
AcDbEntity
  8
DV2_Layer15
  6
Continuous
 62
     7
 48
25.4
100
AcDbLine
 10
87.8461072396
 20
166.3870485283
 30
0.0
 11
87.8461072396
 21
169.9191076867
 31
0.0
  0
LINE
  5
101
330
A9
100
AcDbEntity
  8
DV2_Layer15
  6
Continuous
 62
     7
 48
25.4
100
AcDbLine
 10
87.9270523252
 20
166.3870485283
 30
0.0
 11
87.9270523252
 21
169.9191076867
 31
0.0
  0
LINE
  5
102
330
A9
100
AcDbEntity
  8
DV2_Layer15
  6
Continuous
 62
     7
 48
25.4
100
AcDbLine
 10
90.5362892844
 20
169.9912735283
 30
0.0
 11
90.6612892844
 21
169.9191076867
 31
0.0
  0
LINE
  5
103
330
A9
100
AcDbEntity
  8
DV2_Layer15
  6
Continuous
 62
     7
 48
25.4
100
AcDbLine
 10
89.1862892844
 20
166.2571500134
 30
0.0
 11
90.4362892844
 21
166.2571500134
 31
0.0
  0
LINE
  5
104
330
A9
100
AcDbEntity
  8
DV2_Layer15
  6
Continuous
 62
     7
 48
25.4
100
AcDbLine
 10
90.4362892844
 20
166.2571500134
 30
0.0
 11
90.6612892844
 21
166.3870485283
 31
0.0
  0
LINE
  5
105
330
A9
100
AcDbEntity
  8
DV2_Layer15
  6
Continuous
 62
     7
 48
25.4
100
AcDbLine
 10
87.8461072396
 20
169.9191076867
 30
0.0
 11
87.9270523252
 21
169.9191076867
 31
0.0
  0
LINE
  5
106
330
A9
100
AcDbEntity
  8
DV2_Layer15
  6
Continuous
 62
     7
 48
25.4
100
AcDbLine
 10
90.6612892844
 20
166.3870485283
 30
0.0
 11
90.6612892844
 21
169.9191076867
 31
0.0
  0
LINE
  5
107
330
A9
100
AcDbEntity
  8
DV2_Layer15
  6
Continuous
 62
     7
 48
25.4
100
AcDbLine
 10
89.7764713293
 20
166.3870485283
 30
0.0
 11
89.7764713293
 21
169.9191076867
 31
0.0
  0
LINE
  5
108
330
A9
100
AcDbEntity
  8
DV2_Layer15
  6
Continuous
 62
     7
 48
25.4
100
AcDbLine
 10
89.7764713293
 20
169.9191076867
 30
0.0
 11
89.9291491152
 21
169.9912735283
 31
0.0
  0
LINE
  5
109
330
A9
100
AcDbEntity
  8
DV2_Layer15
  6
Continuous
 62
     7
 48
25.4
100
AcDbLine
 10
87.0862892844
 20
178.9494173402
 30
0.0
 11
88.8112892844
 21
178.9494173402
 31
0.0
  0
LINE
  5
10A
330
A9
100
AcDbEntity
  8
DV2_Layer15
  6
Continuous
 62
     7
 48
25.4
100
AcDbLine
 10
89.6955262436
 20
166.3870485283
 30
0.0
 11
89.7764713293
 21
166.3870485283
 31
0.0
  0
LINE
  5
10B
330
A9
100
AcDbEntity
  8
DV2_Layer17
  6
Continuous
 62
     7
 48
25.4
100
AcDbLine
 10
89.9362892844
 20
195.6321500134
 30
0.0
 11
89.9362892844
 21
184.3821500134
 31
0.0
  0
LINE
  5
10C
330
A9
100
AcDbEntity
  8
DV2_Layer17
  6
Continuous
 62
     7
 48
25.4
100
AcDbLine
 10
91.9362892844
 20
184.3821500134
 30
0.0
 11
91.9362892844
 21
195.6321500134
 31
0.0
  0
LINE
  5
10E
330
A9
100
AcDbEntity
  8
DV2_Layer18
  6
CENTER2
 62
     7
 48
25.4
100
AcDbLine
 10
103.0584874076
 20
129.701576489
 30
0.0
 11
104.6450278105
 21
123.7805270973
 31
0.0
  0
LINE
  5
10F
330
A9
100
AcDbEntity
  8
DV2_Layer18
  6
Continuous
 62
     7
 48
25.4
100
AcDbLine
 10
94.4683082807
 20
155.4442002268
 30
0.0
 11
94.5653654226
 21
155.0819780419
 31
0.0
  0
LINE
  5
110
330
A9
100
AcDbEntity
  8
DV2_Layer18
  6
Continuous
 62
     7
 48
25.4
100
AcDbLine
 10
94.4540855291
 20
155.0521606843
 30
0.0
 11
94.5653654226
 21
155.0819780419
 31
0.0
  0
LINE
  5
111
330
A9
100
AcDbEntity
  8
DV2_Layer18
  6
Continuous
 62
     7
 48
25.4
100
AcDbLine
 10
94.9717236193
 20
153.1203090318
 30
0.0
 11
94.4540855291
 21
155.0521606843
 31
0.0
  0
LINE
  5
112
330
A9
100
AcDbEntity
  8
DV2_Layer18
  6
Continuous
 62
     7
 48
25.4
100
AcDbLine
 10
94.5653654226
 20
155.0819780419
 30
0.0
 11
94.5144558932
 21
155.0683368747
 31
0.0
  0
ARC
  5
113
330
A9
100
AcDbEntity
  8
DV2_Layer18
  6
Continuous
 62
     7
 48
25.4
100
AcDbCircle
 10
95.2779098371
 20
152.9435323365
 30
0.0
 40
0.2500000000000226
100
AcDbArc
 50
105.0
 51
195.0
  0
LINE
  5
114
330
A9
100
AcDbEntity
  8
DV2_Layer18
  6
Continuous
 62
     7
 48
25.4
100
AcDbLine
 10
98.3524640113
 20
154.0261756896
 30
0.0
 11
94.9717236193
 21
153.1203090318
 31
0.0
  0
LINE
  5
115
330
A9
100
AcDbEntity
  8
DV2_Layer18
  6
Continuous
 62
     7
 48
25.4
100
AcDbLine
 10
96.1040569416
 20
148.8943835418
 30
0.0
 11
95.0364283806
 21
152.8788275752
 31
0.0
  0
ARC
  5
116
330
A9
100
AcDbEntity
  8
DV2_Layer18
  6
Continuous
 62
     7
 48
25.4
100
AcDbCircle
 10
101.027031404
 20
131.4875185497
 30
0.0
 40
0.2499999999203902
100
AcDbArc
 50
195.0
 51
285.0
  0
LINE
  5
117
330
A9
100
AcDbEntity
  8
DV2_Layer18
  6
Continuous
 62
     7
 48
25.4
100
AcDbLine
 10
100.7855499475
 20
131.4228137884
 30
0.0
 11
99.7179213865
 21
135.4072578219
 31
0.0
  0
LINE
  5
118
330
A9
100
AcDbEntity
  8
DV2_Layer18
  6
Continuous
 62
     7
 48
25.4
100
AcDbLine
 10
101.2408060729
 20
127.7919231456
 30
0.0
 11
105.5874722912
 21
128.9566088485
 31
0.0
  0
ARC
  5
119
330
A9
100
AcDbEntity
  8
DV2_Layer18
  6
Continuous
 62
     7
 48
25.4
100
AcDbCircle
 10
101.9974373422
 20
133.6614692426
 30
0.0
 40
5.367515580080103
100
AcDbArc
 50
274.673400594
 51
295.326599406
  0
LINE
  5
11A
330
A9
100
AcDbEntity
  8
DV2_Layer18
  6
Continuous
 62
     7
 48
25.4
100
AcDbLine
 10
103.0986617785
 20
136.3131244797
 30
0.0
 11
99.7179213865
 21
135.4072578219
 31
0.0
  0
LINE
  5
11B
330
A9
100
AcDbEntity
  8
DV2_Layer18
  6
Continuous
 62
     7
 48
25.4
100
AcDbLine
 10
104.2935399267
 20
128.809857508
 30
0.0
 11
103.714118329
 21
130.9722883498
 31
0.0
  0
LINE
  5
11C
330
A9
100
AcDbEntity
  8
DV2_Layer18
  6
Continuous
 62
     7
 48
25.4
100
AcDbLine
 10
104.8847119368
 20
128.9740831255
 30
0.0
 11
104.3082011168
 21
131.125650797
 31
0.0
  0
LINE
  5
11D
330
A9
100
AcDbEntity
  8
DV2_Layer18
  6
Continuous
 62
     7
 48
25.4
100
AcDbLine
 10
105.9895119135
 20
129.3586640588
 30
0.0
 11
105.4572764292
 21
131.3449939279
 31
0.0
  0
ARC
  5
11E
330
A9
100
AcDbEntity
  8
DV2_Layer18
  6
Continuous
 62
     7
 48
25.4
100
AcDbCircle
 10
104.9955004942
 20
130.4350072091
 30
0.0
 40
1.465118862881688
100
AcDbArc
 50
265.6632994721
 51
312.7227203024
  0
LINE
  5
11F
330
A9
100
AcDbEntity
  8
DV2_Layer18
  6
Continuous
 62
     7
 48
25.4
100
AcDbLine
 10
105.5874722912
 20
128.9566088485
 30
0.0
 11
105.9895119135
 21
129.3586640588
 31
0.0
  0
LINE
  5
120
330
A9
100
AcDbEntity
  8
DV2_Layer18
  6
Continuous
 62
     7
 48
25.4
100
AcDbLine
 10
94.4173987513
 20
155.4305590595
 30
0.0
 11
97.677398415
 21
156.3040733367
 31
0.0
  0
LINE
  5
121
330
A9
100
AcDbEntity
  8
DV2_Layer18
  6
Continuous
 62
     7
 48
25.4
100
AcDbLine
 10
99.4847973336
 20
149.8002501996
 30
0.0
 11
96.1040569416
 21
148.8943835418
 31
0.0
  0
LINE
  5
122
330
A9
100
AcDbEntity
  8
DV2_Layer18
  6
Continuous
 62
     7
 48
25.4
100
AcDbLine
 10
94.4173987513
 20
155.4305590595
 30
0.0
 11
94.5144558932
 21
155.0683368747
 31
0.0
  0
LINE
  5
123
330
A9
100
AcDbEntity
  8
DV2_Layer18
  6
Continuous
 62
     7
 48
25.4
100
AcDbLine
 10
95.9369702188
 20
150.5428069824
 30
0.0
 11
95.4220497285
 21
152.4645164138
 31
0.0
  0
LINE
  5
124
330
A9
100
AcDbEntity
  8
DV2_Layer18
  6
Continuous
 62
     7
 48
25.4
100
AcDbLine
 10
98.3091633074
 20
151.1784342048
 30
0.0
 11
97.7942428172
 21
153.1001436362
 31
0.0
  0
LINE
  5
125
330
A9
100
AcDbEntity
  8
DV2_Layer18
  6
Continuous
 62
     7
 48
25.4
100
AcDbLine
 10
97.1869967019
 20
156.1726705937
 30
0.0
 11
97.2840538438
 21
155.8104484089
 31
0.0
  0
LINE
  5
126
330
A9
100
AcDbEntity
  8
DV2_Layer18
  6
Continuous
 62
     7
 48
25.4
100
AcDbLine
 10
94.9078004644
 20
155.5619618025
 30
0.0
 11
95.0048576064
 21
155.1997396177
 31
0.0
  0
LINE
  5
127
330
A9
100
AcDbEntity
  8
DV2_Layer18
  6
Continuous
 62
     7
 48
25.4
100
AcDbLine
 10
95.6164549602
 20
153.2930642739
 30
0.0
 11
95.09881687
 21
155.2249159265
 31
0.0
  0
LINE
  5
128
330
A9
100
AcDbEntity
  8
DV2_Layer18
  6
Continuous
 62
     7
 48
25.4
100
AcDbLine
 10
95.6078956982
 20
155.749551755
 30
0.0
 11
95.7049528401
 21
155.3873295702
 31
0.0
  0
LINE
  5
129
330
A9
100
AcDbEntity
  8
DV2_Layer18
  6
Continuous
 62
     7
 48
25.4
100
AcDbLine
 10
95.7049528401
 20
155.3873295702
 30
0.0
 11
95.0048576064
 21
155.1997396177
 31
0.0
  0
LINE
  5
12A
330
A9
100
AcDbEntity
  8
DV2_Layer18
  6
Continuous
 62
     7
 48
25.4
100
AcDbLine
 10
96.4869014682
 20
155.9850806412
 30
0.0
 11
96.5839586101
 21
155.6228584564
 31
0.0
  0
LINE
  5
12B
330
A9
100
AcDbEntity
  8
DV2_Layer18
  6
Continuous
 62
     7
 48
25.4
100
AcDbLine
 10
97.2894867876
 20
153.741351801
 30
0.0
 11
96.7718486974
 21
155.6732034535
 31
0.0
  0
ARC
  5
12C
330
A9
100
AcDbEntity
  8
DV2_Layer18
  6
Continuous
 62
     7
 48
25.4
100
AcDbCircle
 10
98.550644764
 20
151.243138966
 30
0.0
 40
0.25000000015809
100
AcDbArc
 50
195.0
 51
285.0
  0
LINE
  5
12D
330
A9
100
AcDbEntity
  8
DV2_Layer18
  6
Continuous
 62
     7
 48
25.4
100
AcDbLine
 10
98.6153495253
 20
151.0016575095
 30
0.0
 11
98.6285102646
 21
151.0051839189
 31
0.0
  0
LINE
  5
12E
330
A9
100
AcDbEntity
  8
DV2_Layer18
  6
Continuous
 62
     7
 48
25.4
100
AcDbLine
 10
96.034700843
 20
153.4051329204
 30
0.0
 11
95.5170627528
 21
155.336984573
 31
0.0
  0
LINE
  5
12F
330
A9
100
AcDbEntity
  8
DV2_Layer18
  6
Continuous
 62
     7
 48
25.4
100
AcDbLine
 10
97.774455557
 20
155.9418511519
 30
0.0
 11
97.8348259211
 21
155.9580273422
 31
0.0
  0
LINE
  5
130
330
A9
100
AcDbEntity
  8
DV2_Layer18
  6
Continuous
 62
     7
 48
25.4
100
AcDbLine
 10
97.8348259211
 20
155.9580273422
 30
0.0
 11
98.3524640113
 21
154.0261756896
 31
0.0
  0
LINE
  5
131
330
A9
100
AcDbEntity
  8
DV2_Layer18
  6
Continuous
 62
     7
 48
25.4
100
AcDbLine
 10
94.4937130261
 20
155.5804169304
 30
0.0
 11
94.5260654068
 21
155.4596762021
 31
0.0
  0
LINE
  5
132
330
A9
100
AcDbEntity
  8
DV2_Layer18
  6
Continuous
 62
     7
 48
25.4
100
AcDbLine
 10
99.4847973336
 20
149.8002501996
 30
0.0
 11
98.4171687726
 21
153.7846942331
 31
0.0
  0
LINE
  5
133
330
A9
100
AcDbEntity
  8
DV2_Layer18
  6
Continuous
 62
     7
 48
25.4
100
AcDbLine
 10
97.677398415
 20
156.3040733367
 30
0.0
 11
97.774455557
 21
155.9418511519
 31
0.0
  0
ARC
  5
134
330
A9
100
AcDbEntity
  8
DV2_Layer18
  6
Continuous
 62
     7
 48
25.4
100
AcDbCircle
 10
97.0089064045
 20
150.8300314177
 30
0.0
 40
0.2499999999203705
100
AcDbArc
 50
195.0
 51
285.0
  0
ARC
  5
135
330
A9
100
AcDbEntity
  8
DV2_Layer18
  6
Continuous
 62
     7
 48
25.4
100
AcDbCircle
 10
95.6766919245
 20
152.5327475845
 30
0.0
 40
0.2500000001580474
100
AcDbArc
 50
15.0
 51
105.0
  0
LINE
  5
136
330
A9
100
AcDbEntity
  8
DV2_Layer18
  6
Continuous
 62
     7
 48
25.4
100
AcDbLine
 10
96.7915033378
 20
153.0902794476
 30
0.0
 11
97.1537255227
 21
153.1873365895
 31
0.0
  0
ARC
  5
137
330
A9
100
AcDbEntity
  8
DV2_Layer18
  6
Continuous
 62
     7
 48
25.4
100
AcDbCircle
 10
97.218430284
 20
152.9458551329
 30
0.0
 40
0.2499999998805518
100
AcDbArc
 50
15.0
 51
105.0
  0
LINE
  5
138
330
A9
100
AcDbEntity
  8
DV2_Layer18
  6
Continuous
 62
     7
 48
25.4
100
AcDbLine
 10
97.4358333506
 20
150.685607103
 30
0.0
 11
97.7980555355
 21
150.7826642449
 31
0.0
  0
LINE
  5
139
330
A9
100
AcDbEntity
  8
DV2_Layer18
  6
Continuous
 62
     7
 48
25.4
100
AcDbLine
 10
97.6264888857
 20
156.2904321695
 30
0.0
 11
97.7235460276
 21
155.9282099846
 31
0.0
  0
LINE
  5
13A
330
A9
100
AcDbEntity
  8
DV2_Layer18
  6
Continuous
 62
     7
 48
25.4
100
AcDbLine
 10
97.2840538438
 20
155.8104484089
 30
0.0
 11
96.5839586101
 21
155.6228584564
 31
0.0
  0
ARC
  5
13B
330
A9
100
AcDbEntity
  8
DV2_Layer18
  6
Continuous
 62
     7
 48
25.4
100
AcDbCircle
 10
95.6635311851
 20
152.529221175
 30
0.0
 40
0.249999999880592
100
AcDbArc
 50
105.0
 51
195.0
  0
LINE
  5
13C
330
A9
100
AcDbEntity
  8
DV2_Layer18
  6
Continuous
 62
     7
 48
25.4
100
AcDbLine
 10
97.7077447445
 20
153.8534236827
 30
0.0
 11
97.1901066543
 21
155.7852753353
 31
0.0
  0
LINE
  5
13D
330
A9
100
AcDbEntity
  8
DV2_Layer18
  6
Continuous
 62
     7
 48
25.4
100
AcDbLine
 10
97.774455557
 20
155.9418511519
 30
0.0
 11
97.7235460276
 21
155.9282099846
 31
0.0
  0
LINE
  5
13E
330
A9
100
AcDbEntity
  8
DV2_Layer18
  6
Continuous
 62
     7
 48
25.4
100
AcDbLine
 10
97.9748322308
 20
151.0888504628
 30
0.0
 11
97.4599117406
 21
153.0105598942
 31
0.0
  0
ARC
  5
13F
330
A9
100
AcDbEntity
  8
DV2_Layer18
  6
Continuous
 62
     7
 48
25.4
100
AcDbCircle
 10
104.1514410285
 20
125.6226180455
 30
0.0
 40
5.367515580605579
100
AcDbArc
 50
94.673400595
 51
115.326599405
  0
LINE
  5
140
330
A9
100
AcDbEntity
  8
DV2_Layer18
  6
Continuous
 62
     7
 48
25.4
100
AcDbLine
 10
101.2124768937
 20
131.2783894738
 30
0.0
 11
101.4065911775
 21
130.553945104
 31
0.0
  0
LINE
  5
141
330
A9
100
AcDbEntity
  8
DV2_Layer18
  6
Continuous
 62
     7
 48
25.4
100
AcDbLine
 10
101.3418864162
 20
130.7954265606
 30
0.0
 11
101.2124768937
 21
131.2783894738
 31
0.0
  0
LINE
  5
142
330
A9
100
AcDbEntity
  8
DV2_Layer18
  6
Continuous
 62
     7
 48
25.4
100
AcDbLine
 10
104.9080722978
 20
131.4921641425
 30
0.0
 11
100.5614060795
 21
130.3274784396
 31
0.0
  0
ARC
  5
143
330
A9
100
AcDbEntity
  8
DV2_Layer18
  6
Continuous
 62
     7
 48
25.4
100
AcDbCircle
 10
105.1346088635
 20
129.9158477069
 30
0.0
 40
1.465118862321266
100
AcDbArc
 50
77.2772796976
 51
124.3367005356
  0
LINE
  5
144
330
A9
100
AcDbEntity
  8
DV2_Layer18
  6
Continuous
 62
     7
 48
25.4
100
AcDbLine
 10
105.4572764292
 20
131.3449939279
 30
0.0
 11
104.9080722978
 21
131.4921641425
 31
0.0
  0
LINE
  5
145
330
A9
100
AcDbEntity
  8
DV2_Layer18
  6
Continuous
 62
     7
 48
25.4
100
AcDbLine
 10
104.0628871998
 20
131.2656974781
 30
0.0
 11
103.868772916
 21
131.9901418478
 31
0.0
  0
LINE
  5
146
330
A9
100
AcDbEntity
  8
DV2_Layer18
  6
Continuous
 62
     7
 48
25.4
100
AcDbLine
 10
101.0917361653
 20
131.2460370931
 30
0.0
 11
102.5406249048
 21
131.6342656608
 31
0.0
  0
LINE
  5
147
330
A9
100
AcDbEntity
  8
DV2_Layer18
  6
Continuous
 62
     7
 48
25.4
100
AcDbLine
 10
101.9852175547
 20
131.4854447098
 30
0.0
 11
101.2124768937
 21
131.2783894738
 31
0.0
  0
LINE
  5
148
330
A9
100
AcDbEntity
  8
DV2_Layer18
  6
Continuous
 62
     7
 48
25.4
100
AcDbLine
 10
102.5406249048
 20
131.6342656608
 30
0.0
 11
103.9895136444
 21
132.0224942285
 31
0.0
  0
ARC
  5
149
330
A9
100
AcDbEntity
  8
DV2_Layer18
  6
Continuous
 62
     7
 48
25.4
100
AcDbCircle
 10
101.153833707
 20
132.0391332146
 30
0.0
 40
0.2499999999203874
100
AcDbArc
 50
195.0
 51
285.0
  0
LINE
  5
14A
330
A9
100
AcDbEntity
  8
DV2_Layer18
  6
Continuous
 62
     7
 48
25.4
100
AcDbLine
 10
101.2316992076
 20
131.8011781675
 30
0.0
 11
101.2185384682
 21
131.797651758
 31
0.0
  0
ARC
  5
14B
330
A9
100
AcDbEntity
  8
DV2_Layer18
  6
Continuous
 62
     7
 48
25.4
100
AcDbCircle
 10
101.1669944463
 20
132.042659624
 30
0.0
 40
0.2500000001053639
100
AcDbArc
 50
285.0
 51
15.0
  0
ARC
  5
14C
330
A9
100
AcDbEntity
  8
DV2_Layer18
  6
Continuous
 62
     7
 48
25.4
100
AcDbCircle
 10
103.9248088831
 20
132.263975685
 30
0.0
 40
0.2499999998805977
100
AcDbArc
 50
285.0
 51
15.0
  0
ARC
  5
14D
330
A9
100
AcDbEntity
  8
DV2_Layer18
  6
Continuous
 62
     7
 48
25.4
100
AcDbCircle
 10
101.9842884361
 20
132.2616528886
 30
0.0
 40
0.2499999999204376
100
AcDbArc
 50
195.0
 51
285.0
  0
LINE
  5
14E
330
A9
100
AcDbEntity
  8
DV2_Layer18
  6
Continuous
 62
     7
 48
25.4
100
AcDbLine
 10
102.4112153823
 20
132.1172285739
 30
0.0
 11
102.0489931974
 21
132.020171432
 31
0.0
  0
LINE
  5
14F
330
A9
100
AcDbEntity
  8
DV2_Layer18
  6
Continuous
 62
     7
 48
25.4
100
AcDbLine
 10
100.9123522504
 20
131.9744284533
 30
0.0
 11
100.3974317602
 21
133.8961378847
 31
0.0
  0
LINE
  5
150
330
A9
100
AcDbEntity
  8
DV2_Layer18
  6
Continuous
 62
     7
 48
25.4
100
AcDbLine
 10
102.4112153823
 20
132.1172285739
 30
0.0
 11
102.7734375671
 21
132.2142857158
 31
0.0
  0
LINE
  5
151
330
A9
100
AcDbEntity
  8
DV2_Layer18
  6
Continuous
 62
     7
 48
25.4
100
AcDbLine
 10
101.4084759029
 20
132.1073643853
 30
0.0
 11
100.8935554127
 21
134.0290738167
 31
0.0
  0
ARC
  5
152
330
A9
100
AcDbEntity
  8
DV2_Layer18
  6
Continuous
 62
     7
 48
25.4
100
AcDbCircle
 10
102.7087328058
 20
132.4557671724
 30
0.0
 40
0.2499999998805667
100
AcDbArc
 50
285.0
 51
15.0
  0
LINE
  5
153
330
A9
100
AcDbEntity
  8
DV2_Layer18
  6
Continuous
 62
     7
 48
25.4
100
AcDbLine
 10
101.7428069795
 20
132.1969481273
 30
0.0
 11
101.2278864893
 21
134.1186575587
 31
0.0
  0
LINE
  5
154
330
A9
100
AcDbEntity
  8
DV2_Layer18
  6
Continuous
 62
     7
 48
25.4
100
AcDbLine
 10
104.1662903395
 20
132.3286804463
 30
0.0
 11
103.0986617785
 21
136.3131244797
 31
0.0
  0
ARC
  5
155
330
A9
100
AcDbEntity
  8
DV2_Layer18
  6
Continuous
 62
     7
 48
25.4
100
AcDbCircle
 10
103.5260267956
 20
132.6747604369
 30
0.0
 40
0.2500000001580869
100
AcDbArc
 50
195.0
 51
285.0
  0
LINE
  5
156
330
A9
100
AcDbEntity
  8
DV2_Layer18
  6
Continuous
 62
     7
 48
25.4
100
AcDbLine
 10
103.5907315569
 20
132.4332789804
 30
0.0
 11
103.6038922963
 21
132.4368053899
 31
0.0
  0
ARC
  5
157
330
A9
100
AcDbEntity
  8
DV2_Layer18
  6
Continuous
 62
     7
 48
25.4
100
AcDbCircle
 10
103.539187535
 20
132.6782868464
 30
0.0
 40
0.2499999998805952
100
AcDbArc
 50
285.0
 51
15.0
  0
LINE
  5
158
330
A9
100
AcDbEntity
  8
DV2_Layer18
  6
Continuous
 62
     7
 48
25.4
100
AcDbLine
 10
102.9502142624
 20
132.5204719337
 30
0.0
 11
102.4352937722
 21
134.4421813651
 31
0.0
  0
LINE
  5
159
330
A9
100
AcDbEntity
  8
DV2_Layer18
  6
Continuous
 62
     7
 48
25.4
100
AcDbLine
 10
103.284545339
 20
132.6100556757
 30
0.0
 11
102.7696248488
 21
134.5317651071
 31
0.0
  0
LINE
  5
15A
330
A9
100
AcDbEntity
  8
DV2_Layer18
  6
Continuous
 62
     7
 48
25.4
100
AcDbLine
 10
103.7806689916
 20
132.7429916077
 30
0.0
 11
103.2657485013
 21
134.6647010391
 31
0.0
  0
ARC
  5
15B
330
A9
100
AcDbEntity
  8
DV2_Layer18
  6
Continuous
 62
     7
 48
25.4
100
AcDbCircle
 10
100.6389132167
 20
133.960842646
 30
0.0
 40
0.2499999998805803
100
AcDbArc
 50
105.0
 51
195.0
  0
ARC
  5
15C
330
A9
100
AcDbEntity
  8
DV2_Layer18
  6
Continuous
 62
     7
 48
25.4
100
AcDbCircle
 10
100.6520739561
 20
133.9643690554
 30
0.0
 40
0.2500000001580685
100
AcDbArc
 50
15.0
 51
105.0
  0
ARC
  5
15D
330
A9
100
AcDbEntity
  8
DV2_Layer18
  6
Continuous
 62
     7
 48
25.4
100
AcDbCircle
 10
101.4693679459
 20
134.18336232
 30
0.0
 40
0.2499999999204141
100
AcDbArc
 50
105.0
 51
195.0
  0
LINE
  5
15E
330
A9
100
AcDbEntity
  8
DV2_Layer18
  6
Continuous
 62
     7
 48
25.4
100
AcDbLine
 10
100.5873691948
 20
134.205850512
 30
0.0
 11
100.5742084555
 21
134.2023241025
 31
0.0
  0
ARC
  5
15F
330
A9
100
AcDbEntity
  8
DV2_Layer18
  6
Continuous
 62
     7
 48
25.4
100
AcDbCircle
 10
102.1938123156
 20
134.3774766038
 30
0.0
 40
0.2499999998805522
100
AcDbArc
 50
15.0
 51
105.0
  0
LINE
  5
160
330
A9
100
AcDbEntity
  8
DV2_Layer18
  6
Continuous
 62
     7
 48
25.4
100
AcDbLine
 10
101.7668853695
 20
134.5219009185
 30
0.0
 11
101.4046631846
 21
134.4248437766
 31
0.0
  0
ARC
  5
161
330
A9
100
AcDbEntity
  8
DV2_Layer18
  6
Continuous
 62
     7
 48
25.4
100
AcDbCircle
 10
103.0111063054
 20
134.5964698683
 30
0.0
 40
0.2500000002107474
100
AcDbArc
 50
105.0
 51
195.0
  0
LINE
  5
162
330
A9
100
AcDbEntity
  8
DV2_Layer18
  6
Continuous
 62
     7
 48
25.4
100
AcDbLine
 10
101.7668853695
 20
134.5219009185
 30
0.0
 11
102.1291075543
 21
134.6189580604
 31
0.0
  0
ARC
  5
163
330
A9
100
AcDbEntity
  8
DV2_Layer18
  6
Continuous
 62
     7
 48
25.4
100
AcDbCircle
 10
103.0242670448
 20
134.5999962778
 30
0.0
 40
0.2499999998407495
100
AcDbArc
 50
15.0
 51
105.0
  0
LINE
  5
164
330
A9
100
AcDbEntity
  8
DV2_Layer18
  6
Continuous
 62
     7
 48
25.4
100
AcDbLine
 10
102.9464015441
 20
134.8379513249
 30
0.0
 11
102.9595622835
 21
134.8414777344
 31
0.0
  0
LWPOLYLINE
  5
165
330
A9
100
AcDbEntity
  8
DV2_Layer18
  6
Continuous
 62
     7
 48
25.4
100
AcDbPolyline
 90
        2
 70
     0
 43
0.0
 10
100.2538237038
 20
138.2412934459
 10
100.551018732
 20
138.6703375598
  0
LWPOLYLINE
  5
166
330
A9
100
AcDbEntity
  8
DV2_Layer18
  6
Continuous
 62
     7
 48
25.4
100
AcDbPolyline
 90
        2
 70
     0
 43
0.0
 10
100.0671083478
 20
138.191263217
 10
100.364303376
 20
138.620307331
  0
LWPOLYLINE
  5
167
330
A9
100
AcDbEntity
  8
DV2_Layer18
  6
Continuous
 62
     7
 48
25.4
100
AcDbPolyline
 90
        2
 70
     0
 43
0.0
 10
100.179083439
 20
138.5706777984
 10
100.5428645655
 20
138.3187417114
  0
LWPOLYLINE
  5
168
330
A9
100
AcDbEntity
  8
DV2_Layer18
  6
Continuous
 62
     7
 48
25.4
100
AcDbPolyline
 90
        2
 70
     0
 43
0.0
 10
99.8803929918
 20
138.1412329882
 10
100.17758802
 20
138.5702771021
  0
LWPOLYLINE
  5
169
330
A9
100
AcDbEntity
  8
DV2_Layer18
  6
Continuous
 62
     7
 48
25.4
100
AcDbPolyline
 90
        2
 70
     0
 43
0.0
 10
100.020780391
 20
138.5282606246
 10
100.3845615175
 20
138.2763245375
  0
LWPOLYLINE
  5
16A
330
A9
100
AcDbEntity
  8
DV2_Layer18
  6
Continuous
 62
     7
 48
25.4
100
AcDbPolyline
 90
        2
 70
     0
 43
0.0
 10
99.862477343
 20
138.4858434507
 10
100.2262584695
 20
138.2339073636
  0
LWPOLYLINE
  5
16B
330
A9
100
AcDbEntity
  8
DV2_Layer18
  6
Continuous
 62
     7
 48
25.4
100
AcDbPolyline
 90
        2
 70
     0
 43
0.0
 10
99.8324532104
 20
138.2915454226
 10
99.990872664
 20
138.5202468733
  0
LWPOLYLINE
  5
16C
330
A9
100
AcDbEntity
  8
DV2_Layer18
  6
Continuous
 62
     7
 48
25.4
100
AcDbPolyline
 90
        2
 70
     0
 43
0.0
 10
99.7900395006
 20
138.4498355425
 10
99.804157308
 20
138.4702166444
  0
LWPOLYLINE
  5
16D
330
A9
100
AcDbEntity
  8
DV2_Layer18
  6
Continuous
 62
     7
 48
25.4
100
AcDbPolyline
 90
        2
 70
     0
 43
0.0
 10
99.811712486
 20
138.3689508599
 10
100.0679554214
 20
138.1914901897
  0
LWPOLYLINE
  5
16E
330
A9
100
AcDbEntity
  8
DV2_Layer18
  6
Continuous
 62
     7
 48
25.4
100
AcDbPolyline
 90
        2
 70
     0
 43
0.0
 10
99.8617370311
 20
138.1822567161
 10
99.9096523734
 20
138.1490730158
  0
LINE
  5
16F
330
A9
100
AcDbEntity
  8
DV2_Layer18
  6
Continuous
 62
     7
 48
25.4
100
AcDbLine
 10
96.7674249479
 20
150.7653266564
 30
0.0
 11
96.2525044577
 21
152.6870360878
 31
0.0
  0
LWPOLYLINE
  5
170
330
A9
100
AcDbEntity
  8
DV2_Layer18
  6
Continuous
 62
     7
 48
25.4
100
AcDbPolyline
 90
        2
 70
     0
 43
0.0
 10
100.7249744664
 20
139.3605088037
 10
100.8324610922
 20
139.5156813327
  0
LWPOLYLINE
  5
171
330
A9
100
AcDbEntity
  8
DV2_Layer18
  6
Continuous
 62
     7
 48
25.4
100
AcDbPolyline
 90
        2
 70
     0
 43
0.0
 10
99.519106602
 20
141.6125890021
 10
99.6150996631
 20
141.5461091481
  0
LWPOLYLINE
  5
172
330
A9
100
AcDbEntity
  8
DV2_Layer18
  6
Continuous
 62
     7
 48
25.4
100
AcDbPolyline
 90
        2
 70
     0
 43
0.0
 10
99.922578351
 20
139.9647177681
 10
100.3658863889
 20
139.6577054348
  0
LWPOLYLINE
  5
173
330
A9
100
AcDbEntity
  8
DV2_Layer18
  6
Continuous
 62
     7
 48
25.4
100
AcDbPolyline
 90
        2
 70
     0
 43
0.0
 10
100.0040153052
 20
139.6042192881
 10
100.2971571294
 20
139.4012043464
  0
LWPOLYLINE
  5
174
330
A9
100
AcDbEntity
  8
DV2_Layer18
  6
Continuous
 62
     7
 48
25.4
100
AcDbPolyline
 90
        2
 70
     0
 43
0.0
 10
100.0540398502
 20
139.4175251443
 10
100.2627924997
 20
139.2729538023
  0
LWPOLYLINE
  5
175
330
A9
100
AcDbEntity
  8
DV2_Layer18
  6
Continuous
 62
     7
 48
25.4
100
AcDbPolyline
 90
        2
 70
     0
 43
0.0
 10
99.5009467866
 20
141.5448156481
 10
99.8741518086
 20
142.0835912088
  0
LWPOLYLINE
  5
176
330
A9
100
AcDbEntity
  8
DV2_Layer18
  6
Continuous
 62
     7
 48
25.4
100
AcDbPolyline
 90
        2
 70
     0
 43
0.0
 10
99.596874029
 20
141.9028209909
 10
99.7843186043
 20
142.1734244131
  0
LWPOLYLINE
  5
177
330
A9
100
AcDbEntity
  8
DV2_Layer18
  6
Continuous
 62
     7
 48
25.4
100
AcDbPolyline
 90
        2
 70
     0
 43
0.0
 10
99.656565121
 20
142.1255911789
 10
100.2276689826
 20
141.7300740348
  0
LWPOLYLINE
  5
178
330
A9
100
AcDbEntity
  8
DV2_Layer18
  6
Continuous
 62
     7
 48
25.4
100
AcDbPolyline
 90
        2
 70
     0
 43
0.0
 10
99.5534712318
 20
141.7408395463
 10
100.0566549107
 20
141.3923604254
  0
LWPOLYLINE
  5
179
330
A9
100
AcDbEntity
  8
DV2_Layer18
  6
Continuous
 62
     7
 48
25.4
100
AcDbPolyline
 90
        2
 70
     0
 43
0.0
 10
99.6627461132
 20
141.5588759759
 10
99.9639850128
 20
141.9937580046
  0
LWPOLYLINE
  5
17A
330
A9
100
AcDbEntity
  8
DV2_Layer18
  6
Continuous
 62
     7
 48
25.4
100
AcDbPolyline
 90
        2
 70
     0
 43
0.0
 10
99.6222004913
 20
141.9973406347
 10
100.0900088072
 20
141.6733606697
  0
LWPOLYLINE
  5
17B
330
A9
100
AcDbEntity
  8
DV2_Layer18
  6
Continuous
 62
     7
 48
25.4
100
AcDbPolyline
 90
        2
 70
     0
 43
0.0
 10
99.5878358615
 20
141.8690900905
 10
100.0066303657
 20
141.5790545692
  0
LWPOLYLINE
  5
17C
330
A9
100
AcDbEntity
  8
DV2_Layer18
  6
Continuous
 62
     7
 48
25.4
100
AcDbPolyline
 90
        2
 70
     0
 43
0.0
 10
99.7703967075
 20
141.4947647576
 10
100.0538182171
 20
141.9039248003
  0
LWPOLYLINE
  5
17D
330
A9
100
AcDbEntity
  8
DV2_Layer18
  6
Continuous
 62
     7
 48
25.4
100
AcDbPolyline
 90
        2
 70
     0
 43
0.0
 10
100.2228921812
 20
141.7089666625
 10
100.2334846256
 20
141.7242583918
  0
LWPOLYLINE
  5
17E
330
A9
100
AcDbEntity
  8
DV2_Layer18
  6
Continuous
 62
     7
 48
25.4
100
AcDbPolyline
 90
        2
 70
     0
 43
0.0
 10
100.0361768252
 20
141.6589364336
 10
100.1436514214
 20
141.8140915961
  0
ARC
  5
17F
330
A9
100
AcDbEntity
  8
DV2_Layer18
  6
Continuous
 62
     7
 48
25.4
100
AcDbCircle
 10
98.175687316
 20
153.7199894718
 30
0.0
 40
0.2499999999999498
100
AcDbArc
 50
15.0
 51
105.0
  0
LINE
  5
180
330
A9
100
AcDbEntity
  8
DV2_Layer18
  6
Continuous
 62
     7
 48
25.4
100
AcDbLine
 10
96.4330938713
 20
150.6757429144
 30
0.0
 11
95.9181733811
 21
152.5974523458
 31
0.0
  0
LINE
  5
181
330
A9
100
AcDbEntity
  8
DV2_Layer18
  6
Continuous
 62
     7
 48
25.4
100
AcDbLine
 10
96.256317176
 20
150.3695566966
 30
0.0
 11
96.2431564366
 21
150.3660302871
 31
0.0
  0
ARC
  5
182
330
A9
100
AcDbEntity
  8
DV2_Layer18
  6
Continuous
 62
     7
 48
25.4
100
AcDbCircle
 10
96.1784516753
 20
150.6075117436
 30
0.0
 40
0.2499999999204063
100
AcDbArc
 50
195.0
 51
285.0
  0
ARC
  5
183
330
A9
100
AcDbEntity
  8
DV2_Layer18
  6
Continuous
 62
     7
 48
25.4
100
AcDbCircle
 10
98.0357242737
 20
153.1648483974
 30
0.0
 40
0.2500000002107934
100
AcDbArc
 50
105.0
 51
195.0
  0
ARC
  5
184
330
A9
100
AcDbEntity
  8
DV2_Layer18
  6
Continuous
 62
     7
 48
25.4
100
AcDbCircle
 10
98.0488850131
 20
153.1683748069
 30
0.0
 40
0.2499999998407747
100
AcDbArc
 50
15.0
 51
105.0
  0
LINE
  5
185
330
A9
100
AcDbEntity
  8
DV2_Layer18
  6
Continuous
 62
     7
 48
25.4
100
AcDbLine
 10
97.9710195125
 20
153.406329854
 30
0.0
 11
97.9841802519
 21
153.4098562635
 31
0.0
  0
LINE
  5
186
330
A9
100
AcDbEntity
  8
DV2_Layer18
  6
Continuous
 62
     7
 48
25.4
100
AcDbLine
 10
97.4358333506
 20
150.685607103
 30
0.0
 11
97.0736111658
 21
150.5885499611
 31
0.0
  0
LINE
  5
187
330
A9
100
AcDbEntity
  8
DV2_Layer18
  6
Continuous
 62
     7
 48
25.4
100
AcDbLine
 10
97.5363793789
 20
156.3956969225
 30
0.0
 11
97.5687317596
 21
156.2749561942
 31
0.0
  0
LINE
  5
188
330
A9
100
AcDbEntity
  8
DV2_Layer18
  6
Continuous
 62
     7
 48
25.4
100
AcDbLine
 10
95.0048576064
 20
155.1997396177
 30
0.0
 11
95.5170627528
 21
155.336984573
 31
0.0
  0
LWPOLYLINE
  5
189
330
A9
100
AcDbEntity
  8
DV2_Layer18
  6
Continuous
 62
     7
 48
25.4
100
AcDbPolyline
 90
        2
 70
     0
 43
0.0
 10
100.1249571479
 20
139.1528581861
 10
100.2972661487
 20
139.4016112121
  0
LWPOLYLINE
  5
18A
330
A9
100
AcDbEntity
  8
DV2_Layer18
  6
Continuous
 62
     7
 48
25.4
100
AcDbPolyline
 90
        2
 70
     0
 43
0.0
 10
100.1040643953
 20
139.2308310005
 10
100.2284278699
 20
139.1447032581
  0
LWPOLYLINE
  5
18B
330
A9
100
AcDbEntity
  8
DV2_Layer18
  6
Continuous
 62
     7
 48
25.4
100
AcDbPolyline
 90
        2
 70
     0
 43
0.0
 10
100.1540889403
 20
139.0441368568
 10
100.1940632402
 20
139.0164527139
  0
LWPOLYLINE
  5
18C
330
A9
100
AcDbEntity
  8
DV2_Layer18
  6
Continuous
 62
     7
 48
25.4
100
AcDbPolyline
 90
        2
 70
     0
 43
0.0
 10
100.1673708577
 20
138.9945680662
 10
100.2013389062
 20
139.0436058693
  0
ARC
  5
18D
330
A9
100
AcDbEntity
  8
DV2_Layer18
  6
Continuous
 62
     7
 48
25.4
100
AcDbCircle
 10
97.7333507742
 20
151.0241457015
 30
0.0
 40
0.2499999998805787
100
AcDbArc
 50
285.0
 51
15.0
  0
ARC
  5
18E
330
A9
100
AcDbEntity
  8
DV2_Layer18
  6
Continuous
 62
     7
 48
25.4
100
AcDbCircle
 10
98.5638055034
 20
151.2466653755
 30
0.0
 40
0.2499999998805518
100
AcDbArc
 50
285.0
 51
15.0
  0
ARC
  5
18F
330
A9
100
AcDbEntity
  8
DV2_Layer18
  6
Continuous
 62
     7
 48
25.4
100
AcDbCircle
 10
96.1916124147
 20
150.6110381531
 30
0.0
 40
0.2500000001053778
100
AcDbArc
 50
285.0
 51
15.0
  0
LINE
  5
190
330
A9
100
AcDbEntity
  8
DV2_Layer18
  6
Continuous
 62
     7
 48
25.4
100
AcDbLine
 10
98.8052869599
 20
151.3113701368
 30
0.0
 11
98.2903664697
 21
153.2330795682
 31
0.0
  0
LINE
  5
191
330
A9
100
AcDbEntity
  8
DV2_Layer18
  6
Continuous
 62
     7
 48
25.4
100
AcDbLine
 10
95.6119871632
 20
152.7742290411
 30
0.0
 11
95.5988264238
 21
152.7707026316
 31
0.0
  0
ARC
  5
192
330
A9
100
AcDbEntity
  8
DV2_Layer18
  6
Continuous
 62
     7
 48
25.4
100
AcDbCircle
 10
96.4939859143
 20
152.7517408491
 30
0.0
 40
0.2499999999203839
100
AcDbArc
 50
105.0
 51
195.0
  0
LINE
  5
193
330
A9
100
AcDbEntity
  8
DV2_Layer18
  6
Continuous
 62
     7
 48
25.4
100
AcDbLine
 10
96.7915033378
 20
153.0902794476
 30
0.0
 11
96.429281153
 21
152.9932223056
 31
0.0
  0
LWPOLYLINE
  5
194
330
A9
100
AcDbEntity
  8
DV2_Layer18
  6
Continuous
 62
     7
 48
25.4
100
AcDbPolyline
 90
        5
 70
     0
 43
0.0
 10
101.4392002544
 20
138.9083250815
 10
99.7858899389
 20
138.4653219176
 10
99.8732426754
 20
138.1393170667
 10
101.5265529909
 20
138.5823202305
 10
101.4392002544
 20
138.9083250815
  0
LWPOLYLINE
  5
195
330
A9
100
AcDbEntity
  8
DV2_Layer18
  6
Continuous
 62
     7
 48
25.4
100
AcDbPolyline
 90
        2
 70
     0
 43
0.0
 10
101.3741158399
 20
138.541474819
 10
101.4919258171
 20
138.7115506026
  0
LWPOLYLINE
  5
196
330
A9
100
AcDbEntity
  8
DV2_Layer18
  6
Continuous
 62
     7
 48
25.4
100
AcDbPolyline
 90
        2
 70
     0
 43
0.0
 10
99.9913076105
 20
140.2212188565
 10
100.7919946279
 20
139.6667042336
  0
LWPOLYLINE
  5
197
330
A9
100
AcDbEntity
  8
DV2_Layer18
  6
Continuous
 62
     7
 48
25.4
100
AcDbPolyline
 90
        2
 70
     0
 43
0.0
 10
101.1874004838
 20
138.4914445902
 10
101.4495121073
 20
138.8698407225
  0
LWPOLYLINE
  5
198
330
A9
100
AcDbEntity
  8
DV2_Layer18
  6
Continuous
 62
     7
 48
25.4
100
AcDbPolyline
 90
        2
 70
     0
 43
0.0
 10
101.1289017272
 20
138.8251808417
 10
101.4926828537
 20
138.5732447546
  0
LWPOLYLINE
  5
199
330
A9
100
AcDbEntity
  8
DV2_Layer18
  6
Continuous
 62
     7
 48
25.4
100
AcDbPolyline
 90
        2
 70
     0
 43
0.0
 10
99.9569429807
 20
140.0929683123
 10
100.842019173
 20
139.4800100899
  0
LWPOLYLINE
  5
19A
330
A9
100
AcDbEntity
  8
DV2_Layer18
  6
Continuous
 62
     7
 48
25.4
100
AcDbPolyline
 90
        2
 70
     0
 43
0.0
 10
101.2872047752
 20
138.8675980156
 10
101.4872315765
 20
138.7290697469
  0
LWPOLYLINE
  5
19B
330
A9
100
AcDbEntity
  8
DV2_Layer18
  6
Continuous
 62
     7
 48
25.4
100
AcDbPolyline
 90
        2
 70
     0
 43
0.0
 10
101.0006851278
 20
138.4414143613
 10
101.2978801561
 20
138.8704584753
  0
LWPOLYLINE
  5
19C
330
A9
100
AcDbEntity
  8
DV2_Layer18
  6
Continuous
 62
     7
 48
25.4
100
AcDbPolyline
 90
        2
 70
     0
 43
0.0
 10
100.9705986792
 20
138.7827636678
 10
101.3343798056
 20
138.5308275807
  0
LWPOLYLINE
  5
19D
330
A9
100
AcDbEntity
  8
DV2_Layer18
  6
Continuous
 62
     7
 48
25.4
100
AcDbPolyline
 90
        2
 70
     0
 43
0.0
 10
100.8122956311
 20
138.740346494
 10
101.1760767576
 20
138.4884104069
  0
LWPOLYLINE
  5
19E
330
A9
100
AcDbEntity
  8
DV2_Layer18
  6
Continuous
 62
     7
 48
25.4
100
AcDbPolyline
 90
        2
 70
     0
 43
0.0
 10
100.6272544158
 20
138.3413539036
 10
100.9244494441
 20
138.7703980176
  0
LWPOLYLINE
  5
19F
330
A9
100
AcDbEntity
  8
DV2_Layer18
  6
Continuous
 62
     7
 48
25.4
100
AcDbPolyline
 90
        2
 70
     0
 43
0.0
 10
100.8139697718
 20
138.3913841325
 10
101.1111648001
 20
138.8204282464
  0
LWPOLYLINE
  5
1A0
330
A9
100
AcDbEntity
  8
DV2_Layer18
  6
Continuous
 62
     7
 48
25.4
100
AcDbPolyline
 90
        2
 70
     0
 43
0.0
 10
100.6539925831
 20
138.6979293201
 10
101.0177737096
 20
138.445993233
  0
LWPOLYLINE
  5
1A1
330
A9
100
AcDbEntity
  8
DV2_Layer18
  6
Continuous
 62
     7
 48
25.4
100
AcDbPolyline
 90
        2
 70
     0
 43
0.0
 10
100.5671911603
 20
139.5182921098
 10
100.892043718
 20
139.2933159461
  0
LWPOLYLINE
  5
1A2
330
A9
100
AcDbEntity
  8
DV2_Layer18
  6
Continuous
 62
     7
 48
25.4
100
AcDbPolyline
 90
        2
 70
     0
 43
0.0
 10
100.9046408749
 20
139.1808423952
 10
100.9172885118
 20
139.1991010929
  0
LWPOLYLINE
  5
1A3
330
A9
100
AcDbEntity
  8
DV2_Layer18
  6
Continuous
 62
     7
 48
25.4
100
AcDbPolyline
 90
        2
 70
     0
 43
0.0
 10
100.8148076707
 20
139.2706755995
 10
100.874874802
 20
139.3573912128
  0
LWPOLYLINE
  5
1A4
330
A9
100
AcDbEntity
  8
DV2_Layer18
  6
Continuous
 62
     7
 48
25.4
100
AcDbPolyline
 90
        2
 70
     0
 43
0.0
 10
99.9539907601
 20
139.7909134319
 10
100.3315217591
 20
139.5294548906
  0
LWPOLYLINE
  5
1A5
330
A9
100
AcDbEntity
  8
DV2_Layer18
  6
Continuous
 62
     7
 48
25.4
100
AcDbPolyline
 90
        2
 70
     0
 43
0.0
 10
99.8128104173
 20
141.3364746377
 10
99.9994376581
 20
141.6058981191
  0
LWPOLYLINE
  5
1A6
330
A9
100
AcDbEntity
  8
DV2_Layer18
  6
Continuous
 62
     7
 48
25.4
100
AcDbPolyline
 90
        2
 70
     0
 43
0.0
 10
99.7888886662
 20
141.4257518281
 10
100.1066794558
 20
141.2056662816
  0
LWPOLYLINE
  5
1A7
330
A9
100
AcDbEntity
  8
DV2_Layer18
  6
Continuous
 62
     7
 48
25.4
100
AcDbPolyline
 90
        2
 70
     0
 43
0.0
 10
99.8552241271
 20
141.1781845177
 10
100.0418513679
 20
141.4476079992
  0
LWPOLYLINE
  5
1A8
330
A9
100
AcDbEntity
  8
DV2_Layer18
  6
Continuous
 62
     7
 48
25.4
100
AcDbPolyline
 90
        2
 70
     0
 43
0.0
 10
99.8976378369
 20
141.0198943978
 10
100.0842650778
 20
141.2893178793
  0
LWPOLYLINE
  5
1A9
330
A9
100
AcDbEntity
  8
DV2_Layer18
  6
Continuous
 62
     7
 48
25.4
100
AcDbPolyline
 90
        2
 70
     0
 43
0.0
 10
99.8389132113
 20
141.2390576844
 10
100.1567040008
 20
141.0189721378
  0
LWPOLYLINE
  5
1AA
330
A9
100
AcDbEntity
  8
DV2_Layer18
  6
Continuous
 62
     7
 48
25.4
100
AcDbPolyline
 90
        2
 70
     0
 43
0.0
 10
99.9400515467
 20
140.8616042779
 10
100.1266787876
 20
141.1310277594
  0
LWPOLYLINE
  5
1AB
330
A9
100
AcDbEntity
  8
DV2_Layer18
  6
Continuous
 62
     7
 48
25.4
100
AcDbPolyline
 90
        2
 70
     0
 43
0.0
 10
99.8889377563
 20
141.0523635406
 10
100.2067285459
 20
140.8322779941
  0
LWPOLYLINE
  5
1AC
330
A9
100
AcDbEntity
  8
DV2_Layer18
  6
Continuous
 62
     7
 48
25.4
100
AcDbPolyline
 90
        2
 70
     0
 43
0.0
 10
99.9824652565
 20
140.703314158
 10
100.1690924974
 20
140.9727376394
  0
LWPOLYLINE
  5
1AD
330
A9
100
AcDbEntity
  8
DV2_Layer18
  6
Continuous
 62
     7
 48
25.4
100
AcDbPolyline
 90
        2
 70
     0
 43
0.0
 10
99.9889868465
 20
140.678975253
 10
100.4295946882
 20
140.3738329366
  0
LWPOLYLINE
  5
1AE
330
A9
100
AcDbEntity
  8
DV2_Layer18
  6
Continuous
 62
     7
 48
25.4
100
AcDbPolyline
 90
        2
 70
     0
 43
0.0
 10
99.9389623014
 20
140.8656693968
 10
100.256753091
 20
140.6455838503
  0
LWPOLYLINE
  5
1AF
330
A9
100
AcDbEntity
  8
DV2_Layer18
  6
Continuous
 62
     7
 48
25.4
100
AcDbPolyline
 90
        2
 70
     0
 43
0.0
 10
100.0248789663
 20
140.5450240381
 10
100.2115062072
 20
140.8144475195
  0
LWPOLYLINE
  5
1B0
330
A9
100
AcDbEntity
  8
DV2_Layer18
  6
Continuous
 62
     7
 48
25.4
100
AcDbPolyline
 90
        2
 70
     0
 43
0.0
 10
100.0156999634
 20
140.3122523567
 10
100.253919917
 20
140.6561573996
  0
LWPOLYLINE
  5
1B1
330
A9
100
AcDbEntity
  8
DV2_Layer18
  6
Continuous
 62
     7
 48
25.4
100
AcDbPolyline
 90
        2
 70
     0
 43
0.0
 10
99.9197727209
 20
139.9542470139
 10
100.3001094283
 20
140.5033181966
  0
LWPOLYLINE
  5
1B2
330
A9
100
AcDbEntity
  8
DV2_Layer18
  6
Continuous
 62
     7
 48
25.4
100
AcDbPolyline
 90
        2
 70
     0
 43
0.0
 10
99.9553023087
 20
139.7860186658
 10
100.3899426325
 20
140.4134849923
  0
LWPOLYLINE
  5
1B3
330
A9
100
AcDbEntity
  8
DV2_Layer18
  6
Continuous
 62
     7
 48
25.4
100
AcDbPolyline
 90
        2
 70
     0
 43
0.0
 10
100.0390113915
 20
140.4922811092
 10
100.6919455378
 20
140.0400925212
  0
LWPOLYLINE
  5
1B4
330
A9
100
AcDbEntity
  8
DV2_Layer18
  6
Continuous
 62
     7
 48
25.4
100
AcDbPolyline
 90
        2
 70
     0
 43
0.0
 10
100.3373864871
 20
138.6130949723
 10
100.7011676135
 20
138.3611588852
  0
LWPOLYLINE
  5
1B5
330
A9
100
AcDbEntity
  8
DV2_Layer18
  6
Continuous
 62
     7
 48
25.4
100
AcDbPolyline
 90
        2
 70
     0
 43
0.0
 10
99.9977160185
 20
139.6277285459
 10
100.4797758368
 20
140.3236517881
  0
LWPOLYLINE
  5
1B6
330
A9
100
AcDbEntity
  8
DV2_Layer18
  6
Continuous
 62
     7
 48
25.4
100
AcDbPolyline
 90
        2
 70
     0
 43
0.0
 10
100.0256722402
 20
140.3494694007
 10
100.7419700828
 20
139.8533983774
  0
LWPOLYLINE
  5
1B7
330
A9
100
AcDbEntity
  8
DV2_Layer18
  6
Continuous
 62
     7
 48
25.4
100
AcDbPolyline
 90
        2
 70
     0
 43
0.0
 10
100.4405390598
 20
138.2913236747
 10
100.7377340881
 20
138.7203677887
  0
LWPOLYLINE
  5
1B8
330
A9
100
AcDbEntity
  8
DV2_Layer18
  6
Continuous
 62
     7
 48
25.4
100
AcDbPolyline
 90
        2
 70
     0
 43
0.0
 10
100.0401297283
 20
139.469438426
 10
100.569609041
 20
140.2338185838
  0
LWPOLYLINE
  5
1B9
330
A9
100
AcDbEntity
  8
DV2_Layer18
  6
Continuous
 62
     7
 48
25.4
100
AcDbPolyline
 90
        2
 70
     0
 43
0.0
 10
100.0825434381
 20
139.3111483061
 10
100.6594422453
 20
140.1439853795
  0
LWPOLYLINE
  5
1BA
330
A9
100
AcDbEntity
  8
DV2_Layer18
  6
Continuous
 62
     7
 48
25.4
100
AcDbPolyline
 90
        2
 70
     0
 43
0.0
 10
100.4956895351
 20
138.6555121462
 10
100.8594706616
 20
138.4035760591
  0
LWPOLYLINE
  5
1BB
330
A9
100
AcDbEntity
  8
DV2_Layer18
  6
Continuous
 62
     7
 48
25.4
100
AcDbPolyline
 90
        2
 70
     0
 43
0.0
 10
100.4554748536
 20
139.6300084165
 10
100.7052199628
 20
139.9905516925
  0
LWPOLYLINE
  5
1BC
330
A9
100
AcDbEntity
  8
DV2_Layer18
  6
Continuous
 62
     7
 48
25.4
100
AcDbPolyline
 90
        2
 70
     0
 43
0.0
 10
100.5453080579
 20
139.5401752122
 10
100.7476336726
 20
139.8322615726
  0
LWPOLYLINE
  5
1BD
330
A9
100
AcDbEntity
  8
DV2_Layer18
  6
Continuous
 62
     7
 48
25.4
100
AcDbPolyline
 90
        2
 70
     0
 43
0.0
 10
100.6351412621
 20
139.450342008
 10
100.7900473824
 20
139.6739714527
  0
LWPOLYLINE
  5
1BE
330
A9
100
AcDbEntity
  8
DV2_Layer18
  6
Continuous
 62
     7
 48
25.4
100
AcDbPolyline
 90
        2
 70
     0
 43
0.0
 10
99.6928012715
 20
142.2608263336
 10
99.6944854001
 20
142.2632576174
  0
LWPOLYLINE
  5
1BF
330
A9
100
AcDbEntity
  8
DV2_Layer18
  6
Continuous
 62
     7
 48
25.4
100
AcDbPolyline
 90
        2
 70
     0
 43
0.0
 10
99.6909297508
 20
142.2538417231
 10
99.7331202919
 20
142.2246227255
  0
LINE
  5
1C0
330
A9
100
AcDbEntity
  8
DV2_Layer18
  6
Continuous
 62
     7
 48
25.4
100
AcDbLine
 10
97.1228189106
 20
149.1673599886
 30
0.0
 11
99.8664923715
 21
147.5832993774
 31
0.0
  0
LINE
  5
1C1
330
A9
100
AcDbEntity
  8
DV2_Layer18
  6
Continuous
 62
     7
 48
25.4
100
AcDbLine
 10
98.4888553623
 20
149.5333883527
 30
0.0
 11
99.5985660716
 21
148.8926965759
 31
0.0
  0
LINE
  5
1C2
330
A9
100
AcDbEntity
  8
DV2_Layer18
  6
Continuous
 62
     7
 48
25.4
100
AcDbLine
 10
96.3501954972
 20
148.4587448596
 30
0.0
 11
98.500480068
 21
147.2172774838
 31
0.0
  0
LINE
  5
1C3
330
A9
100
AcDbEntity
  8
DV2_Layer18
  6
Continuous
 62
     7
 48
25.4
100
AcDbLine
 10
98.3721326738
 20
147.1828869032
 30
0.0
 11
99.5227191505
 21
149.1757611393
 31
0.0
  0
LINE
  5
1C4
330
A9
100
AcDbEntity
  8
DV2_Layer18
  6
Continuous
 62
     7
 48
25.4
100
AcDbLine
 10
99.1994678834
 20
146.4937929076
 30
0.0
 11
100.4320281016
 21
145.7821739338
 31
0.0
  0
LINE
  5
1C5
330
A9
100
AcDbEntity
  8
DV2_Layer18
  6
Continuous
 62
     7
 48
25.4
100
AcDbLine
 10
97.1836575272
 20
145.3482222174
 30
0.0
 11
100.3615989566
 21
143.5134368777
 31
0.0
  0
LINE
  5
1C6
330
A9
100
AcDbEntity
  8
DV2_Layer18
  6
Continuous
 62
     7
 48
25.4
100
AcDbLine
 10
102.9779210502
 20
136.2807720991
 30
0.0
 11
100.1715574794
 21
146.7542635298
 31
0.0
  0
LINE
  5
1C7
330
A9
100
AcDbEntity
  8
DV2_Layer18
  6
Continuous
 62
     7
 48
25.4
100
AcDbLine
 10
97.8334314317
 20
146.1277645435
 30
0.0
 11
100.7980564657
 21
144.4161374821
 31
0.0
  0
LINE
  5
1C8
330
A9
100
AcDbEntity
  8
DV2_Layer18
  6
Continuous
 62
     7
 48
25.4
100
AcDbLine
 10
97.929270588
 20
142.8616964557
 30
0.0
 11
100.1731702337
 21
146.748244649
 31
0.0
  0
LINE
  5
1C9
330
A9
100
AcDbEntity
  8
DV2_Layer18
  6
Continuous
 62
     7
 48
25.4
100
AcDbLine
 10
96.492571854
 20
147.9273890625
 30
0.0
 11
97.2241126872
 21
149.1945015743
 31
0.0
  0
LINE
  5
1CA
330
A9
100
AcDbEntity
  8
DV2_Layer18
  6
Continuous
 62
     7
 48
25.4
100
AcDbLine
 10
97.5090513012
 20
144.1338361205
 30
0.0
 11
98.8115640567
 21
146.3898543905
 31
0.0
  0
LINE
  5
1CB
330
A9
100
AcDbEntity
  8
DV2_Layer18
  6
Continuous
 62
     7
 48
25.4
100
AcDbLine
 10
97.5496858913
 20
143.9821857658
 30
0.0
 11
98.9955625049
 21
143.1474085137
 31
0.0
  0
LINE
  5
1CC
330
A9
100
AcDbEntity
  8
DV2_Layer18
  6
Continuous
 62
     7
 48
25.4
100
AcDbLine
 10
97.0061180791
 20
146.8168643957
 30
0.0
 11
98.5901540877
 21
149.5605312644
 31
0.0
  0
LINE
  5
1CD
330
A9
100
AcDbEntity
  8
DV2_Layer18
  6
Continuous
 62
     7
 48
25.4
100
AcDbLine
 10
99.5628257174
 20
136.4690456519
 30
0.0
 11
100.8680975641
 21
135.7154465998
 31
0.0
  0
LINE
  5
1CE
330
A9
100
AcDbEntity
  8
DV2_Layer18
  6
Continuous
 62
     7
 48
25.4
100
AcDbLine
 10
97.1430229372
 20
145.4998725722
 30
0.0
 11
97.445527605
 21
146.0238260264
 31
0.0
  0
LINE
  5
1CF
330
A9
100
AcDbEntity
  8
DV2_Layer18
  6
Continuous
 62
     7
 48
25.4
100
AcDbLine
 10
100.196928071
 20
137.2576563645
 30
0.0
 11
102.2341340158
 21
136.0814749639
 31
0.0
  0
LINE
  5
1D0
330
A9
100
AcDbEntity
  8
DV2_Layer18
  6
Continuous
 62
     7
 48
25.4
100
AcDbLine
 10
99.7052020742
 20
135.9376898548
 30
0.0
 11
100.516763863
 21
137.3433561067
 31
0.0
  0
LINE
  5
1D1
330
A9
100
AcDbEntity
  8
DV2_Layer18
  6
Continuous
 62
     7
 48
25.4
100
AcDbLine
 10
100.7065706178
 20
135.672165585
 30
0.0
 11
101.8827691004
 21
137.7093761069
 31
0.0
  0
LINE
  5
1D2
330
A9
100
AcDbEntity
  8
DV2_Layer18
  6
Continuous
 62
     7
 48
25.4
100
AcDbLine
 10
102.0726070695
 20
136.0381939491
 30
0.0
 11
102.7353493707
 21
137.1860619316
 31
0.0
  0
LINE
  5
1D3
330
A9
100
AcDbEntity
  8
DV2_Layer18
  6
Continuous
 62
     7
 48
25.4
100
AcDbLine
 10
101.5629403746
 20
137.6236782581
 30
0.0
 11
102.8111962918
 21
136.9029973682
 31
0.0
  0
LINE
  5
1D4
330
A9
100
AcDbEntity
  8
DV2_Layer18
  6
Continuous
 62
     7
 48
25.4
100
AcDbLine
 10
97.032298544
 20
145.9131016332
 30
0.0
 11
99.8386621148
 21
135.4396102025
 31
0.0
  0
LINE
  5
1D5
330
A9
100
AcDbEntity
  8
DV2_Layer18
  6
Continuous
 62
     7
 48
25.4
100
AcDbLine
 10
99.2953070397
 20
143.2277248197
 30
0.0
 11
100.5391985977
 21
145.3822081973
 31
0.0
  0
LINE
  5
1D6
330
A9
100
AcDbEntity
  8
DV2_Layer18
  6
Continuous
 62
     7
 48
25.4
100
AcDbLine
 10
100.6613193433
 20
143.5937467133
 30
0.0
 11
100.9052204913
 21
144.0161958938
 31
0.0
  0
LINE
  5
1D7
330
A9
100
AcDbEntity
  8
DV2_Layer18
  6
CENTER2
 62
     7
 48
25.4
100
AcDbLine
 10
96.5379271641
 20
145.7806352212
 30
0.0
 11
100.6101139163
 21
146.8717743729
 31
0.0
  0
LINE
  5
1D8
330
A9
100
AcDbEntity
  8
DV2_Layer18
  6
CENTER2
 62
     7
 48
25.4
100
AcDbLine
 10
96.3102327148
 20
146.6304024743
 30
0.0
 11
100.3824194671
 21
147.721541626
 31
0.0
  0
LINE
  5
1D9
330
A9
100
AcDbEntity
  8
DV2_Layer18
  6
Continuous
 62
     7
 48
25.4
100
AcDbLine
 10
99.4081498427
 20
137.0463038752
 30
0.0
 11
102.5474087781
 21
137.8874657718
 31
0.0
  0
LINE
  5
1DA
330
A9
100
AcDbEntity
  8
DV2_Layer18
  6
Continuous
 62
     7
 48
25.4
100
AcDbLine
 10
97.8552355721
 20
142.8418588329
 30
0.0
 11
100.9944945075
 21
143.6830207295
 31
0.0
  0
LINE
  5
1DB
330
A9
100
AcDbEntity
  8
DV2_Layer18
  6
Continuous
 62
     7
 48
25.4
100
AcDbLine
 10
99.7471576805
 20
141.5814939872
 30
0.0
 11
99.4924904321
 21
141.5132561036
 31
0.0
  0
LINE
  5
1DC
330
A9
100
AcDbEntity
  8
DV2_Layer18
  6
Continuous
 62
     7
 48
25.4
100
AcDbLine
 10
100.0514749569
 20
140.4457664501
 30
0.0
 11
99.7471576805
 21
141.5814939872
 31
0.0
  0
LINE
  5
1DD
330
A9
100
AcDbEntity
  8
DV2_Layer18
  6
Continuous
 62
     7
 48
25.4
100
AcDbLine
 10
99.9149991898
 20
139.9364319534
 30
0.0
 11
100.0514749569
 21
140.4457664501
 31
0.0
  0
LINE
  5
1DE
330
A9
100
AcDbEntity
  8
DV2_Layer18
  6
Continuous
 62
     7
 48
25.4
100
AcDbLine
 10
100.1777850621
 20
138.9557017263
 30
0.0
 11
99.9149991898
 21
139.9364319534
 31
0.0
  0
LINE
  5
1DF
330
A9
100
AcDbEntity
  8
DV2_Layer18
  6
Continuous
 62
     7
 48
25.4
100
AcDbLine
 10
100.3789655905
 20
139.7065176796
 30
0.0
 11
100.1777850621
 21
138.9557017263
 31
0.0
  0
LINE
  5
1E0
330
A9
100
AcDbEntity
  8
DV2_Layer18
  6
Continuous
 62
     7
 48
25.4
100
AcDbLine
 10
100.9286010154
 20
139.1568822547
 30
0.0
 11
100.3789655905
 21
139.7065176796
 31
0.0
  0
LINE
  5
1E1
330
A9
100
AcDbEntity
  8
DV2_Layer18
  6
Continuous
 62
     7
 48
25.4
100
AcDbLine
 10
100.6658151431
 20
140.1376124817
 30
0.0
 11
100.9286010154
 21
139.1568822547
 31
0.0
  0
LINE
  5
1E2
330
A9
100
AcDbEntity
  8
DV2_Layer18
  6
Continuous
 62
     7
 48
25.4
100
AcDbLine
 10
100.2929564134
 20
140.5104712114
 30
0.0
 11
100.6658151431
 21
140.1376124817
 31
0.0
  0
LINE
  5
1E3
330
A9
100
AcDbEntity
  8
DV2_Layer18
  6
Continuous
 62
     7
 48
25.4
100
AcDbLine
 10
99.9886391371
 20
141.6461987485
 30
0.0
 11
100.2929564134
 21
140.5104712114
 31
0.0
  0
LINE
  5
1E4
330
A9
100
AcDbEntity
  8
DV2_Layer18
  6
Continuous
 62
     7
 48
25.4
100
AcDbLine
 10
100.2433063854
 20
141.714436632
 30
0.0
 11
99.9886391371
 21
141.6461987485
 31
0.0
  0
LINE
  5
1E5
330
A9
100
AcDbEntity
  8
DV2_Layer18
  6
Continuous
 62
     7
 48
25.4
100
AcDbLine
 10
99.6936709605
 20
142.264072057
 30
0.0
 11
100.2433063854
 21
141.714436632
 31
0.0
  0
LINE
  5
1E6
330
A9
100
AcDbEntity
  8
DV2_Layer18
  6
Continuous
 62
     7
 48
25.4
100
AcDbLine
 10
99.4924904321
 20
141.5132561036
 30
0.0
 11
99.6936709605
 21
142.264072057
 31
0.0
  0
LINE
  5
1E7
330
A9
100
AcDbEntity
  8
DV2_Layer18
  6
Continuous
 62
     7
 48
25.4
100
AcDbLine
 10
103.714118329
 20
130.9722883498
 30
0.0
 11
104.3082011168
 21
131.125650797
 31
0.0
  0
LINE
  5
1E8
330
A9
100
AcDbEntity
  8
DV2_Layer18
  6
Continuous
 62
     7
 48
25.4
100
AcDbLine
 10
104.2935399267
 20
128.809857508
 30
0.0
 11
104.8847119368
 21
128.9740831255
 31
0.0
  0
LINE
  5
1E9
330
A9
100
AcDbEntity
  8
DV2_Layer18
  6
Continuous
 62
     7
 48
25.4
100
AcDbLine
 10
102.4347600415
 20
128.3117989389
 30
0.0
 11
101.8553384438
 21
130.4742297806
 31
0.0
  0
LINE
  5
1EA
330
A9
100
AcDbEntity
  8
DV2_Layer18
  6
Continuous
 62
     7
 48
25.4
100
AcDbLine
 10
101.840677254
 20
128.1584364905
 30
0.0
 11
101.264166434
 21
130.310004162
 31
0.0
  0
LINE
  5
1EB
330
A9
100
AcDbEntity
  8
DV2_Layer18
  6
Continuous
 62
     7
 48
25.4
100
AcDbLine
 10
100.6916019415
 20
127.9390933602
 30
0.0
 11
100.1593664571
 21
129.9254232294
 31
0.0
  0
ARC
  5
1EC
330
A9
100
AcDbEntity
  8
DV2_Layer18
  6
Continuous
 62
     7
 48
25.4
100
AcDbCircle
 10
101.0142695071
 20
129.3682395812
 30
0.0
 40
1.465118862881688
100
AcDbArc
 50
257.2772796976
 51
304.3367005279
  0
LINE
  5
1ED
330
A9
100
AcDbEntity
  8
DV2_Layer18
  6
Continuous
 62
     7
 48
25.4
100
AcDbLine
 10
101.2408060729
 20
127.7919231456
 30
0.0
 11
100.6916019415
 21
127.9390933602
 31
0.0
  0
ARC
  5
1EE
330
A9
100
AcDbEntity
  8
DV2_Layer18
  6
Continuous
 62
     7
 48
25.4
100
AcDbCircle
 10
101.1533778765
 20
128.849080079
 30
0.0
 40
1.465118862321266
100
AcDbArc
 50
85.6632994644
 51
132.7227203024
  0
LINE
  5
1EF
330
A9
100
AcDbEntity
  8
DV2_Layer18
  6
Continuous
 62
     7
 48
25.4
100
AcDbLine
 10
100.1593664571
 20
129.9254232294
 30
0.0
 11
100.5614060795
 21
130.3274784396
 31
0.0
  0
LINE
  5
1F0
330
A9
100
AcDbEntity
  8
DV2_Layer18
  6
Continuous
 62
     7
 48
25.4
100
AcDbLine
 10
101.8553384438
 20
130.4742297806
 30
0.0
 11
101.264166434
 21
130.310004162
 31
0.0
  0
LINE
  5
1F1
330
A9
100
AcDbEntity
  8
DV2_Layer18
  6
Continuous
 62
     7
 48
25.4
100
AcDbLine
 10
102.4347600415
 20
128.3117989389
 30
0.0
 11
101.840677254
 21
128.1584364905
 31
0.0
  0
LINE
  5
1F2
330
A9
100
AcDbEntity
  8
DV2_Layer17
  6
Continuous
 62
     7
 48
25.4
100
AcDbLine
 10
93.434985539
 20
158.8554936254
 30
0.0
 11
94.3246760065
 21
155.5351235975
 31
0.0
  0
LINE
  5
1F3
330
A9
100
AcDbEntity
  8
DV2_Layer17
  6
Continuous
 62
     7
 48
25.4
100
AcDbLine
 10
90.5362892844
 20
172.571352802
 30
0.0
 11
93.2245571966
 21
162.5386003693
 31
0.0
  0
LINE
  5
1F4
330
A9
100
AcDbEntity
  8
DV2_Layer17
  6
Continuous
 62
     7
 48
25.4
100
AcDbLine
 10
95.3978903058
 20
163.1209432208
 30
0.0
 11
92.9830757401
 21
162.473895608
 31
0.0
  0
LINE
  5
1F5
330
A9
100
AcDbEntity
  8
DV2_Layer17
  6
Continuous
 62
     7
 48
25.4
100
AcDbLine
 10
95.3978903058
 20
163.1209432208
 30
0.0
 11
95.8508236347
 21
161.4305730248
 31
0.0
  0
LINE
  5
1F6
330
A9
100
AcDbEntity
  8
DV2_Layer17
  6
Continuous
 62
     7
 48
25.4
100
AcDbLine
 10
96.0319347271
 20
161.4791015957
 30
0.0
 11
96.4329931587
 21
159.9823311523
 31
0.0
  0
LINE
  5
1F7
330
A9
100
AcDbEntity
  8
DV2_Layer17
  6
Continuous
 62
     7
 48
25.4
100
AcDbLine
 10
93.2548979766
 20
160.734996841
 30
0.0
 11
96.0319347271
 21
161.4791015957
 31
0.0
  0
LINE
  5
1F8
330
A9
100
AcDbEntity
  8
DV2_Layer17
  6
Continuous
 62
     7
 48
25.4
100
AcDbLine
 10
96.815725931
 20
159.7613602832
 30
0.0
 11
97.7054163985
 21
156.4409902554
 31
0.0
  0
LINE
  5
1F9
330
A9
100
AcDbEntity
  8
DV2_Layer17
  6
Continuous
 62
     7
 48
25.4
100
AcDbLine
 10
96.4329931587
 20
159.9823311523
 30
0.0
 11
96.815725931
 21
159.7613602832
 31
0.0
  0
LINE
  5
1FA
330
A9
100
AcDbEntity
  8
DV2_Layer17
  6
Continuous
 62
     7
 48
25.4
100
AcDbLine
 10
97.7054163985
 20
156.4409902554
 30
0.0
 11
94.3246760065
 21
155.5351235975
 31
0.0
  0
LINE
  5
1FB
330
A9
100
AcDbEntity
  8
DV2_Layer17
  6
Continuous
 62
     7
 48
25.4
100
AcDbLine
 10
94.1904830229
 20
162.7974194144
 30
0.0
 11
94.6434163518
 21
161.1070492184
 31
0.0
  0
LINE
  5
1FC
330
A9
100
AcDbEntity
  8
DV2_Layer17
  6
Continuous
 62
     7
 48
25.4
100
AcDbLine
 10
93.434985539
 20
158.8554936254
 30
0.0
 11
96.815725931
 21
159.7613602832
 31
0.0
  0
LINE
  5
1FD
330
A9
100
AcDbEntity
  8
DV2_Layer17
  6
Continuous
 62
     7
 48
25.4
100
AcDbLine
 10
93.6559564081
 20
159.2382263977
 30
0.0
 11
96.4329931587
 21
159.9823311523
 31
0.0
  0
LINE
  5
1FE
330
A9
100
AcDbEntity
  8
DV2_Layer17
  6
Continuous
 62
     7
 48
25.4
100
AcDbLine
 10
92.4474018901
 20
173.166390069
 30
0.0
 11
95.1564088492
 21
163.0562384595
 31
0.0
  0
LINE
  5
1FF
330
A9
100
AcDbEntity
  8
DV2_Layer17
  6
Continuous
 62
     7
 48
25.4
100
AcDbLine
 10
92.9830757401
 20
162.473895608
 30
0.0
 11
93.436009069
 21
160.783525412
 31
0.0
  0
LINE
  5
200
330
A9
100
AcDbEntity
  8
DV2_Layer17
  6
Continuous
 62
     7
 48
25.4
100
AcDbLine
 10
93.6559564081
 20
159.2382263977
 30
0.0
 11
93.434985539
 21
158.8554936254
 31
0.0
  0
LINE
  5
201
330
A9
100
AcDbEntity
  8
DV2_Layer17
  6
Continuous
 62
     7
 48
25.4
100
AcDbLine
 10
93.2548979766
 20
160.734996841
 30
0.0
 11
93.6559564081
 21
159.2382263977
 31
0.0
  0
ARC
  5
202
330
A9
100
AcDbEntity
  8
DV2_Layer17
  6
Continuous
 62
     7
 48
25.4
100
AcDbCircle
 10
106.9362892844
 20
177.0486757455
 30
0.0
 40
15.0
100
AcDbArc
 50
180.0
 51
195.0
  0
LINE
  5
203
330
A9
100
AcDbEntity
  8
DV2_Layer18
  6
CENTER2
 62
     7
 48
25.4
100
AcDbLine
 10
76.8140911612
 20
129.701576489
 30
0.0
 11
75.2275507584
 21
123.7805270973
 31
0.0
  0
LINE
  5
204
330
A9
100
AcDbEntity
  8
DV2_Layer18
  6
Continuous
 62
     7
 48
25.4
100
AcDbLine
 10
85.4042702882
 20
155.4442002268
 30
0.0
 11
85.3072131463
 21
155.0819780419
 31
0.0
  0
LINE
  5
205
330
A9
100
AcDbEntity
  8
DV2_Layer18
  6
Continuous
 62
     7
 48
25.4
100
AcDbLine
 10
85.4184930398
 20
155.0521606843
 30
0.0
 11
85.3072131463
 21
155.0819780419
 31
0.0
  0
LINE
  5
206
330
A9
100
AcDbEntity
  8
DV2_Layer18
  6
Continuous
 62
     7
 48
25.4
100
AcDbLine
 10
84.9008549496
 20
153.1203090318
 30
0.0
 11
85.4184930398
 21
155.0521606843
 31
0.0
  0
LINE
  5
207
330
A9
100
AcDbEntity
  8
DV2_Layer18
  6
Continuous
 62
     7
 48
25.4
100
AcDbLine
 10
85.3072131463
 20
155.0819780419
 30
0.0
 11
85.3581226756
 21
155.0683368747
 31
0.0
  0
ARC
  5
208
330
A9
100
AcDbEntity
  8
DV2_Layer18
  6
Continuous
 62
     7
 48
25.4
100
AcDbCircle
 10
84.5946687317
 20
152.9435323365
 30
0.0
 40
0.2500000000000226
100
AcDbArc
 50
345.0
 51
75.0
  0
LINE
  5
209
330
A9
100
AcDbEntity
  8
DV2_Layer18
  6
Continuous
 62
     7
 48
25.4
100
AcDbLine
 10
81.5201145575
 20
154.0261756896
 30
0.0
 11
84.9008549496
 21
153.1203090318
 31
0.0
  0
LINE
  5
20A
330
A9
100
AcDbEntity
  8
DV2_Layer18
  6
Continuous
 62
     7
 48
25.4
100
AcDbLine
 10
83.7685216272
 20
148.8943835418
 30
0.0
 11
84.8361501883
 21
152.8788275752
 31
0.0
  0
ARC
  5
20B
330
A9
100
AcDbEntity
  8
DV2_Layer18
  6
Continuous
 62
     7
 48
25.4
100
AcDbCircle
 10
78.8455471648
 20
131.4875185497
 30
0.0
 40
0.2499999999203902
100
AcDbArc
 50
255.0
 51
345.0
  0
LINE
  5
20C
330
A9
100
AcDbEntity
  8
DV2_Layer18
  6
Continuous
 62
     7
 48
25.4
100
AcDbLine
 10
79.0870286213
 20
131.4228137884
 30
0.0
 11
80.1546571824
 21
135.4072578219
 31
0.0
  0
LINE
  5
20D
330
A9
100
AcDbEntity
  8
DV2_Layer18
  6
Continuous
 62
     7
 48
25.4
100
AcDbLine
 10
78.631772496
 20
127.7919231456
 30
0.0
 11
74.2851062777
 21
128.9566088485
 31
0.0
  0
ARC
  5
20E
330
A9
100
AcDbEntity
  8
DV2_Layer18
  6
Continuous
 62
     7
 48
25.4
100
AcDbCircle
 10
77.8751412267
 20
133.6614692426
 30
0.0
 40
5.367515580080103
100
AcDbArc
 50
244.673400594
 51
265.326599406
  0
LINE
  5
20F
330
A9
100
AcDbEntity
  8
DV2_Layer18
  6
Continuous
 62
     7
 48
25.4
100
AcDbLine
 10
76.7739167904
 20
136.3131244797
 30
0.0
 11
80.1546571824
 21
135.4072578219
 31
0.0
  0
LINE
  5
210
330
A9
100
AcDbEntity
  8
DV2_Layer18
  6
Continuous
 62
     7
 48
25.4
100
AcDbLine
 10
75.5790386421
 20
128.809857508
 30
0.0
 11
76.1584602398
 21
130.9722883498
 31
0.0
  0
LINE
  5
211
330
A9
100
AcDbEntity
  8
DV2_Layer18
  6
Continuous
 62
     7
 48
25.4
100
AcDbLine
 10
74.987866632
 20
128.9740831255
 30
0.0
 11
75.5643774521
 21
131.125650797
 31
0.0
  0
LINE
  5
212
330
A9
100
AcDbEntity
  8
DV2_Layer18
  6
Continuous
 62
     7
 48
25.4
100
AcDbLine
 10
73.8830666553
 20
129.3586640588
 30
0.0
 11
74.4153021397
 21
131.3449939279
 31
0.0
  0
ARC
  5
213
330
A9
100
AcDbEntity
  8
DV2_Layer18
  6
Continuous
 62
     7
 48
25.4
100
AcDbCircle
 10
74.8770780747
 20
130.4350072091
 30
0.0
 40
1.465118862881688
100
AcDbArc
 50
227.2772796976
 51
274.3367005279
  0
LINE
  5
214
330
A9
100
AcDbEntity
  8
DV2_Layer18
  6
Continuous
 62
     7
 48
25.4
100
AcDbLine
 10
74.2851062777
 20
128.9566088485
 30
0.0
 11
73.8830666553
 21
129.3586640588
 31
0.0
  0
LINE
  5
215
330
A9
100
AcDbEntity
  8
DV2_Layer18
  6
Continuous
 62
     7
 48
25.4
100
AcDbLine
 10
85.4551798175
 20
155.4305590595
 30
0.0
 11
82.1951801538
 21
156.3040733367
 31
0.0
  0
LINE
  5
216
330
A9
100
AcDbEntity
  8
DV2_Layer18
  6
Continuous
 62
     7
 48
25.4
100
AcDbLine
 10
80.3877812352
 20
149.8002501996
 30
0.0
 11
83.7685216272
 21
148.8943835418
 31
0.0
  0
LINE
  5
217
330
A9
100
AcDbEntity
  8
DV2_Layer18
  6
Continuous
 62
     7
 48
25.4
100
AcDbLine
 10
85.4551798175
 20
155.4305590595
 30
0.0
 11
85.3581226756
 21
155.0683368747
 31
0.0
  0
LINE
  5
218
330
A9
100
AcDbEntity
  8
DV2_Layer18
  6
Continuous
 62
     7
 48
25.4
100
AcDbLine
 10
83.9356083501
 20
150.5428069824
 30
0.0
 11
84.4505288403
 21
152.4645164138
 31
0.0
  0
LINE
  5
219
330
A9
100
AcDbEntity
  8
DV2_Layer18
  6
Continuous
 62
     7
 48
25.4
100
AcDbLine
 10
81.5634152614
 20
151.1784342048
 30
0.0
 11
82.0783357517
 21
153.1001436362
 31
0.0
  0
LINE
  5
21A
330
A9
100
AcDbEntity
  8
DV2_Layer18
  6
Continuous
 62
     7
 48
25.4
100
AcDbLine
 10
82.6855818669
 20
156.1726705937
 30
0.0
 11
82.588524725
 21
155.8104484089
 31
0.0
  0
LINE
  5
21B
330
A9
100
AcDbEntity
  8
DV2_Layer18
  6
Continuous
 62
     7
 48
25.4
100
AcDbLine
 10
84.9647781044
 20
155.5619618025
 30
0.0
 11
84.8677209625
 21
155.1997396177
 31
0.0
  0
LINE
  5
21C
330
A9
100
AcDbEntity
  8
DV2_Layer18
  6
Continuous
 62
     7
 48
25.4
100
AcDbLine
 10
84.2561236086
 20
153.2930642739
 30
0.0
 11
84.7737616989
 21
155.2249159265
 31
0.0
  0
LINE
  5
21D
330
A9
100
AcDbEntity
  8
DV2_Layer18
  6
Continuous
 62
     7
 48
25.4
100
AcDbLine
 10
84.2646828707
 20
155.749551755
 30
0.0
 11
84.1676257288
 21
155.3873295702
 31
0.0
  0
LINE
  5
21E
330
A9
100
AcDbEntity
  8
DV2_Layer18
  6
Continuous
 62
     7
 48
25.4
100
AcDbLine
 10
84.1676257288
 20
155.3873295702
 30
0.0
 11
84.8677209625
 21
155.1997396177
 31
0.0
  0
LINE
  5
21F
330
A9
100
AcDbEntity
  8
DV2_Layer18
  6
Continuous
 62
     7
 48
25.4
100
AcDbLine
 10
83.3856771006
 20
155.9850806412
 30
0.0
 11
83.2886199587
 21
155.6228584564
 31
0.0
  0
LINE
  5
220
330
A9
100
AcDbEntity
  8
DV2_Layer18
  6
Continuous
 62
     7
 48
25.4
100
AcDbLine
 10
82.5830917812
 20
153.741351801
 30
0.0
 11
83.1007298714
 21
155.6732034535
 31
0.0
  0
ARC
  5
221
330
A9
100
AcDbEntity
  8
DV2_Layer18
  6
Continuous
 62
     7
 48
25.4
100
AcDbCircle
 10
81.3219338049
 20
151.243138966
 30
0.0
 40
0.25000000015809
100
AcDbArc
 50
255.0
 51
345.0
  0
LINE
  5
222
330
A9
100
AcDbEntity
  8
DV2_Layer18
  6
Continuous
 62
     7
 48
25.4
100
AcDbLine
 10
81.2572290436
 20
151.0016575095
 30
0.0
 11
81.2440683042
 21
151.0051839189
 31
0.0
  0
LINE
  5
223
330
A9
100
AcDbEntity
  8
DV2_Layer18
  6
Continuous
 62
     7
 48
25.4
100
AcDbLine
 10
83.8378777259
 20
153.4051329204
 30
0.0
 11
84.3555158161
 21
155.336984573
 31
0.0
  0
LINE
  5
224
330
A9
100
AcDbEntity
  8
DV2_Layer18
  6
Continuous
 62
     7
 48
25.4
100
AcDbLine
 10
82.0981230119
 20
155.9418511519
 30
0.0
 11
82.0377526477
 21
155.9580273422
 31
0.0
  0
LINE
  5
225
330
A9
100
AcDbEntity
  8
DV2_Layer18
  6
Continuous
 62
     7
 48
25.4
100
AcDbLine
 10
82.0377526477
 20
155.9580273422
 30
0.0
 11
81.5201145575
 21
154.0261756896
 31
0.0
  0
LINE
  5
226
330
A9
100
AcDbEntity
  8
DV2_Layer18
  6
Continuous
 62
     7
 48
25.4
100
AcDbLine
 10
85.3788655427
 20
155.5804169304
 30
0.0
 11
85.3465131621
 21
155.4596762021
 31
0.0
  0
LINE
  5
227
330
A9
100
AcDbEntity
  8
DV2_Layer18
  6
Continuous
 62
     7
 48
25.4
100
AcDbLine
 10
80.3877812352
 20
149.8002501996
 30
0.0
 11
81.4554097963
 21
153.7846942331
 31
0.0
  0
LINE
  5
228
330
A9
100
AcDbEntity
  8
DV2_Layer18
  6
Continuous
 62
     7
 48
25.4
100
AcDbLine
 10
82.1951801538
 20
156.3040733367
 30
0.0
 11
82.0981230119
 21
155.9418511519
 31
0.0
  0
ARC
  5
229
330
A9
100
AcDbEntity
  8
DV2_Layer18
  6
Continuous
 62
     7
 48
25.4
100
AcDbCircle
 10
82.8636721643
 20
150.8300314177
 30
0.0
 40
0.2499999999203705
100
AcDbArc
 50
255.0
 51
345.0
  0
ARC
  5
22A
330
A9
100
AcDbEntity
  8
DV2_Layer18
  6
Continuous
 62
     7
 48
25.4
100
AcDbCircle
 10
84.1958866443
 20
152.5327475845
 30
0.0
 40
0.2500000001580474
100
AcDbArc
 50
75.0
 51
165.0
  0
LINE
  5
22B
330
A9
100
AcDbEntity
  8
DV2_Layer18
  6
Continuous
 62
     7
 48
25.4
100
AcDbLine
 10
83.081075231
 20
153.0902794476
 30
0.0
 11
82.7188530461
 21
153.1873365895
 31
0.0
  0
ARC
  5
22C
330
A9
100
AcDbEntity
  8
DV2_Layer18
  6
Continuous
 62
     7
 48
25.4
100
AcDbCircle
 10
82.6541482849
 20
152.9458551329
 30
0.0
 40
0.2499999998805518
100
AcDbArc
 50
75.0
 51
165.0
  0
LINE
  5
22D
330
A9
100
AcDbEntity
  8
DV2_Layer18
  6
Continuous
 62
     7
 48
25.4
100
AcDbLine
 10
82.4367452182
 20
150.685607103
 30
0.0
 11
82.0745230334
 21
150.7826642449
 31
0.0
  0
LINE
  5
22E
330
A9
100
AcDbEntity
  8
DV2_Layer18
  6
Continuous
 62
     7
 48
25.4
100
AcDbLine
 10
82.2460896832
 20
156.2904321695
 30
0.0
 11
82.1490325412
 21
155.9282099846
 31
0.0
  0
LINE
  5
22F
330
A9
100
AcDbEntity
  8
DV2_Layer18
  6
Continuous
 62
     7
 48
25.4
100
AcDbLine
 10
82.588524725
 20
155.8104484089
 30
0.0
 11
83.2886199587
 21
155.6228584564
 31
0.0
  0
ARC
  5
230
330
A9
100
AcDbEntity
  8
DV2_Layer18
  6
Continuous
 62
     7
 48
25.4
100
AcDbCircle
 10
84.2090473837
 20
152.529221175
 30
0.0
 40
0.249999999880592
100
AcDbArc
 50
345.0
 51
75.0
  0
LINE
  5
231
330
A9
100
AcDbEntity
  8
DV2_Layer18
  6
Continuous
 62
     7
 48
25.4
100
AcDbLine
 10
82.1648338244
 20
153.8534236827
 30
0.0
 11
82.6824719146
 21
155.7852753353
 31
0.0
  0
LINE
  5
232
330
A9
100
AcDbEntity
  8
DV2_Layer18
  6
Continuous
 62
     7
 48
25.4
100
AcDbLine
 10
82.0981230119
 20
155.9418511519
 30
0.0
 11
82.1490325412
 21
155.9282099846
 31
0.0
  0
LINE
  5
233
330
A9
100
AcDbEntity
  8
DV2_Layer18
  6
Continuous
 62
     7
 48
25.4
100
AcDbLine
 10
81.8977463381
 20
151.0888504628
 30
0.0
 11
82.4126668283
 21
153.0105598942
 31
0.0
  0
ARC
  5
234
330
A9
100
AcDbEntity
  8
DV2_Layer18
  6
Continuous
 62
     7
 48
25.4
100
AcDbCircle
 10
75.7211375403
 20
125.6226180455
 30
0.0
 40
5.367515580605579
100
AcDbArc
 50
64.673400595
 51
85.326599405
  0
LINE
  5
235
330
A9
100
AcDbEntity
  8
DV2_Layer18
  6
Continuous
 62
     7
 48
25.4
100
AcDbLine
 10
78.6601016752
 20
131.2783894738
 30
0.0
 11
78.4659873914
 21
130.553945104
 31
0.0
  0
LINE
  5
236
330
A9
100
AcDbEntity
  8
DV2_Layer18
  6
Continuous
 62
     7
 48
25.4
100
AcDbLine
 10
78.5306921526
 20
130.7954265606
 30
0.0
 11
78.6601016752
 21
131.2783894738
 31
0.0
  0
LINE
  5
237
330
A9
100
AcDbEntity
  8
DV2_Layer18
  6
Continuous
 62
     7
 48
25.4
100
AcDbLine
 10
74.9645062711
 20
131.4921641425
 30
0.0
 11
79.3111724894
 21
130.3274784396
 31
0.0
  0
ARC
  5
238
330
A9
100
AcDbEntity
  8
DV2_Layer18
  6
Continuous
 62
     7
 48
25.4
100
AcDbCircle
 10
74.7379697053
 20
129.9158477069
 30
0.0
 40
1.465118862321266
100
AcDbArc
 50
55.6632994644
 51
102.7227203024
  0
LINE
  5
239
330
A9
100
AcDbEntity
  8
DV2_Layer18
  6
Continuous
 62
     7
 48
25.4
100
AcDbLine
 10
74.4153021397
 20
131.3449939279
 30
0.0
 11
74.9645062711
 21
131.4921641425
 31
0.0
  0
LINE
  5
23A
330
A9
100
AcDbEntity
  8
DV2_Layer18
  6
Continuous
 62
     7
 48
25.4
100
AcDbLine
 10
75.8096913691
 20
131.2656974781
 30
0.0
 11
76.0038056529
 21
131.9901418478
 31
0.0
  0
LINE
  5
23B
330
A9
100
AcDbEntity
  8
DV2_Layer18
  6
Continuous
 62
     7
 48
25.4
100
AcDbLine
 10
78.7808424035
 20
131.2460370931
 30
0.0
 11
77.331953664
 21
131.6342656608
 31
0.0
  0
LINE
  5
23C
330
A9
100
AcDbEntity
  8
DV2_Layer18
  6
Continuous
 62
     7
 48
25.4
100
AcDbLine
 10
77.8873610142
 20
131.4854447098
 30
0.0
 11
78.6601016752
 21
131.2783894738
 31
0.0
  0
LINE
  5
23D
330
A9
100
AcDbEntity
  8
DV2_Layer18
  6
Continuous
 62
     7
 48
25.4
100
AcDbLine
 10
77.331953664
 20
131.6342656608
 30
0.0
 11
75.8830649245
 21
132.0224942285
 31
0.0
  0
ARC
  5
23E
330
A9
100
AcDbEntity
  8
DV2_Layer18
  6
Continuous
 62
     7
 48
25.4
100
AcDbCircle
 10
78.7187448619
 20
132.0391332146
 30
0.0
 40
0.2499999999203874
100
AcDbArc
 50
255.0
 51
345.0
  0
LINE
  5
23F
330
A9
100
AcDbEntity
  8
DV2_Layer18
  6
Continuous
 62
     7
 48
25.4
100
AcDbLine
 10
78.6408793612
 20
131.8011781675
 30
0.0
 11
78.6540401006
 21
131.797651758
 31
0.0
  0
ARC
  5
240
330
A9
100
AcDbEntity
  8
DV2_Layer18
  6
Continuous
 62
     7
 48
25.4
100
AcDbCircle
 10
78.7055841225
 20
132.042659624
 30
0.0
 40
0.2500000001053639
100
AcDbArc
 50
165.0
 51
255.0
  0
ARC
  5
241
330
A9
100
AcDbEntity
  8
DV2_Layer18
  6
Continuous
 62
     7
 48
25.4
100
AcDbCircle
 10
75.9477696858
 20
132.263975685
 30
0.0
 40
0.2499999998805977
100
AcDbArc
 50
165.0
 51
255.0
  0
ARC
  5
242
330
A9
100
AcDbEntity
  8
DV2_Layer18
  6
Continuous
 62
     7
 48
25.4
100
AcDbCircle
 10
77.8882901327
 20
132.2616528886
 30
0.0
 40
0.2499999999204376
100
AcDbArc
 50
255.0
 51
345.0
  0
LINE
  5
243
330
A9
100
AcDbEntity
  8
DV2_Layer18
  6
Continuous
 62
     7
 48
25.4
100
AcDbLine
 10
77.4613631866
 20
132.1172285739
 30
0.0
 11
77.8235853714
 21
132.020171432
 31
0.0
  0
LINE
  5
244
330
A9
100
AcDbEntity
  8
DV2_Layer18
  6
Continuous
 62
     7
 48
25.4
100
AcDbLine
 10
78.9602263184
 20
131.9744284533
 30
0.0
 11
79.4751468087
 21
133.8961378847
 31
0.0
  0
LINE
  5
245
330
A9
100
AcDbEntity
  8
DV2_Layer18
  6
Continuous
 62
     7
 48
25.4
100
AcDbLine
 10
77.4613631866
 20
132.1172285739
 30
0.0
 11
77.0991410017
 21
132.2142857158
 31
0.0
  0
LINE
  5
246
330
A9
100
AcDbEntity
  8
DV2_Layer18
  6
Continuous
 62
     7
 48
25.4
100
AcDbLine
 10
78.4641026659
 20
132.1073643853
 30
0.0
 11
78.9790231561
 21
134.0290738167
 31
0.0
  0
ARC
  5
247
330
A9
100
AcDbEntity
  8
DV2_Layer18
  6
Continuous
 62
     7
 48
25.4
100
AcDbCircle
 10
77.163845763
 20
132.4557671724
 30
0.0
 40
0.2499999998805667
100
AcDbArc
 50
165.0
 51
255.0
  0
LINE
  5
248
330
A9
100
AcDbEntity
  8
DV2_Layer18
  6
Continuous
 62
     7
 48
25.4
100
AcDbLine
 10
78.1297715893
 20
132.1969481273
 30
0.0
 11
78.6446920795
 21
134.1186575587
 31
0.0
  0
LINE
  5
249
330
A9
100
AcDbEntity
  8
DV2_Layer18
  6
Continuous
 62
     7
 48
25.4
100
AcDbLine
 10
75.7062882293
 20
132.3286804463
 30
0.0
 11
76.7739167904
 21
136.3131244797
 31
0.0
  0
ARC
  5
24A
330
A9
100
AcDbEntity
  8
DV2_Layer18
  6
Continuous
 62
     7
 48
25.4
100
AcDbCircle
 10
76.3465517732
 20
132.6747604369
 30
0.0
 40
0.2500000001580869
100
AcDbArc
 50
255.0
 51
345.0
  0
LINE
  5
24B
330
A9
100
AcDbEntity
  8
DV2_Layer18
  6
Continuous
 62
     7
 48
25.4
100
AcDbLine
 10
76.281847012
 20
132.4332789804
 30
0.0
 11
76.2686862726
 21
132.4368053899
 31
0.0
  0
ARC
  5
24C
330
A9
100
AcDbEntity
  8
DV2_Layer18
  6
Continuous
 62
     7
 48
25.4
100
AcDbCircle
 10
76.3333910339
 20
132.6782868464
 30
0.0
 40
0.2499999998805952
100
AcDbArc
 50
165.0
 51
255.0
  0
LINE
  5
24D
330
A9
100
AcDbEntity
  8
DV2_Layer18
  6
Continuous
 62
     7
 48
25.4
100
AcDbLine
 10
76.9223643064
 20
132.5204719337
 30
0.0
 11
77.4372847967
 21
134.4421813651
 31
0.0
  0
LINE
  5
24E
330
A9
100
AcDbEntity
  8
DV2_Layer18
  6
Continuous
 62
     7
 48
25.4
100
AcDbLine
 10
76.5880332298
 20
132.6100556757
 30
0.0
 11
77.10295372
 21
134.5317651071
 31
0.0
  0
LINE
  5
24F
330
A9
100
AcDbEntity
  8
DV2_Layer18
  6
Continuous
 62
     7
 48
25.4
100
AcDbLine
 10
76.0919095773
 20
132.7429916077
 30
0.0
 11
76.6068300675
 21
134.6647010391
 31
0.0
  0
ARC
  5
250
330
A9
100
AcDbEntity
  8
DV2_Layer18
  6
Continuous
 62
     7
 48
25.4
100
AcDbCircle
 10
79.2336653521
 20
133.960842646
 30
0.0
 40
0.2499999998805803
100
AcDbArc
 50
345.0
 51
75.0
  0
ARC
  5
251
330
A9
100
AcDbEntity
  8
DV2_Layer18
  6
Continuous
 62
     7
 48
25.4
100
AcDbCircle
 10
79.2205046127
 20
133.9643690554
 30
0.0
 40
0.2500000001580685
100
AcDbArc
 50
75.0
 51
165.0
  0
ARC
  5
252
330
A9
100
AcDbEntity
  8
DV2_Layer18
  6
Continuous
 62
     7
 48
25.4
100
AcDbCircle
 10
78.403210623
 20
134.18336232
 30
0.0
 40
0.2499999999204141
100
AcDbArc
 50
345.0
 51
75.0
  0
LINE
  5
253
330
A9
100
AcDbEntity
  8
DV2_Layer18
  6
Continuous
 62
     7
 48
25.4
100
AcDbLine
 10
79.285209374
 20
134.205850512
 30
0.0
 11
79.2983701134
 21
134.2023241025
 31
0.0
  0
ARC
  5
254
330
A9
100
AcDbEntity
  8
DV2_Layer18
  6
Continuous
 62
     7
 48
25.4
100
AcDbCircle
 10
77.6787662532
 20
134.3774766038
 30
0.0
 40
0.2499999998805522
100
AcDbArc
 50
75.0
 51
165.0
  0
LINE
  5
255
330
A9
100
AcDbEntity
  8
DV2_Layer18
  6
Continuous
 62
     7
 48
25.4
100
AcDbLine
 10
78.1056931994
 20
134.5219009185
 30
0.0
 11
78.4679153842
 21
134.4248437766
 31
0.0
  0
ARC
  5
256
330
A9
100
AcDbEntity
  8
DV2_Layer18
  6
Continuous
 62
     7
 48
25.4
100
AcDbCircle
 10
76.8614722635
 20
134.5964698683
 30
0.0
 40
0.2500000002107474
100
AcDbArc
 50
345.0
 51
75.0
  0
LINE
  5
257
330
A9
100
AcDbEntity
  8
DV2_Layer18
  6
Continuous
 62
     7
 48
25.4
100
AcDbLine
 10
78.1056931994
 20
134.5219009185
 30
0.0
 11
77.7434710145
 21
134.6189580604
 31
0.0
  0
ARC
  5
258
330
A9
100
AcDbEntity
  8
DV2_Layer18
  6
Continuous
 62
     7
 48
25.4
100
AcDbCircle
 10
76.8483115241
 20
134.5999962778
 30
0.0
 40
0.2499999998407495
100
AcDbArc
 50
75.0
 51
165.0
  0
LINE
  5
259
330
A9
100
AcDbEntity
  8
DV2_Layer18
  6
Continuous
 62
     7
 48
25.4
100
AcDbLine
 10
76.9261770247
 20
134.8379513249
 30
0.0
 11
76.9130162854
 21
134.8414777344
 31
0.0
  0
LWPOLYLINE
  5
25A
330
A9
100
AcDbEntity
  8
DV2_Layer18
  6
Continuous
 62
     7
 48
25.4
100
AcDbPolyline
 90
        2
 70
     0
 43
0.0
 10
79.618754865
 20
138.2412934459
 10
79.3215598368
 20
138.6703375598
  0
LWPOLYLINE
  5
25B
330
A9
100
AcDbEntity
  8
DV2_Layer18
  6
Continuous
 62
     7
 48
25.4
100
AcDbPolyline
 90
        2
 70
     0
 43
0.0
 10
79.805470221
 20
138.191263217
 10
79.5082751928
 20
138.620307331
  0
LWPOLYLINE
  5
25C
330
A9
100
AcDbEntity
  8
DV2_Layer18
  6
Continuous
 62
     7
 48
25.4
100
AcDbPolyline
 90
        2
 70
     0
 43
0.0
 10
79.6934951298
 20
138.5706777984
 10
79.3297140033
 20
138.3187417114
  0
LWPOLYLINE
  5
25D
330
A9
100
AcDbEntity
  8
DV2_Layer18
  6
Continuous
 62
     7
 48
25.4
100
AcDbPolyline
 90
        2
 70
     0
 43
0.0
 10
79.992185577
 20
138.1412329882
 10
79.6949905488
 20
138.5702771021
  0
LWPOLYLINE
  5
25E
330
A9
100
AcDbEntity
  8
DV2_Layer18
  6
Continuous
 62
     7
 48
25.4
100
AcDbPolyline
 90
        2
 70
     0
 43
0.0
 10
79.8517981778
 20
138.5282606246
 10
79.4880170514
 20
138.2763245375
  0
LWPOLYLINE
  5
25F
330
A9
100
AcDbEntity
  8
DV2_Layer18
  6
Continuous
 62
     7
 48
25.4
100
AcDbPolyline
 90
        2
 70
     0
 43
0.0
 10
80.0101012258
 20
138.4858434507
 10
79.6463200994
 20
138.2339073636
  0
LWPOLYLINE
  5
260
330
A9
100
AcDbEntity
  8
DV2_Layer18
  6
Continuous
 62
     7
 48
25.4
100
AcDbPolyline
 90
        2
 70
     0
 43
0.0
 10
80.0401253584
 20
138.2915454226
 10
79.8817059048
 20
138.5202468733
  0
LWPOLYLINE
  5
261
330
A9
100
AcDbEntity
  8
DV2_Layer18
  6
Continuous
 62
     7
 48
25.4
100
AcDbPolyline
 90
        2
 70
     0
 43
0.0
 10
80.0825390682
 20
138.4498355425
 10
80.0684212608
 20
138.4702166444
  0
LWPOLYLINE
  5
262
330
A9
100
AcDbEntity
  8
DV2_Layer18
  6
Continuous
 62
     7
 48
25.4
100
AcDbPolyline
 90
        2
 70
     0
 43
0.0
 10
80.0608660828
 20
138.3689508599
 10
79.8046231474
 20
138.1914901897
  0
LWPOLYLINE
  5
263
330
A9
100
AcDbEntity
  8
DV2_Layer18
  6
Continuous
 62
     7
 48
25.4
100
AcDbPolyline
 90
        2
 70
     0
 43
0.0
 10
80.0108415378
 20
138.1822567161
 10
79.9629261954
 20
138.1490730158
  0
LINE
  5
264
330
A9
100
AcDbEntity
  8
DV2_Layer18
  6
Continuous
 62
     7
 48
25.4
100
AcDbLine
 10
83.1051536209
 20
150.7653266564
 30
0.0
 11
83.6200741111
 21
152.6870360878
 31
0.0
  0
LWPOLYLINE
  5
265
330
A9
100
AcDbEntity
  8
DV2_Layer18
  6
Continuous
 62
     7
 48
25.4
100
AcDbPolyline
 90
        2
 70
     0
 43
0.0
 10
79.1476041024
 20
139.3605088037
 10
79.0401174766
 20
139.5156813327
  0
LWPOLYLINE
  5
266
330
A9
100
AcDbEntity
  8
DV2_Layer18
  6
Continuous
 62
     7
 48
25.4
100
AcDbPolyline
 90
        2
 70
     0
 43
0.0
 10
80.3534719668
 20
141.6125890021
 10
80.2574789057
 20
141.5461091481
  0
LWPOLYLINE
  5
267
330
A9
100
AcDbEntity
  8
DV2_Layer18
  6
Continuous
 62
     7
 48
25.4
100
AcDbPolyline
 90
        2
 70
     0
 43
0.0
 10
79.9500002178
 20
139.9647177681
 10
79.5066921799
 20
139.6577054348
  0
LWPOLYLINE
  5
268
330
A9
100
AcDbEntity
  8
DV2_Layer18
  6
Continuous
 62
     7
 48
25.4
100
AcDbPolyline
 90
        2
 70
     0
 43
0.0
 10
79.8685632637
 20
139.6042192881
 10
79.5754214394
 20
139.4012043464
  0
LWPOLYLINE
  5
269
330
A9
100
AcDbEntity
  8
DV2_Layer18
  6
Continuous
 62
     7
 48
25.4
100
AcDbPolyline
 90
        2
 70
     0
 43
0.0
 10
79.8185387186
 20
139.4175251443
 10
79.6097860692
 20
139.2729538023
  0
LWPOLYLINE
  5
26A
330
A9
100
AcDbEntity
  8
DV2_Layer18
  6
Continuous
 62
     7
 48
25.4
100
AcDbPolyline
 90
        2
 70
     0
 43
0.0
 10
80.3716317823
 20
141.5448156481
 10
79.9984267603
 20
142.0835912088
  0
LWPOLYLINE
  5
26B
330
A9
100
AcDbEntity
  8
DV2_Layer18
  6
Continuous
 62
     7
 48
25.4
100
AcDbPolyline
 90
        2
 70
     0
 43
0.0
 10
80.2757045398
 20
141.9028209909
 10
80.0882599645
 20
142.1734244131
  0
LWPOLYLINE
  5
26C
330
A9
100
AcDbEntity
  8
DV2_Layer18
  6
Continuous
 62
     7
 48
25.4
100
AcDbPolyline
 90
        2
 70
     0
 43
0.0
 10
80.2160134478
 20
142.1255911789
 10
79.6449095862
 20
141.7300740348
  0
LWPOLYLINE
  5
26D
330
A9
100
AcDbEntity
  8
DV2_Layer18
  6
Continuous
 62
     7
 48
25.4
100
AcDbPolyline
 90
        2
 70
     0
 43
0.0
 10
80.319107337
 20
141.7408395463
 10
79.8159236581
 20
141.3923604254
  0
LWPOLYLINE
  5
26E
330
A9
100
AcDbEntity
  8
DV2_Layer18
  6
Continuous
 62
     7
 48
25.4
100
AcDbPolyline
 90
        2
 70
     0
 43
0.0
 10
80.2098324557
 20
141.5588759759
 10
79.908593556
 20
141.9937580046
  0
LWPOLYLINE
  5
26F
330
A9
100
AcDbEntity
  8
DV2_Layer18
  6
Continuous
 62
     7
 48
25.4
100
AcDbPolyline
 90
        2
 70
     0
 43
0.0
 10
80.2503780776
 20
141.9973406347
 10
79.7825697616
 20
141.6733606697
  0
LWPOLYLINE
  5
270
330
A9
100
AcDbEntity
  8
DV2_Layer18
  6
Continuous
 62
     7
 48
25.4
100
AcDbPolyline
 90
        2
 70
     0
 43
0.0
 10
80.2847427073
 20
141.8690900905
 10
79.8659482032
 20
141.5790545692
  0
LWPOLYLINE
  5
271
330
A9
100
AcDbEntity
  8
DV2_Layer18
  6
Continuous
 62
     7
 48
25.4
100
AcDbPolyline
 90
        2
 70
     0
 43
0.0
 10
80.1021818613
 20
141.4947647576
 10
79.8187603517
 20
141.9039248003
  0
LWPOLYLINE
  5
272
330
A9
100
AcDbEntity
  8
DV2_Layer18
  6
Continuous
 62
     7
 48
25.4
100
AcDbPolyline
 90
        2
 70
     0
 43
0.0
 10
79.6496863876
 20
141.7089666625
 10
79.6390939432
 20
141.7242583918
  0
LWPOLYLINE
  5
273
330
A9
100
AcDbEntity
  8
DV2_Layer18
  6
Continuous
 62
     7
 48
25.4
100
AcDbPolyline
 90
        2
 70
     0
 43
0.0
 10
79.8364017437
 20
141.6589364336
 10
79.7289271475
 20
141.8140915961
  0
ARC
  5
274
330
A9
100
AcDbEntity
  8
DV2_Layer18
  6
Continuous
 62
     7
 48
25.4
100
AcDbCircle
 10
81.6968912528
 20
153.7199894718
 30
0.0
 40
0.2499999999999498
100
AcDbArc
 50
75.0
 51
165.0
  0
LINE
  5
275
330
A9
100
AcDbEntity
  8
DV2_Layer18
  6
Continuous
 62
     7
 48
25.4
100
AcDbLine
 10
83.4394846975
 20
150.6757429144
 30
0.0
 11
83.9544051878
 21
152.5974523458
 31
0.0
  0
LINE
  5
276
330
A9
100
AcDbEntity
  8
DV2_Layer18
  6
Continuous
 62
     7
 48
25.4
100
AcDbLine
 10
83.6162613928
 20
150.3695566966
 30
0.0
 11
83.6294221322
 21
150.3660302871
 31
0.0
  0
ARC
  5
277
330
A9
100
AcDbEntity
  8
DV2_Layer18
  6
Continuous
 62
     7
 48
25.4
100
AcDbCircle
 10
83.6941268935
 20
150.6075117436
 30
0.0
 40
0.2499999999204063
100
AcDbArc
 50
255.0
 51
345.0
  0
ARC
  5
278
330
A9
100
AcDbEntity
  8
DV2_Layer18
  6
Continuous
 62
     7
 48
25.4
100
AcDbCircle
 10
81.8368542951
 20
153.1648483974
 30
0.0
 40
0.2500000002107934
100
AcDbArc
 50
345.0
 51
75.0
  0
ARC
  5
279
330
A9
100
AcDbEntity
  8
DV2_Layer18
  6
Continuous
 62
     7
 48
25.4
100
AcDbCircle
 10
81.8236935557
 20
153.1683748069
 30
0.0
 40
0.2499999998407747
100
AcDbArc
 50
75.0
 51
165.0
  0
LINE
  5
27A
330
A9
100
AcDbEntity
  8
DV2_Layer18
  6
Continuous
 62
     7
 48
25.4
100
AcDbLine
 10
81.9015590564
 20
153.406329854
 30
0.0
 11
81.888398317
 21
153.4098562635
 31
0.0
  0
LINE
  5
27B
330
A9
100
AcDbEntity
  8
DV2_Layer18
  6
Continuous
 62
     7
 48
25.4
100
AcDbLine
 10
82.4367452182
 20
150.685607103
 30
0.0
 11
82.7989674031
 21
150.5885499611
 31
0.0
  0
LINE
  5
27C
330
A9
100
AcDbEntity
  8
DV2_Layer18
  6
Continuous
 62
     7
 48
25.4
100
AcDbLine
 10
82.3361991899
 20
156.3956969225
 30
0.0
 11
82.3038468093
 21
156.2749561942
 31
0.0
  0
LINE
  5
27D
330
A9
100
AcDbEntity
  8
DV2_Layer18
  6
Continuous
 62
     7
 48
25.4
100
AcDbLine
 10
84.8677209625
 20
155.1997396177
 30
0.0
 11
84.3555158161
 21
155.336984573
 31
0.0
  0
LWPOLYLINE
  5
27E
330
A9
100
AcDbEntity
  8
DV2_Layer18
  6
Continuous
 62
     7
 48
25.4
100
AcDbPolyline
 90
        2
 70
     0
 43
0.0
 10
79.7476214209
 20
139.1528581861
 10
79.5753124201
 20
139.4016112121
  0
LWPOLYLINE
  5
27F
330
A9
100
AcDbEntity
  8
DV2_Layer18
  6
Continuous
 62
     7
 48
25.4
100
AcDbPolyline
 90
        2
 70
     0
 43
0.0
 10
79.7685141736
 20
139.2308310005
 10
79.6441506989
 20
139.1447032581
  0
LWPOLYLINE
  5
280
330
A9
100
AcDbEntity
  8
DV2_Layer18
  6
Continuous
 62
     7
 48
25.4
100
AcDbPolyline
 90
        2
 70
     0
 43
0.0
 10
79.7184896285
 20
139.0441368568
 10
79.6785153287
 20
139.0164527139
  0
LWPOLYLINE
  5
281
330
A9
100
AcDbEntity
  8
DV2_Layer18
  6
Continuous
 62
     7
 48
25.4
100
AcDbPolyline
 90
        2
 70
     0
 43
0.0
 10
79.7052077111
 20
138.9945680662
 10
79.6712396626
 20
139.0436058693
  0
ARC
  5
282
330
A9
100
AcDbEntity
  8
DV2_Layer18
  6
Continuous
 62
     7
 48
25.4
100
AcDbCircle
 10
82.1392277946
 20
151.0241457015
 30
0.0
 40
0.2499999998805787
100
AcDbArc
 50
165.0
 51
255.0
  0
ARC
  5
283
330
A9
100
AcDbEntity
  8
DV2_Layer18
  6
Continuous
 62
     7
 48
25.4
100
AcDbCircle
 10
81.3087730655
 20
151.2466653755
 30
0.0
 40
0.2499999998805518
100
AcDbArc
 50
165.0
 51
255.0
  0
ARC
  5
284
330
A9
100
AcDbEntity
  8
DV2_Layer18
  6
Continuous
 62
     7
 48
25.4
100
AcDbCircle
 10
83.6809661541
 20
150.6110381531
 30
0.0
 40
0.2500000001053778
100
AcDbArc
 50
165.0
 51
255.0
  0
LINE
  5
285
330
A9
100
AcDbEntity
  8
DV2_Layer18
  6
Continuous
 62
     7
 48
25.4
100
AcDbLine
 10
81.0672916089
 20
151.3113701368
 30
0.0
 11
81.5822120991
 21
153.2330795682
 31
0.0
  0
LINE
  5
286
330
A9
100
AcDbEntity
  8
DV2_Layer18
  6
Continuous
 62
     7
 48
25.4
100
AcDbLine
 10
84.2605914056
 20
152.7742290411
 30
0.0
 11
84.273752145
 21
152.7707026316
 31
0.0
  0
ARC
  5
287
330
A9
100
AcDbEntity
  8
DV2_Layer18
  6
Continuous
 62
     7
 48
25.4
100
AcDbCircle
 10
83.3785926546
 20
152.7517408491
 30
0.0
 40
0.2499999999203839
100
AcDbArc
 50
345.0
 51
75.0
  0
LINE
  5
288
330
A9
100
AcDbEntity
  8
DV2_Layer18
  6
Continuous
 62
     7
 48
25.4
100
AcDbLine
 10
83.081075231
 20
153.0902794476
 30
0.0
 11
83.4432974159
 21
152.9932223056
 31
0.0
  0
LWPOLYLINE
  5
289
330
A9
100
AcDbEntity
  8
DV2_Layer18
  6
Continuous
 62
     7
 48
25.4
100
AcDbPolyline
 90
        5
 70
     0
 43
0.0
 10
78.4333783145
 20
138.9083250815
 10
80.0866886299
 20
138.4653219176
 10
79.9993358934
 20
138.1393170667
 10
78.3460255779
 20
138.5823202305
 10
78.4333783145
 20
138.9083250815
  0
LWPOLYLINE
  5
28A
330
A9
100
AcDbEntity
  8
DV2_Layer18
  6
Continuous
 62
     7
 48
25.4
100
AcDbPolyline
 90
        2
 70
     0
 43
0.0
 10
78.498462729
 20
138.541474819
 10
78.3806527518
 20
138.7115506026
  0
LWPOLYLINE
  5
28B
330
A9
100
AcDbEntity
  8
DV2_Layer18
  6
Continuous
 62
     7
 48
25.4
100
AcDbPolyline
 90
        2
 70
     0
 43
0.0
 10
79.8812709584
 20
140.2212188565
 10
79.0805839409
 20
139.6667042336
  0
LWPOLYLINE
  5
28C
330
A9
100
AcDbEntity
  8
DV2_Layer18
  6
Continuous
 62
     7
 48
25.4
100
AcDbPolyline
 90
        2
 70
     0
 43
0.0
 10
78.685178085
 20
138.4914445902
 10
78.4230664616
 20
138.8698407225
  0
LWPOLYLINE
  5
28D
330
A9
100
AcDbEntity
  8
DV2_Layer18
  6
Continuous
 62
     7
 48
25.4
100
AcDbPolyline
 90
        2
 70
     0
 43
0.0
 10
78.7436768416
 20
138.8251808417
 10
78.3798957152
 20
138.5732447546
  0
LWPOLYLINE
  5
28E
330
A9
100
AcDbEntity
  8
DV2_Layer18
  6
Continuous
 62
     7
 48
25.4
100
AcDbPolyline
 90
        2
 70
     0
 43
0.0
 10
79.9156355881
 20
140.0929683123
 10
79.0305593959
 20
139.4800100899
  0
LWPOLYLINE
  5
28F
330
A9
100
AcDbEntity
  8
DV2_Layer18
  6
Continuous
 62
     7
 48
25.4
100
AcDbPolyline
 90
        2
 70
     0
 43
0.0
 10
78.5853737936
 20
138.8675980156
 10
78.3853469923
 20
138.7290697469
  0
LWPOLYLINE
  5
290
330
A9
100
AcDbEntity
  8
DV2_Layer18
  6
Continuous
 62
     7
 48
25.4
100
AcDbPolyline
 90
        2
 70
     0
 43
0.0
 10
78.871893441
 20
138.4414143613
 10
78.5746984128
 20
138.8704584753
  0
LWPOLYLINE
  5
291
330
A9
100
AcDbEntity
  8
DV2_Layer18
  6
Continuous
 62
     7
 48
25.4
100
AcDbPolyline
 90
        2
 70
     0
 43
0.0
 10
78.9019798897
 20
138.7827636678
 10
78.5381987632
 20
138.5308275807
  0
LWPOLYLINE
  5
292
330
A9
100
AcDbEntity
  8
DV2_Layer18
  6
Continuous
 62
     7
 48
25.4
100
AcDbPolyline
 90
        2
 70
     0
 43
0.0
 10
79.0602829377
 20
138.740346494
 10
78.6965018112
 20
138.4884104069
  0
LWPOLYLINE
  5
293
330
A9
100
AcDbEntity
  8
DV2_Layer18
  6
Continuous
 62
     7
 48
25.4
100
AcDbPolyline
 90
        2
 70
     0
 43
0.0
 10
79.245324153
 20
138.3413539036
 10
78.9481291248
 20
138.7703980176
  0
LWPOLYLINE
  5
294
330
A9
100
AcDbEntity
  8
DV2_Layer18
  6
Continuous
 62
     7
 48
25.4
100
AcDbPolyline
 90
        2
 70
     0
 43
0.0
 10
79.058608797
 20
138.3913841325
 10
78.7614137688
 20
138.8204282464
  0
LWPOLYLINE
  5
295
330
A9
100
AcDbEntity
  8
DV2_Layer18
  6
Continuous
 62
     7
 48
25.4
100
AcDbPolyline
 90
        2
 70
     0
 43
0.0
 10
79.2185859857
 20
138.6979293201
 10
78.8548048592
 20
138.445993233
  0
LWPOLYLINE
  5
296
330
A9
100
AcDbEntity
  8
DV2_Layer18
  6
Continuous
 62
     7
 48
25.4
100
AcDbPolyline
 90
        2
 70
     0
 43
0.0
 10
79.3053874085
 20
139.5182921098
 10
78.9805348508
 20
139.2933159461
  0
LWPOLYLINE
  5
297
330
A9
100
AcDbEntity
  8
DV2_Layer18
  6
Continuous
 62
     7
 48
25.4
100
AcDbPolyline
 90
        2
 70
     0
 43
0.0
 10
78.9679376939
 20
139.1808423952
 10
78.955290057
 20
139.1991010929
  0
LWPOLYLINE
  5
298
330
A9
100
AcDbEntity
  8
DV2_Layer18
  6
Continuous
 62
     7
 48
25.4
100
AcDbPolyline
 90
        2
 70
     0
 43
0.0
 10
79.0577708982
 20
139.2706755995
 10
78.9977037668
 20
139.3573912128
  0
LWPOLYLINE
  5
299
330
A9
100
AcDbEntity
  8
DV2_Layer18
  6
Continuous
 62
     7
 48
25.4
100
AcDbPolyline
 90
        2
 70
     0
 43
0.0
 10
79.9185878087
 20
139.7909134319
 10
79.5410568097
 20
139.5294548906
  0
LWPOLYLINE
  5
29A
330
A9
100
AcDbEntity
  8
DV2_Layer18
  6
Continuous
 62
     7
 48
25.4
100
AcDbPolyline
 90
        2
 70
     0
 43
0.0
 10
80.0597681515
 20
141.3364746377
 10
79.8731409107
 20
141.6058981191
  0
LWPOLYLINE
  5
29B
330
A9
100
AcDbEntity
  8
DV2_Layer18
  6
Continuous
 62
     7
 48
25.4
100
AcDbPolyline
 90
        2
 70
     0
 43
0.0
 10
80.0836899026
 20
141.4257518281
 10
79.765899113
 20
141.2056662816
  0
LWPOLYLINE
  5
29C
330
A9
100
AcDbEntity
  8
DV2_Layer18
  6
Continuous
 62
     7
 48
25.4
100
AcDbPolyline
 90
        2
 70
     0
 43
0.0
 10
80.0173544417
 20
141.1781845177
 10
79.8307272009
 20
141.4476079992
  0
LWPOLYLINE
  5
29D
330
A9
100
AcDbEntity
  8
DV2_Layer18
  6
Continuous
 62
     7
 48
25.4
100
AcDbPolyline
 90
        2
 70
     0
 43
0.0
 10
79.9749407319
 20
141.0198943978
 10
79.7883134911
 20
141.2893178793
  0
LWPOLYLINE
  5
29E
330
A9
100
AcDbEntity
  8
DV2_Layer18
  6
Continuous
 62
     7
 48
25.4
100
AcDbPolyline
 90
        2
 70
     0
 43
0.0
 10
80.0336653576
 20
141.2390576844
 10
79.715874568
 20
141.0189721378
  0
LWPOLYLINE
  5
29F
330
A9
100
AcDbEntity
  8
DV2_Layer18
  6
Continuous
 62
     7
 48
25.4
100
AcDbPolyline
 90
        2
 70
     0
 43
0.0
 10
79.9325270221
 20
140.8616042779
 10
79.7458997813
 20
141.1310277594
  0
LWPOLYLINE
  5
2A0
330
A9
100
AcDbEntity
  8
DV2_Layer18
  6
Continuous
 62
     7
 48
25.4
100
AcDbPolyline
 90
        2
 70
     0
 43
0.0
 10
79.9836408125
 20
141.0523635406
 10
79.6658500229
 20
140.8322779941
  0
LWPOLYLINE
  5
2A1
330
A9
100
AcDbEntity
  8
DV2_Layer18
  6
Continuous
 62
     7
 48
25.4
100
AcDbPolyline
 90
        2
 70
     0
 43
0.0
 10
79.8901133123
 20
140.703314158
 10
79.7034860715
 20
140.9727376394
  0
LWPOLYLINE
  5
2A2
330
A9
100
AcDbEntity
  8
DV2_Layer18
  6
Continuous
 62
     7
 48
25.4
100
AcDbPolyline
 90
        2
 70
     0
 43
0.0
 10
79.8835917224
 20
140.678975253
 10
79.4429838806
 20
140.3738329366
  0
LWPOLYLINE
  5
2A3
330
A9
100
AcDbEntity
  8
DV2_Layer18
  6
Continuous
 62
     7
 48
25.4
100
AcDbPolyline
 90
        2
 70
     0
 43
0.0
 10
79.9336162674
 20
140.8656693968
 10
79.6158254779
 20
140.6455838503
  0
LWPOLYLINE
  5
2A4
330
A9
100
AcDbEntity
  8
DV2_Layer18
  6
Continuous
 62
     7
 48
25.4
100
AcDbPolyline
 90
        2
 70
     0
 43
0.0
 10
79.8476996025
 20
140.5450240381
 10
79.6610723617
 20
140.8144475195
  0
LWPOLYLINE
  5
2A5
330
A9
100
AcDbEntity
  8
DV2_Layer18
  6
Continuous
 62
     7
 48
25.4
100
AcDbPolyline
 90
        2
 70
     0
 43
0.0
 10
79.8568786055
 20
140.3122523567
 10
79.6186586519
 20
140.6561573996
  0
LWPOLYLINE
  5
2A6
330
A9
100
AcDbEntity
  8
DV2_Layer18
  6
Continuous
 62
     7
 48
25.4
100
AcDbPolyline
 90
        2
 70
     0
 43
0.0
 10
79.952805848
 20
139.9542470139
 10
79.5724691406
 20
140.5033181966
  0
LWPOLYLINE
  5
2A7
330
A9
100
AcDbEntity
  8
DV2_Layer18
  6
Continuous
 62
     7
 48
25.4
100
AcDbPolyline
 90
        2
 70
     0
 43
0.0
 10
79.9172762601
 20
139.7860186658
 10
79.4826359363
 20
140.4134849923
  0
LWPOLYLINE
  5
2A8
330
A9
100
AcDbEntity
  8
DV2_Layer18
  6
Continuous
 62
     7
 48
25.4
100
AcDbPolyline
 90
        2
 70
     0
 43
0.0
 10
79.8335671773
 20
140.4922811092
 10
79.1806330311
 20
140.0400925212
  0
LWPOLYLINE
  5
2A9
330
A9
100
AcDbEntity
  8
DV2_Layer18
  6
Continuous
 62
     7
 48
25.4
100
AcDbPolyline
 90
        2
 70
     0
 43
0.0
 10
79.5351920818
 20
138.6130949723
 10
79.1714109553
 20
138.3611588852
  0
LWPOLYLINE
  5
2AA
330
A9
100
AcDbEntity
  8
DV2_Layer18
  6
Continuous
 62
     7
 48
25.4
100
AcDbPolyline
 90
        2
 70
     0
 43
0.0
 10
79.8748625503
 20
139.6277285459
 10
79.3928027321
 20
140.3236517881
  0
LWPOLYLINE
  5
2AB
330
A9
100
AcDbEntity
  8
DV2_Layer18
  6
Continuous
 62
     7
 48
25.4
100
AcDbPolyline
 90
        2
 70
     0
 43
0.0
 10
79.8469063286
 20
140.3494694007
 10
79.130608486
 20
139.8533983774
  0
LWPOLYLINE
  5
2AC
330
A9
100
AcDbEntity
  8
DV2_Layer18
  6
Continuous
 62
     7
 48
25.4
100
AcDbPolyline
 90
        2
 70
     0
 43
0.0
 10
79.432039509
 20
138.2913236747
 10
79.1348444808
 20
138.7203677887
  0
LWPOLYLINE
  5
2AD
330
A9
100
AcDbEntity
  8
DV2_Layer18
  6
Continuous
 62
     7
 48
25.4
100
AcDbPolyline
 90
        2
 70
     0
 43
0.0
 10
79.8324488405
 20
139.469438426
 10
79.3029695278
 20
140.2338185838
  0
LWPOLYLINE
  5
2AE
330
A9
100
AcDbEntity
  8
DV2_Layer18
  6
Continuous
 62
     7
 48
25.4
100
AcDbPolyline
 90
        2
 70
     0
 43
0.0
 10
79.7900351307
 20
139.3111483061
 10
79.2131363235
 20
140.1439853795
  0
LWPOLYLINE
  5
2AF
330
A9
100
AcDbEntity
  8
DV2_Layer18
  6
Continuous
 62
     7
 48
25.4
100
AcDbPolyline
 90
        2
 70
     0
 43
0.0
 10
79.3768890337
 20
138.6555121462
 10
79.0131079073
 20
138.4035760591
  0
LWPOLYLINE
  5
2B0
330
A9
100
AcDbEntity
  8
DV2_Layer18
  6
Continuous
 62
     7
 48
25.4
100
AcDbPolyline
 90
        2
 70
     0
 43
0.0
 10
79.4171037152
 20
139.6300084165
 10
79.167358606
 20
139.9905516925
  0
LWPOLYLINE
  5
2B1
330
A9
100
AcDbEntity
  8
DV2_Layer18
  6
Continuous
 62
     7
 48
25.4
100
AcDbPolyline
 90
        2
 70
     0
 43
0.0
 10
79.327270511
 20
139.5401752122
 10
79.1249448962
 20
139.8322615726
  0
LWPOLYLINE
  5
2B2
330
A9
100
AcDbEntity
  8
DV2_Layer18
  6
Continuous
 62
     7
 48
25.4
100
AcDbPolyline
 90
        2
 70
     0
 43
0.0
 10
79.2374373067
 20
139.450342008
 10
79.0825311864
 20
139.6739714527
  0
LWPOLYLINE
  5
2B3
330
A9
100
AcDbEntity
  8
DV2_Layer18
  6
Continuous
 62
     7
 48
25.4
100
AcDbPolyline
 90
        2
 70
     0
 43
0.0
 10
80.1797772973
 20
142.2608263336
 10
80.1780931688
 20
142.2632576174
  0
LWPOLYLINE
  5
2B4
330
A9
100
AcDbEntity
  8
DV2_Layer18
  6
Continuous
 62
     7
 48
25.4
100
AcDbPolyline
 90
        2
 70
     0
 43
0.0
 10
80.1816488181
 20
142.2538417231
 10
80.139458277
 20
142.2246227255
  0
LINE
  5
2B5
330
A9
100
AcDbEntity
  8
DV2_Layer18
  6
Continuous
 62
     7
 48
25.4
100
AcDbLine
 10
82.7497596582
 20
149.1673599886
 30
0.0
 11
79.9079841332
 21
147.5266601242
 31
0.0
  0
LINE
  5
2B6
330
A9
100
AcDbEntity
  8
DV2_Layer18
  6
Continuous
 62
     7
 48
25.4
100
AcDbLine
 10
81.3837232066
 20
149.5333883527
 30
0.0
 11
80.2740124972
 21
148.8926965759
 31
0.0
  0
LINE
  5
2B7
330
A9
100
AcDbEntity
  8
DV2_Layer18
  6
Continuous
 62
     7
 48
25.4
100
AcDbLine
 10
83.5223830716
 20
148.4587448596
 30
0.0
 11
81.3720985009
 21
147.2172774838
 31
0.0
  0
LINE
  5
2B8
330
A9
100
AcDbEntity
  8
DV2_Layer18
  6
Continuous
 62
     7
 48
25.4
100
AcDbLine
 10
81.5004458951
 20
147.1828869032
 30
0.0
 11
80.3498594184
 21
149.1757611393
 31
0.0
  0
LINE
  5
2B9
330
A9
100
AcDbEntity
  8
DV2_Layer18
  6
Continuous
 62
     7
 48
25.4
100
AcDbLine
 10
80.6731106854
 20
146.4937929076
 30
0.0
 11
79.4405504672
 21
145.7821739338
 31
0.0
  0
LINE
  5
2BA
330
A9
100
AcDbEntity
  8
DV2_Layer18
  6
Continuous
 62
     7
 48
25.4
100
AcDbLine
 10
82.6889210416
 20
145.3482222174
 30
0.0
 11
79.5109796122
 21
143.5134368777
 31
0.0
  0
LINE
  5
2BB
330
A9
100
AcDbEntity
  8
DV2_Layer18
  6
Continuous
 62
     7
 48
25.4
100
AcDbLine
 10
76.8946575186
 20
136.2807720991
 30
0.0
 11
79.7010210894
 21
146.7542635298
 31
0.0
  0
LINE
  5
2BC
330
A9
100
AcDbEntity
  8
DV2_Layer18
  6
Continuous
 62
     7
 48
25.4
100
AcDbLine
 10
82.0391471371
 20
146.1277645435
 30
0.0
 11
79.0745221032
 21
144.4161374821
 31
0.0
  0
LINE
  5
2BD
330
A9
100
AcDbEntity
  8
DV2_Layer18
  6
Continuous
 62
     7
 48
25.4
100
AcDbLine
 10
81.9433079808
 20
142.8616964557
 30
0.0
 11
79.6994083352
 21
146.748244649
 31
0.0
  0
LINE
  5
2BE
330
A9
100
AcDbEntity
  8
DV2_Layer18
  6
Continuous
 62
     7
 48
25.4
100
AcDbLine
 10
83.3800067149
 20
147.9273890625
 30
0.0
 11
82.6484658816
 21
149.1945015743
 31
0.0
  0
LINE
  5
2BF
330
A9
100
AcDbEntity
  8
DV2_Layer18
  6
Continuous
 62
     7
 48
25.4
100
AcDbLine
 10
82.3635272676
 20
144.1338361205
 30
0.0
 11
81.0610145122
 21
146.3898543905
 31
0.0
  0
LINE
  5
2C0
330
A9
100
AcDbEntity
  8
DV2_Layer18
  6
Continuous
 62
     7
 48
25.4
100
AcDbLine
 10
82.3228926775
 20
143.9821857658
 30
0.0
 11
80.8770160639
 21
143.1474085137
 31
0.0
  0
LINE
  5
2C1
330
A9
100
AcDbEntity
  8
DV2_Layer18
  6
Continuous
 62
     7
 48
25.4
100
AcDbLine
 10
82.8664604898
 20
146.8168643957
 30
0.0
 11
81.2824244811
 21
149.5605312644
 31
0.0
  0
LINE
  5
2C2
330
A9
100
AcDbEntity
  8
DV2_Layer18
  6
Continuous
 62
     7
 48
25.4
100
AcDbLine
 10
80.3097528514
 20
136.4690456519
 30
0.0
 11
79.0044810047
 21
135.7154465998
 31
0.0
  0
LINE
  5
2C3
330
A9
100
AcDbEntity
  8
DV2_Layer18
  6
Continuous
 62
     7
 48
25.4
100
AcDbLine
 10
82.7295556317
 20
145.4998725722
 30
0.0
 11
82.4270509638
 21
146.0238260264
 31
0.0
  0
LINE
  5
2C4
330
A9
100
AcDbEntity
  8
DV2_Layer18
  6
Continuous
 62
     7
 48
25.4
100
AcDbLine
 10
79.6756504978
 20
137.2576563645
 30
0.0
 11
77.638444553
 21
136.0814749639
 31
0.0
  0
LINE
  5
2C5
330
A9
100
AcDbEntity
  8
DV2_Layer18
  6
Continuous
 62
     7
 48
25.4
100
AcDbLine
 10
80.1673764947
 20
135.9376898548
 30
0.0
 11
79.3558147058
 21
137.3433561067
 31
0.0
  0
LINE
  5
2C6
330
A9
100
AcDbEntity
  8
DV2_Layer18
  6
Continuous
 62
     7
 48
25.4
100
AcDbLine
 10
79.166007951
 20
135.672165585
 30
0.0
 11
77.9898094685
 21
137.7093761069
 31
0.0
  0
LINE
  5
2C7
330
A9
100
AcDbEntity
  8
DV2_Layer18
  6
Continuous
 62
     7
 48
25.4
100
AcDbLine
 10
77.7999714993
 20
136.0381939491
 30
0.0
 11
77.1372291982
 21
137.1860619316
 31
0.0
  0
LINE
  5
2C8
330
A9
100
AcDbEntity
  8
DV2_Layer18
  6
Continuous
 62
     7
 48
25.4
100
AcDbLine
 10
78.3096381943
 20
137.6236782581
 30
0.0
 11
77.061382277
 21
136.9029973682
 31
0.0
  0
LINE
  5
2C9
330
A9
100
AcDbEntity
  8
DV2_Layer18
  6
Continuous
 62
     7
 48
25.4
100
AcDbLine
 10
82.8402800249
 20
145.9131016332
 30
0.0
 11
80.0339164541
 21
135.4396102025
 31
0.0
  0
LINE
  5
2CA
330
A9
100
AcDbEntity
  8
DV2_Layer18
  6
Continuous
 62
     7
 48
25.4
100
AcDbLine
 10
80.5772715291
 20
143.2277248197
 30
0.0
 11
79.3333799711
 21
145.3822081973
 31
0.0
  0
LINE
  5
2CB
330
A9
100
AcDbEntity
  8
DV2_Layer18
  6
Continuous
 62
     7
 48
25.4
100
AcDbLine
 10
79.2112592256
 20
143.5937467133
 30
0.0
 11
78.9673580775
 21
144.0161958938
 31
0.0
  0
LINE
  5
2CC
330
A9
100
AcDbEntity
  8
DV2_Layer18
  6
CENTER2
 62
     7
 48
25.4
100
AcDbLine
 10
83.3346514048
 20
145.7806352212
 30
0.0
 11
79.2624646525
 21
146.8717743729
 31
0.0
  0
LINE
  5
2CD
330
A9
100
AcDbEntity
  8
DV2_Layer18
  6
CENTER2
 62
     7
 48
25.4
100
AcDbLine
 10
83.562345854
 20
146.6304024743
 30
0.0
 11
79.4901591018
 21
147.721541626
 31
0.0
  0
LINE
  5
2CE
330
A9
100
AcDbEntity
  8
DV2_Layer18
  6
Continuous
 62
     7
 48
25.4
100
AcDbLine
 10
80.4644287262
 20
137.0463038752
 30
0.0
 11
77.3251697907
 21
137.8874657718
 31
0.0
  0
LINE
  5
2CF
330
A9
100
AcDbEntity
  8
DV2_Layer18
  6
Continuous
 62
     7
 48
25.4
100
AcDbLine
 10
82.0173429968
 20
142.8418588329
 30
0.0
 11
78.8780840613
 21
143.6830207295
 31
0.0
  0
LINE
  5
2D0
330
A9
100
AcDbEntity
  8
DV2_Layer18
  6
Continuous
 62
     7
 48
25.4
100
AcDbLine
 10
80.1254208883
 20
141.5814939872
 30
0.0
 11
80.3800881367
 21
141.5132561036
 31
0.0
  0
LINE
  5
2D1
330
A9
100
AcDbEntity
  8
DV2_Layer18
  6
Continuous
 62
     7
 48
25.4
100
AcDbLine
 10
79.821103612
 20
140.4457664501
 30
0.0
 11
80.1254208883
 21
141.5814939872
 31
0.0
  0
LINE
  5
2D2
330
A9
100
AcDbEntity
  8
DV2_Layer18
  6
Continuous
 62
     7
 48
25.4
100
AcDbLine
 10
79.9575793791
 20
139.9364319534
 30
0.0
 11
79.821103612
 21
140.4457664501
 31
0.0
  0
LINE
  5
2D3
330
A9
100
AcDbEntity
  8
DV2_Layer18
  6
Continuous
 62
     7
 48
25.4
100
AcDbLine
 10
79.6947935067
 20
138.9557017263
 30
0.0
 11
79.9575793791
 21
139.9364319534
 31
0.0
  0
LINE
  5
2D4
330
A9
100
AcDbEntity
  8
DV2_Layer18
  6
Continuous
 62
     7
 48
25.4
100
AcDbLine
 10
79.4936129784
 20
139.7065176796
 30
0.0
 11
79.6947935067
 21
138.9557017263
 31
0.0
  0
LINE
  5
2D5
330
A9
100
AcDbEntity
  8
DV2_Layer18
  6
Continuous
 62
     7
 48
25.4
100
AcDbLine
 10
78.9439775534
 20
139.1568822547
 30
0.0
 11
79.4936129784
 21
139.7065176796
 31
0.0
  0
LINE
  5
2D6
330
A9
100
AcDbEntity
  8
DV2_Layer18
  6
Continuous
 62
     7
 48
25.4
100
AcDbLine
 10
79.2067634257
 20
140.1376124817
 30
0.0
 11
78.9439775534
 21
139.1568822547
 31
0.0
  0
LINE
  5
2D7
330
A9
100
AcDbEntity
  8
DV2_Layer18
  6
Continuous
 62
     7
 48
25.4
100
AcDbLine
 10
79.5796221554
 20
140.5104712114
 30
0.0
 11
79.2067634257
 21
140.1376124817
 31
0.0
  0
LINE
  5
2D8
330
A9
100
AcDbEntity
  8
DV2_Layer18
  6
Continuous
 62
     7
 48
25.4
100
AcDbLine
 10
79.8839394318
 20
141.6461987485
 30
0.0
 11
79.5796221554
 21
140.5104712114
 31
0.0
  0
LINE
  5
2D9
330
A9
100
AcDbEntity
  8
DV2_Layer18
  6
Continuous
 62
     7
 48
25.4
100
AcDbLine
 10
79.6292721834
 20
141.714436632
 30
0.0
 11
79.8839394318
 21
141.6461987485
 31
0.0
  0
LINE
  5
2DA
330
A9
100
AcDbEntity
  8
DV2_Layer18
  6
Continuous
 62
     7
 48
25.4
100
AcDbLine
 10
80.1789076084
 20
142.264072057
 30
0.0
 11
79.6292721834
 21
141.714436632
 31
0.0
  0
LINE
  5
2DB
330
A9
100
AcDbEntity
  8
DV2_Layer18
  6
Continuous
 62
     7
 48
25.4
100
AcDbLine
 10
80.3800881367
 20
141.5132561036
 30
0.0
 11
80.1789076084
 21
142.264072057
 31
0.0
  0
LINE
  5
2DC
330
A9
100
AcDbEntity
  8
DV2_Layer18
  6
Continuous
 62
     7
 48
25.4
100
AcDbLine
 10
76.1584602398
 20
130.9722883498
 30
0.0
 11
75.5643774521
 21
131.125650797
 31
0.0
  0
LINE
  5
2DD
330
A9
100
AcDbEntity
  8
DV2_Layer18
  6
Continuous
 62
     7
 48
25.4
100
AcDbLine
 10
75.5790386421
 20
128.809857508
 30
0.0
 11
74.987866632
 21
128.9740831255
 31
0.0
  0
LINE
  5
2DE
330
A9
100
AcDbEntity
  8
DV2_Layer18
  6
Continuous
 62
     7
 48
25.4
100
AcDbLine
 10
77.4378185273
 20
128.3117989389
 30
0.0
 11
78.0172401251
 21
130.4742297806
 31
0.0
  0
LINE
  5
2DF
330
A9
100
AcDbEntity
  8
DV2_Layer18
  6
Continuous
 62
     7
 48
25.4
100
AcDbLine
 10
78.0319013148
 20
128.1584364905
 30
0.0
 11
78.6084121348
 21
130.310004162
 31
0.0
  0
LINE
  5
2E0
330
A9
100
AcDbEntity
  8
DV2_Layer18
  6
Continuous
 62
     7
 48
25.4
100
AcDbLine
 10
79.1809766274
 20
127.9390933602
 30
0.0
 11
79.7132121117
 21
129.9254232294
 31
0.0
  0
ARC
  5
2E1
330
A9
100
AcDbEntity
  8
DV2_Layer18
  6
Continuous
 62
     7
 48
25.4
100
AcDbCircle
 10
78.8583090617
 20
129.3682395812
 30
0.0
 40
1.465118862881688
100
AcDbArc
 50
235.6632994721
 51
282.7227203024
  0
LINE
  5
2E2
330
A9
100
AcDbEntity
  8
DV2_Layer18
  6
Continuous
 62
     7
 48
25.4
100
AcDbLine
 10
78.631772496
 20
127.7919231456
 30
0.0
 11
79.1809766274
 21
127.9390933602
 31
0.0
  0
ARC
  5
2E3
330
A9
100
AcDbEntity
  8
DV2_Layer18
  6
Continuous
 62
     7
 48
25.4
100
AcDbCircle
 10
78.7192006923
 20
128.849080079
 30
0.0
 40
1.465118862321266
100
AcDbArc
 50
47.2772796976
 51
94.3367005356
  0
LINE
  5
2E4
330
A9
100
AcDbEntity
  8
DV2_Layer18
  6
Continuous
 62
     7
 48
25.4
100
AcDbLine
 10
79.7132121117
 20
129.9254232294
 30
0.0
 11
79.3111724894
 21
130.3274784396
 31
0.0
  0
LINE
  5
2E5
330
A9
100
AcDbEntity
  8
DV2_Layer18
  6
Continuous
 62
     7
 48
25.4
100
AcDbLine
 10
78.0172401251
 20
130.4742297806
 30
0.0
 11
78.6084121348
 21
130.310004162
 31
0.0
  0
LINE
  5
2E6
330
A9
100
AcDbEntity
  8
DV2_Layer18
  6
Continuous
 62
     7
 48
25.4
100
AcDbLine
 10
77.4378185273
 20
128.3117989389
 30
0.0
 11
78.0319013148
 21
128.1584364905
 31
0.0
  0
LINE
  5
2E7
330
A9
100
AcDbEntity
  8
DV2_Layer17
  6
Continuous
 62
     7
 48
25.4
100
AcDbLine
 10
86.4375930298
 20
158.8554936254
 30
0.0
 11
85.5479025623
 21
155.5351235975
 31
0.0
  0
LINE
  5
2E8
330
A9
100
AcDbEntity
  8
DV2_Layer17
  6
Continuous
 62
     7
 48
25.4
100
AcDbLine
 10
87.6444037464
 20
166.2571500134
 30
0.0
 11
86.6480213722
 21
162.5386003693
 31
0.0
  0
LINE
  5
2E9
330
A9
100
AcDbEntity
  8
DV2_Layer17
  6
Continuous
 62
     7
 48
25.4
100
AcDbLine
 10
84.4746882631
 20
163.1209432208
 30
0.0
 11
86.8895028288
 21
162.473895608
 31
0.0
  0
LINE
  5
2EA
330
A9
100
AcDbEntity
  8
DV2_Layer17
  6
Continuous
 62
     7
 48
25.4
100
AcDbLine
 10
84.4746882631
 20
163.1209432208
 30
0.0
 11
84.0217549341
 21
161.4305730248
 31
0.0
  0
LINE
  5
2EB
330
A9
100
AcDbEntity
  8
DV2_Layer17
  6
Continuous
 62
     7
 48
25.4
100
AcDbLine
 10
83.8406438417
 20
161.4791015957
 30
0.0
 11
83.4395854101
 21
159.9823311523
 31
0.0
  0
LINE
  5
2EC
330
A9
100
AcDbEntity
  8
DV2_Layer17
  6
Continuous
 62
     7
 48
25.4
100
AcDbLine
 10
86.6176805923
 20
160.734996841
 30
0.0
 11
83.8406438417
 21
161.4791015957
 31
0.0
  0
LINE
  5
2ED
330
A9
100
AcDbEntity
  8
DV2_Layer17
  6
Continuous
 62
     7
 48
25.4
100
AcDbLine
 10
83.0568526378
 20
159.7613602832
 30
0.0
 11
82.1671621703
 21
156.4409902554
 31
0.0
  0
LINE
  5
2EE
330
A9
100
AcDbEntity
  8
DV2_Layer17
  6
Continuous
 62
     7
 48
25.4
100
AcDbLine
 10
83.4395854101
 20
159.9823311523
 30
0.0
 11
83.0568526378
 21
159.7613602832
 31
0.0
  0
LINE
  5
2EF
330
A9
100
AcDbEntity
  8
DV2_Layer17
  6
Continuous
 62
     7
 48
25.4
100
AcDbLine
 10
82.1671621703
 20
156.4409902554
 30
0.0
 11
85.5479025623
 21
155.5351235975
 31
0.0
  0
LINE
  5
2F0
330
A9
100
AcDbEntity
  8
DV2_Layer17
  6
Continuous
 62
     7
 48
25.4
100
AcDbLine
 10
85.6820955459
 20
162.7974194144
 30
0.0
 11
85.229162217
 21
161.1070492184
 31
0.0
  0
LINE
  5
2F1
330
A9
100
AcDbEntity
  8
DV2_Layer17
  6
Continuous
 62
     7
 48
25.4
100
AcDbLine
 10
86.4375930298
 20
158.8554936254
 30
0.0
 11
83.0568526378
 21
159.7613602832
 31
0.0
  0
LINE
  5
2F2
330
A9
100
AcDbEntity
  8
DV2_Layer17
  6
Continuous
 62
     7
 48
25.4
100
AcDbLine
 10
86.2166221607
 20
159.2382263977
 30
0.0
 11
83.4395854101
 21
159.9823311523
 31
0.0
  0
LINE
  5
2F3
330
A9
100
AcDbEntity
  8
DV2_Layer17
  6
Continuous
 62
     7
 48
25.4
100
AcDbLine
 10
87.0862892844
 20
171.9016450953
 30
0.0
 11
84.7161697196
 21
163.0562384595
 31
0.0
  0
LINE
  5
2F4
330
A9
100
AcDbEntity
  8
DV2_Layer17
  6
Continuous
 62
     7
 48
25.4
100
AcDbLine
 10
86.8895028288
 20
162.473895608
 30
0.0
 11
86.4365694999
 21
160.783525412
 31
0.0
  0
LINE
  5
2F5
330
A9
100
AcDbEntity
  8
DV2_Layer17
  6
Continuous
 62
     7
 48
25.4
100
AcDbLine
 10
86.2166221607
 20
159.2382263977
 30
0.0
 11
86.4375930298
 21
158.8554936254
 31
0.0
  0
LINE
  5
2F6
330
A9
100
AcDbEntity
  8
DV2_Layer17
  6
Continuous
 62
     7
 48
25.4
100
AcDbLine
 10
86.6176805923
 20
160.734996841
 30
0.0
 11
86.2166221607
 21
159.2382263977
 31
0.0
  0
LINE
  5
2F8
330
A9
100
AcDbEntity
  8
DV2_Layer2
  6
CENTER2
 62
     7
 48
25.4
100
AcDbLine
 10
146.4517743354
 20
246.8104804748
 30
0.0
 11
145.2786972253
 21
253.4637843067
 31
0.0
  0
LINE
  5
2FA
330
A9
100
AcDbEntity
  8
DV2_Layer3
  6
Continuous
 62
     7
 48
25.4
100
AcDbLine
 10
145.2786972253
 20
253.4637843067
 30
0.0
 11
145.2786972253
 21
249.209781716
 31
0.0
  0
HATCH
  5
2FB
330
A9
100
AcDbEntity
  8
0
  6
Continuous
 62
     7
 48
25.4
100
AcDbHatch
 10
0.0
 20
0.0
 30
0.0
210
0.0
220
0.0
230
1.0
  2
LINE
 70
     0
 71
     0
 91
        1
 92
        1
 93
        5
 72
     1
 10
82.68628928441966
 20
195.6321500134314
 11
72.55880439581155
 21
195.6321500134314
 72
     1
 10
72.55880439581155
 20
195.6321500134314
 11
72.55880439581155
 21
191.4121793098889
 72
     1
 10
72.55880439581155
 20
191.4121793098889
 11
85.18628928441953
 21
191.4121793098889
 72
     1
 10
85.18628928441953
 20
191.4121793098889
 11
85.18628928441953
 21
195.6321500134314
 72
     1
 10
85.18628928441953
 20
195.6321500134314
 11
82.68628928441967
 21
195.6321500134314
 97
        0
 75
     0
 76
     2
 52
45.0
 41
1.0416666667
 77
     0
 78
     1
 53
45.0
 43
0.0
 44
0.0
 45
-2.338608364861759
 46
2.338608364861759
 79
     0
 98
        0
  0
LWPOLYLINE
  5
2FC
330
A9
100
AcDbEntity
  8
0
  6
Continuous
 62
     7
 48
25.4
100
AcDbPolyline
 90
        6
 70
     1
 43
0.0
 10
82.6862892844
 20
195.6321500134
 10
85.1862892844
 20
195.6321500134
 10
85.1862892844
 20
191.4121793099
 10
72.5588043958
 20
191.4121793099
 10
72.5588043958
 20
195.6321500134
 10
82.6862892844
 20
195.6321500134
  0
LINE
  5
2FE
330
A9
100
AcDbEntity
  8
DV2_Layer11
  6
Continuous
 62
     7
 48
25.4
100
AcDbLine
 10
72.5588043958
 20
195.6321500134
 30
0.0
 11
82.6862892844
 21
195.6321500134
 31
0.0
  0
HATCH
  5
2FF
330
A9
100
AcDbEntity
  8
0
  6
Continuous
 62
     7
 48
25.4
100
AcDbHatch
 10
0.0
 20
0.0
 30
0.0
210
0.0
220
0.0
230
1.0
  2
LINE
 70
     0
 71
     0
 91
        1
 92
        1
 93
        5
 72
     1
 10
106.3137741730276
 20
191.4121793098889
 11
106.3137741730276
 21
195.6321500134314
 72
     1
 10
106.3137741730276
 20
195.6321500134314
 11
96.18628928441946
 21
195.6321500134314
 72
     1
 10
96.18628928441946
 20
195.6321500134314
 11
93.68628928441954
 21
195.6321500134314
 72
     1
 10
93.68628928441953
 20
195.6321500134314
 11
93.68628928441953
 21
191.4121793098889
 72
     1
 10
93.68628928441953
 20
191.4121793098889
 11
106.3137741730276
 21
191.4121793098889
 97
        0
 75
     0
 76
     2
 52
45.0
 41
1.0416666667
 77
     0
 78
     1
 53
45.0
 43
0.0
 44
0.0
 45
-2.338608364861759
 46
2.338608364861759
 79
     0
 98
        0
  0
LWPOLYLINE
  5
300
330
A9
100
AcDbEntity
  8
0
  6
Continuous
 62
     7
 48
25.4
100
AcDbPolyline
 90
        6
 70
     1
 43
0.0
 10
106.313774173
 20
191.4121793099
 10
106.313774173
 20
195.6321500134
 10
96.1862892844
 20
195.6321500134
 10
93.6862892844
 20
195.6321500134
 10
93.6862892844
 20
191.4121793099
 10
106.313774173
 20
191.4121793099
  0
LINE
  5
301
330
A9
100
AcDbEntity
  8
DV2_Layer11
  6
Continuous
 62
     7
 48
25.4
100
AcDbLine
 10
96.1862892844
 20
195.6321500134
 30
0.0
 11
106.313774173
 21
195.6321500134
 31
0.0
  0
LINE
  5
302
330
A9
100
AcDbEntity
  8
DV2_Layer9
  6
Continuous
 62
     7
 48
25.4
100
AcDbLine
 10
96.1862892844
 20
195.6321500134
 30
0.0
 11
82.6862892844
 21
195.6321500134
 31
0.0
  0
HATCH
  5
303
330
A9
100
AcDbEntity
  8
0
  6
Continuous
 62
     7
 48
25.4
100
AcDbHatch
 10
0.0
 20
0.0
 30
0.0
210
0.0
220
0.0
230
1.0
  2
LINE
 70
     0
 71
     0
 91
        1
 92
        1
 93
        5
 72
     1
 10
85.18628928441953
 20
187.5951796131384
 11
72.55880439581156
 21
187.5951796131384
 72
     1
 10
72.55880439581155
 20
187.5951796131384
 11
72.55880439581155
 21
184.3821500134314
 72
     1
 10
72.55880439581155
 20
184.3821500134314
 11
78.56128928441962
 21
184.3821500134314
 72
     1
 10
78.56128928441962
 20
184.3821500134314
 11
85.18628928441953
 21
184.3821500134314
 72
     1
 10
85.18628928441953
 20
184.3821500134314
 11
85.18628928441953
 21
187.5951796131384
 97
        0
 75
     0
 76
     2
 52
45.0
 41
1.0416666667
 77
     0
 78
     1
 53
45.0
 43
0.0
 44
0.0
 45
-2.338608364861759
 46
2.338608364861759
 79
     0
 98
        0
  0
LWPOLYLINE
  5
304
330
A9
100
AcDbEntity
  8
0
  6
Continuous
 62
     7
 48
25.4
100
AcDbPolyline
 90
        6
 70
     1
 43
0.0
 10
85.1862892844
 20
187.5951796131
 10
85.1862892844
 20
184.3821500134
 10
78.5612892844
 20
184.3821500134
 10
72.5588043958
 20
184.3821500134
 10
72.5588043958
 20
187.5951796131
 10
85.1862892844
 20
187.5951796131
  0
LINE
  5
305
330
A9
100
AcDbEntity
  8
DV2_Layer11
  6
Continuous
 62
     7
 48
25.4
100
AcDbLine
 10
85.1862892844
 20
195.6321500134
 30
0.0
 11
85.1862892844
 21
184.3821500134
 31
0.0
  0
LINE
  5
306
330
A9
100
AcDbEntity
  8
DV2_Layer11
  6
Continuous
 62
     7
 48
25.4
100
AcDbLine
 10
72.5588043958
 20
184.3821500134
 30
0.0
 11
78.5612892844
 21
184.3821500134
 31
0.0
  0
HATCH
  5
307
330
A9
100
AcDbEntity
  8
0
  6
Continuous
 62
     7
 48
25.4
100
AcDbHatch
 10
0.0
 20
0.0
 30
0.0
210
0.0
220
0.0
230
1.0
  2
LINE
 70
     0
 71
     0
 91
        1
 92
        1
 93
        5
 72
     1
 10
106.3137741730276
 20
187.5951796131384
 11
93.68628928441954
 21
187.5951796131384
 72
     1
 10
93.68628928441953
 20
187.5951796131384
 11
93.68628928441953
 21
184.3821500134314
 72
     1
 10
93.68628928441953
 20
184.3821500134314
 11
102.8112892844195
 21
184.3821500134314
 72
     1
 10
102.8112892844195
 20
184.3821500134314
 11
106.3137741730276
 21
184.3821500134314
 72
     1
 10
106.3137741730276
 20
184.3821500134314
 11
106.3137741730276
 21
187.5951796131384
 97
        0
 75
     0
 76
     2
 52
45.0
 41
1.0416666667
 77
     0
 78
     1
 53
45.0
 43
0.0
 44
0.0
 45
-2.338608364861759
 46
2.338608364861759
 79
     0
 98
        0
  0
LWPOLYLINE
  5
308
330
A9
100
AcDbEntity
  8
0
  6
Continuous
 62
     7
 48
25.4
100
AcDbPolyline
 90
        6
 70
     1
 43
0.0
 10
106.313774173
 20
187.5951796131
 10
106.313774173
 20
184.3821500134
 10
102.8112892844
 20
184.3821500134
 10
93.6862892844
 20
184.3821500134
 10
93.6862892844
 20
187.5951796131
 10
106.313774173
 20
187.5951796131
  0
LINE
  5
309
330
A9
100
AcDbEntity
  8
DV2_Layer11
  6
Continuous
 62
     7
 48
25.4
100
AcDbLine
 10
102.8112892844
 20
184.3821500134
 30
0.0
 11
106.313774173
 21
184.3821500134
 31
0.0
  0
LINE
  5
30A
330
A9
100
AcDbEntity
  8
DV2_Layer12
  6
Continuous
 62
     7
 48
25.4
100
AcDbLine
 10
78.5612892844
 20
184.3821500134
 30
0.0
 11
102.8112892844
 21
184.3821500134
 31
0.0
  0
LINE
  5
30B
330
A9
100
AcDbEntity
  8
DV2_Layer11
  6
Continuous
 62
     7
 48
25.4
100
AcDbLine
 10
93.6862892844
 20
195.6321500134
 30
0.0
 11
93.6862892844
 21
184.3821500134
 31
0.0
  0
LINE
  5
30D
330
A9
100
AcDbEntity
  8
Layer5
  6
Continuous
 62
     7
 48
25.4
100
AcDbLine
 10
111.0613712839
 20
213.6915247131
 30
0.0
 11
111.0613712839
 21
213.9415247131
 31
0.0
  0
ARC
  5
30F
330
A9
100
AcDbEntity
  8
Layer7
  6
HIDDEN2
 62
     7
 48
25.4
100
AcDbCircle
 10
94.3351782281
 20
225.0875624872
 30
0.0
 40
25.0
100
AcDbArc
 50
313.6800770734
 51
342.3199229266
  0
ARC
  5
310
330
A9
100
AcDbEntity
  8
Layer5
  6
Continuous
 62
     7
 48
25.4
100
AcDbCircle
 10
106.6488441612
 20
217.7942674599
 30
0.0
 40
6.25
100
AcDbArc
 50
284.7231957461
 51
318.9711593676
  0
LINE
  5
312
330
A9
100
AcDbEntity
  8
Layer6
  6
Continuous
 62
     7
 48
25.4
100
AcDbLine
 10
113.2317009809
 20
240.2411238775
 30
0.0
 11
113.2317009809
 21
224.1630314695
 31
0.0
  0
ARC
  5
313
330
A9
100
AcDbEntity
  8
Layer5
  6
Continuous
 62
     7
 48
25.4
100
AcDbCircle
 10
158.1833262738
 20
226.8865700103
 30
0.0
 40
50.0
100
AcDbArc
 50
196.4857817416
 51
196.5051169806
  0
LINE
  5
314
330
A9
100
AcDbEntity
  8
Layer5
  6
Continuous
 62
     7
 48
25.4
100
AcDbLine
 10
111.0613712839
 20
213.9337513547
 30
0.0
 11
110.9111560848
 21
213.9337513547
 31
0.0
  0
LINE
  5
315
330
A9
100
AcDbEntity
  8
Layer7
  6
Continuous
 62
     7
 48
25.4
100
AcDbLine
 10
126.2728441869
 20
231.8877139031
 30
0.0
 11
126.2728441869
 21
234.0805630804
 31
0.0
  0
LINE
  5
316
330
A9
100
AcDbEntity
  8
Layer5
  6
Continuous
 62
     7
 48
25.4
100
AcDbLine
 10
110.9111560848
 20
214.8571536134
 30
0.0
 11
110.9111560848
 21
213.9337513547
 31
0.0
  0
LINE
  5
317
330
A9
100
AcDbEntity
  8
Layer5
  6
Continuous
 62
     7
 48
25.4
100
AcDbLine
 10
102.4113712839
 20
224.0587513547
 30
0.0
 11
102.5352898629
 21
224.1826699336
 31
0.0
  0
ARC
  5
318
330
A9
100
AcDbEntity
  8
Layer7
  6
HIDDEN2
 62
     7
 48
25.4
100
AcDbCircle
 10
117.9161649984
 20
217.5709433712
 30
0.0
 40
0.2499999999999986
100
AcDbArc
 50
342.3199229266
 51
56.9999995714
  0
LINE
  5
319
330
A9
100
AcDbEntity
  8
Layer5
  6
Continuous
 62
     7
 48
25.4
100
AcDbLine
 10
108.237278627
 20
211.3585071792
 30
0.0
 11
108.237278627
 21
211.7494865749
 31
0.0
  0
LINE
  5
31A
330
A9
100
AcDbEntity
  8
Layer7
  6
HIDDEN2
 62
     7
 48
25.4
100
AcDbLine
 10
124.3059758786
 20
233.1860382597
 30
0.0
 11
126.2140840949
 21
231.9937199151
 31
0.0
  0
LINE
  5
31B
330
A9
100
AcDbEntity
  8
Layer7
  6
HIDDEN2
 62
     7
 48
25.4
100
AcDbLine
 10
124.1337299585
 20
233.1462721557
 30
0.0
 11
115.6136390594
 21
219.5112764992
 31
0.0
  0
ARC
  5
31C
330
A9
100
AcDbEntity
  8
Layer6
  6
Continuous
 62
     7
 48
25.4
100
AcDbCircle
 10
153.6372541089
 20
240.8279169375
 30
0.0
 40
50.0
100
AcDbArc
 50
206.1621536421
 51
216.346148349
  0
LINE
  5
31D
330
A9
100
AcDbEntity
  8
Layer6
  6
Continuous
 62
     7
 48
25.4
100
AcDbLine
 10
108.6317009809
 20
224.1161238775
 30
0.0
 11
108.6317009809
 21
219.3334043712
 31
0.0
  0
SPLINE
  5
31E
330
A9
100
AcDbEntity
  8
Layer6
  6
Continuous
 62
     7
 48
25.4
100
AcDbSpline
210
0.0
220
0.0
230
1.0
 70
     8
 71
     3
 72
     8
 73
     4
 74
     0
 42
0.0000000001
 43
0.0000000001
 40
0.0
 40
0.0
 40
0.0
 40
0.0
 40
1.0
 40
1.0
 40
1.0
 40
1.0
 10
113.104519429129
 20
224.0380505075869
 30
0.0
 10
114.0194759162437
 20
223.5664713511144
 30
0.0
 10
114.889480659158
 20
223.5517799985022
 30
0.0
 10
115.8545194291291
 20
223.9939764497505
 30
0.0
  0
LINE
  5
31F
330
A9
100
AcDbEntity
  8
Layer6
  6
Continuous
 62
     7
 48
25.4
100
AcDbLine
 10
113.3567009809
 20
240.3661238775
 30
0.0
 11
115.6067009809
 21
240.3661238775
 31
0.0
  0
ARC
  5
320
330
A9
100
AcDbEntity
  8
Layer6
  6
Continuous
 62
     7
 48
25.4
100
AcDbCircle
 10
92.2315614158
 20
217.6161238775
 30
0.0
 40
25.0
100
AcDbArc
 50
345.6800770734
 51
14.3199229266
  0
LINE
  5
321
330
A9
100
AcDbEntity
  8
Layer5
  6
Continuous
 62
     7
 48
25.4
100
AcDbLine
 10
111.0613712839
 20
213.9337513547
 30
0.0
 11
110.9202702275
 21
213.9337513547
 31
0.0
  0
LINE
  5
322
330
A9
100
AcDbEntity
  8
Layer5
  6
Continuous
 62
     7
 48
25.4
100
AcDbLine
 10
111.3828736289
 20
214.0965247131
 30
0.0
 11
111.0613712839
 21
214.0965247131
 31
0.0
  0
LINE
  5
323
330
A9
100
AcDbEntity
  8
Layer5
  6
Continuous
 62
     7
 48
25.4
100
AcDbLine
 10
102.4113712839
 20
211.3055486722
 30
0.0
 11
102.5363665243
 21
211.1848421716
 31
0.0
  0
ARC
  5
324
330
A9
100
AcDbEntity
  8
Layer6
  6
Continuous
 62
     7
 48
25.4
100
AcDbCircle
 10
113.3567009809
 20
240.2411238775
 30
0.0
 40
0.125
100
AcDbArc
 50
90.0
 51
180.0
  0
LINE
  5
325
330
A9
100
AcDbEntity
  8
Layer7
  6
HIDDEN2
 62
     7
 48
25.4
100
AcDbLine
 10
108.8543143513
 20
208.4431261163
 30
0.0
 11
111.2995354337
 21
206.9738890879
 31
0.0
  0
LINE
  5
326
330
A9
100
AcDbEntity
  8
Layer7
  6
HIDDEN2
 62
     7
 48
25.4
100
AcDbLine
 10
111.6877605804
 20
221.9091252206
 30
0.0
 11
109.1533053786
 21
217.8531490489
 31
0.0
  0
ARC
  5
327
330
A9
100
AcDbEntity
  8
Default
  6
Continuous
 62
     7
 48
25.4
100
AcDbCircle
 10
153.6372541089
 20
240.8279169375
 30
0.0
 40
50.0
100
AcDbArc
 50
212.4857817416
 51
216.346148349
  0
LINE
  5
328
330
A9
100
AcDbEntity
  8
Layer5
  6
Continuous
 62
     7
 48
25.4
100
AcDbLine
 10
108.237278627
 20
223.6180161345
 30
0.0
 11
108.237278627
 21
224.0089955302
 31
0.0
  0
ARC
  5
329
330
A9
100
AcDbEntity
  8
Layer7
  6
HIDDEN2
 62
     7
 48
25.4
100
AcDbCircle
 10
117.8164096195
 20
218.0828615098
 30
0.0
 40
0.125
100
AcDbArc
 50
148.0
 51
236.9999995714
  0
LINE
  5
32A
330
A9
100
AcDbEntity
  8
Layer5
  6
Continuous
 62
     7
 48
25.4
100
AcDbLine
 10
110.9111560848
 20
213.9337513547
 30
0.0
 11
111.0613712839
 21
213.9337513547
 31
0.0
  0
ARC
  5
32B
330
A9
100
AcDbEntity
  8
Layer6
  6
Continuous
 62
     7
 48
25.4
100
AcDbCircle
 10
116.2125736234
 20
211.4945592491
 30
0.0
 40
0.2499999999999895
100
AcDbArc
 50
271.0000004286
 51
345.6800770734
  0
LINE
  5
32C
330
A9
100
AcDbEntity
  8
Layer6
  6
Continuous
 62
     7
 48
25.4
100
AcDbLine
 10
113.1045194291
 20
224.0380505076
 30
0.0
 11
108.6317009809
 21
224.1161238775
 31
0.0
  0
LINE
  5
32D
330
A9
100
AcDbEntity
  8
Layer5
  6
Continuous
 62
     7
 48
25.4
100
AcDbLine
 10
111.363714462
 20
213.8540247131
 30
0.0
 11
111.4610164261
 21
213.9734019553
 31
0.0
  0
ARC
  5
32E
330
A9
100
AcDbEntity
  8
Layer6
  6
Continuous
 62
     7
 48
25.4
100
AcDbCircle
 10
115.8567009809
 20
224.1189574116
 30
0.0
 40
0.125
100
AcDbArc
 50
180.0
 51
268.9999995714
  0
LINE
  5
32F
330
A9
100
AcDbEntity
  8
Layer7
  6
HIDDEN2
 62
     7
 48
25.4
100
AcDbLine
 10
124.3059758786
 20
233.1860382597
 30
0.0
 11
126.2140840949
 21
231.9937199151
 31
0.0
  0
ARC
  5
330
330
A9
100
AcDbEntity
  8
Layer5
  6
Continuous
 62
     7
 48
25.4
100
AcDbCircle
 10
106.6488441612
 20
217.5732352495
 30
0.0
 40
6.250000000000003
100
AcDbArc
 50
71.5028737714
 51
75.2768042539
  0
LINE
  5
332
330
A9
100
AcDbEntity
  8
Layer4
  6
Continuous
 62
     7
 48
25.4
100
AcDbLine
 10
102.4113712839
 20
224.0587513547
 30
0.0
 11
102.4113712839
 21
211.3055486722
 31
0.0
  0
ARC
  5
333
330
A9
100
AcDbEntity
  8
Layer6
  6
Continuous
 62
     7
 48
25.4
100
AcDbCircle
 10
113.1067009809
 20
224.1630314695
 30
0.0
 40
0.125
100
AcDbArc
 50
268.9999995714
 51
360.0
  0
ARC
  5
334
330
A9
100
AcDbEntity
  8
Layer7
  6
HIDDEN2
 62
     7
 48
25.4
100
AcDbCircle
 10
111.4282949508
 20
207.1881809141
 30
0.0
 40
0.2499999999999895
100
AcDbArc
 50
239.0000004286
 51
313.6800770734
  0
LINE
  5
335
330
A9
100
AcDbEntity
  8
Layer5
  6
Continuous
 62
     7
 48
25.4
100
AcDbLine
 10
111.363714462
 20
213.8540247131
 30
0.0
 11
111.0613712839
 21
213.8540247131
 31
0.0
  0
LINE
  5
336
330
A9
100
AcDbEntity
  8
Layer5
  6
Continuous
 62
     7
 48
25.4
100
AcDbLine
 10
111.0613712839
 20
213.9415247131
 30
0.0
 11
111.0613712839
 21
214.0965247131
 31
0.0
  0
ARC
  5
337
330
A9
100
AcDbEntity
  8
Layer7
  6
HIDDEN2
 62
     7
 48
25.4
100
AcDbCircle
 10
124.2397359705
 20
233.0800322476
 30
0.0
 40
0.125
100
AcDbArc
 50
58.0
 51
148.0
  0
LINE
  5
338
330
A9
100
AcDbEntity
  8
Layer5
  6
Continuous
 62
     7
 48
25.4
100
AcDbLine
 10
102.5352898629
 20
224.1826699336
 30
0.0
 11
102.5352898629
 21
211.1858818915
 31
0.0
  0
ARC
  5
339
330
A9
100
AcDbEntity
  8
Layer7
  6
HIDDEN2
 62
     7
 48
25.4
100
AcDbCircle
 10
110.2133654988
 20
217.1907499686
 30
0.0
 40
1.25
100
AcDbArc
 50
148.0
 51
174.1621536421
  0
SPLINE
  5
33A
330
A9
100
AcDbEntity
  8
Layer7
  6
HIDDEN2
 62
     7
 48
25.4
100
AcDbSpline
210
0.0
220
0.0
230
1.0
 70
     8
 71
     3
 72
     8
 73
     4
 74
     0
 42
0.0000000001
 43
0.0000000001
 40
0.0
 40
0.0
 40
0.0
 40
0.0
 40
1.0
 40
1.0
 40
1.0
 40
1.0
 10
115.4706099947917
 20
219.4786122847343
 30
0.0
 10
115.977451315946
 20
218.5827081886931
 30
0.0
 10
116.6970998575927
 20
218.0935966829597
 30
0.0
 10
117.7466442979089
 20
217.9345558176293
 30
0.0
  0
ARC
  5
33B
330
A9
100
AcDbEntity
  8
Layer5
  6
Continuous
 62
     7
 48
25.4
100
AcDbCircle
 10
108.112278627
 20
211.3585071792
 30
0.0
 40
0.125
100
AcDbArc
 50
270.5
 51
360.0
  0
ARC
  5
33C
330
A9
100
AcDbEntity
  8
Layer5
  6
Continuous
 62
     7
 48
25.4
100
AcDbCircle
 10
108.112278627
 20
224.0089955302
 30
0.0
 40
0.125
100
AcDbArc
 50
0.0
 51
89.5
  0
LINE
  5
33D
330
A9
100
AcDbEntity
  8
Layer5
  6
Continuous
 62
     7
 48
25.4
100
AcDbLine
 10
110.9111560848
 20
213.9337513547
 30
0.0
 11
111.0613712839
 21
213.9337513547
 31
0.0
  0
LINE
  5
33E
330
A9
100
AcDbEntity
  8
Layer6
  6
Continuous
 62
     7
 48
25.4
100
AcDbLine
 10
115.7317009809
 20
240.2411238775
 30
0.0
 11
115.7317009809
 21
224.1189574116
 31
0.0
  0
LINE
  5
33F
330
A9
100
AcDbEntity
  8
Layer6
  6
Continuous
 62
     7
 48
25.4
100
AcDbLine
 10
116.2169367269
 20
223.9876504296
 30
0.0
 11
115.8545194291
 21
223.9939764498
 31
0.0
  0
LINE
  5
340
330
A9
100
AcDbEntity
  8
Layer5
  6
Continuous
 62
     7
 48
25.4
100
AcDbLine
 10
111.363714462
 20
213.6915247131
 30
0.0
 11
111.0613712839
 21
213.6915247131
 31
0.0
  0
ARC
  5
341
330
A9
100
AcDbEntity
  8
Layer6
  6
Continuous
 62
     7
 48
25.4
100
AcDbCircle
 10
109.8817009809
 20
219.3334043712
 30
0.0
 40
1.25
100
AcDbArc
 50
180.0
 51
206.1621536421
  0
LINE
  5
342
330
A9
100
AcDbEntity
  8
Layer5
  6
Continuous
 62
     7
 48
25.4
100
AcDbLine
 10
111.363714462
 20
213.6915247131
 30
0.0
 11
111.363714462
 21
213.8540247131
 31
0.0
  0
LINE
  5
343
330
A9
100
AcDbEntity
  8
Layer5
  6
Continuous
 62
     7
 48
25.4
100
AcDbLine
 10
111.0613712839
 20
213.9337513547
 30
0.0
 11
110.9202702275
 21
213.9337513547
 31
0.0
  0
ARC
  5
344
330
A9
100
AcDbEntity
  8
Layer7
  6
HIDDEN2
 62
     7
 48
25.4
100
AcDbCircle
 10
158.7105353095
 20
212.2322199085
 30
0.0
 40
50.0
100
AcDbArc
 50
174.1621536421
 51
184.346148349
  0
ARC
  5
345
330
A9
100
AcDbEntity
  8
Layer7
  6
HIDDEN2
 62
     7
 48
25.4
100
AcDbCircle
 10
126.1478441869
 20
231.8877139031
 30
0.0
 40
0.125
100
AcDbArc
 50
328.0
 51
58.0
  0
LINE
  5
346
330
A9
100
AcDbEntity
  8
Layer6
  6
Continuous
 62
     7
 48
25.4
100
AcDbLine
 10
113.3567009809
 20
240.3661238775
 30
0.0
 11
115.6067009809
 21
240.3661238775
 31
0.0
  0
LINE
  5
347
330
A9
100
AcDbEntity
  8
Layer5
  6
Continuous
 62
     7
 48
25.4
100
AcDbLine
 10
110.9111560848
 20
213.9337513547
 30
0.0
 11
111.0613712839
 21
213.9337513547
 31
0.0
  0
LINE
  5
348
330
A9
100
AcDbEntity
  8
Layer7
  6
HIDDEN2
 62
     7
 48
25.4
100
AcDbLine
 10
126.2538501989
 20
231.8214739951
 30
0.0
 11
117.7104036075
 21
218.1491014178
 31
0.0
  0
LINE
  5
349
330
A9
100
AcDbEntity
  8
Layer6
  6
Continuous
 62
     7
 48
25.4
100
AcDbLine
 10
113.3567009809
 20
240.3661238775
 30
0.0
 11
115.6067009809
 21
240.3661238775
 31
0.0
  0
LINE
  5
34A
330
A9
100
AcDbEntity
  8
Layer7
  6
HIDDEN2
 62
     7
 48
25.4
100
AcDbLine
 10
115.4395531672
 20
219.4726825868
 30
0.0
 11
111.6877605804
 21
221.9091252206
 31
0.0
  0
ARC
  5
34B
330
A9
100
AcDbEntity
  8
Layer7
  6
HIDDEN2
 62
     7
 48
25.4
100
AcDbCircle
 10
115.5076330474
 20
219.5775164073
 30
0.0
 40
0.125
100
AcDbArc
 50
236.9999995714
 51
328.0
  0
LINE
  5
34C
330
A9
100
AcDbEntity
  8
Layer7
  6
HIDDEN2
 62
     7
 48
25.4
100
AcDbLine
 10
118.0523247588
 20
217.7806110121
 30
0.0
 11
117.7483297393
 21
217.9780276893
 31
0.0
  0
LINE
  5
34D
330
A9
100
AcDbEntity
  8
Layer5
  6
Continuous
 62
     7
 48
25.4
100
AcDbLine
 10
102.5352898629
 20
224.1826699336
 30
0.0
 11
108.1133694439
 21
224.1339907706
 31
0.0
  0
LINE
  5
34E
330
A9
100
AcDbEntity
  8
Layer6
  6
Continuous
 62
     7
 48
25.4
100
AcDbLine
 10
113.3646946382
 20
211.1948112332
 30
0.0
 11
116.2169367269
 21
211.2445973254
 31
0.0
  0
ARC
  5
34F
330
A9
100
AcDbEntity
  8
Layer6
  6
Continuous
 62
     7
 48
25.4
100
AcDbCircle
 10
116.2125736234
 20
223.7376885058
 30
0.0
 40
0.2499999999999986
100
AcDbArc
 50
14.3199229266
 51
88.9999995714
  0
ARC
  5
350
330
A9
100
AcDbEntity
  8
Layer6
  6
Continuous
 62
     7
 48
25.4
100
AcDbCircle
 10
115.6067009809
 20
240.2411238775
 30
0.0
 40
0.125
100
AcDbArc
 50
0.0
 51
90.0
  0
LINE
  5
351
330
A9
100
AcDbEntity
  8
Layer5
  6
Continuous
 62
     7
 48
25.4
100
AcDbLine
 10
102.5363665243
 20
211.1848421716
 30
0.0
 11
108.1133694439
 21
211.2335119388
 31
0.0
  0
SPLINE
  5
352
330
A9
100
AcDbEntity
  8
Layer5
  6
Continuous
 62
     7
 48
25.4
100
AcDbSpline
210
0.0
220
0.0
230
1.0
 70
    24
 71
     1
 72
     4
 73
     2
 74
     0
 42
0.0000000001
 43
0.0000000001
 40
0.0
 40
0.0
 40
1.0
 40
1.0
 10
111.061371283921
 20
213.9337513546917
 30
0.0
 10
110.9111560847804
 20
213.9337513546917
 30
0.0
  0
LINE
  5
353
330
A9
100
AcDbEntity
  8
DV2_Layer3
  6
Continuous
 62
     7
 48
25.4
100
AcDbLine
 10
117.0612892844
 20
284.6822871746
 30
0.0
 11
124.3747992072
 21
284.6822871746
 31
0.0
  0
ARC
  5
354
330
A9
100
AcDbEntity
  8
DV2_Layer2
  6
Continuous
 62
     7
 48
25.4
100
AcDbCircle
 10
141.7528122631
 20
257.1195602595
 30
0.0
 40
0.0374999999999924
100
AcDbArc
 50
100.0
 51
190.0
  0
ARC
  5
355
330
A9
100
AcDbEntity
  8
DV2_Layer2
  6
Continuous
 62
     7
 48
25.4
100
AcDbCircle
 10
146.3834246552
 20
255.116873047
 30
0.0
 40
4.249999999999814
100
AcDbArc
 50
190.0
 51
209.749923387
  0
LINE
  5
356
330
A9
100
AcDbEntity
  8
DV2_Layer2
  6
Continuous
 62
     7
 48
25.4
100
AcDbLine
 10
142.1979917049
 20
254.3788682919
 30
0.0
 11
141.7158819724
 21
257.1130484529
 31
0.0
  0
ARC
  5
357
330
A9
100
AcDbEntity
  8
DV2_Layer2
  6
Continuous
 62
     7
 48
25.4
100
AcDbCircle
 10
147.3415962906
 20
258.1050136729
 30
0.0
 40
0.0374999999999924
100
AcDbArc
 50
10.0
 51
100.0
  0
LINE
  5
358
330
A9
100
AcDbEntity
  8
DV2_Layer2
  6
Continuous
 62
     7
 48
25.4
100
AcDbLine
 10
147.335084484
 20
258.1419439637
 30
0.0
 11
141.7463004564
 21
257.1564905503
 31
0.0
  0
ARC
  5
359
330
A9
100
AcDbEntity
  8
DV2_Layer2
  6
Continuous
 62
     7
 48
25.4
100
AcDbCircle
 10
143.6752033636
 20
254.6393405636
 30
0.0
 40
4.249999999999814
100
AcDbArc
 50
350.250076613
 51
10.0
  0
LINE
  5
35A
330
A9
100
AcDbEntity
  8
DV2_Layer2
  6
Continuous
 62
     7
 48
25.4
100
AcDbLine
 10
147.863817577
 20
253.919610773
 30
0.0
 11
142.6935768736
 21
253.0079578403
 31
0.0
  0
LINE
  5
35B
330
A9
100
AcDbEntity
  8
DV2_Layer2
  6
Continuous
 62
     7
 48
25.4
100
AcDbLine
 10
147.8606363209
 20
255.3773452786
 30
0.0
 11
142.1979917119
 21
254.3788682519
 31
0.0
  0
LINE
  5
35C
330
A9
100
AcDbEntity
  8
DV2_Layer2
  6
Continuous
 62
     7
 48
25.4
100
AcDbLine
 10
147.8606363139
 20
255.3773453187
 30
0.0
 11
147.3785265814
 21
258.1115254796
 31
0.0
  0
ARC
  5
35E
330
A9
100
AcDbEntity
  8
DV2_Layer1
  6
Continuous
 62
     7
 48
25.4
100
AcDbCircle
 10
117.0612892844
 20
254.1822871746
 30
0.0
 40
30.5
100
AcDbArc
 50
10.0
 51
180.0
  0
LINE
  5
35F
330
A9
100
AcDbEntity
  8
DV2_Layer1
  6
Continuous
 62
     7
 48
25.4
100
AcDbLine
 10
86.5612892844
 20
228.4321500134
 30
0.0
 11
92.3112892844
 21
228.4321500134
 31
0.0
  0
LINE
  5
360
330
A9
100
AcDbEntity
  8
DV2_Layer1
  6
Continuous
 62
     7
 48
25.4
100
AcDbLine
 10
86.5612892844
 20
228.4321500134
 30
0.0
 11
89.4362892844
 21
228.4321500134
 31
0.0
  0
LINE
  5
361
330
A9
100
AcDbEntity
  8
DV2_Layer1
  6
Continuous
 62
     7
 48
25.4
100
AcDbLine
 10
86.5612892844
 20
228.4321500134
 30
0.0
 11
86.5612892844
 21
228.1821500134
 31
0.0
  0
LINE
  5
362
330
A9
100
AcDbEntity
  8
DV2_Layer1
  6
Continuous
 62
     7
 48
25.4
100
AcDbLine
 10
92.3112892844
 20
228.4321500134
 30
0.0
 11
92.3112892844
 21
228.1821500134
 31
0.0
  0
LINE
  5
363
330
A9
100
AcDbEntity
  8
DV2_Layer1
  6
Continuous
 62
     7
 48
25.4
100
AcDbLine
 10
92.3112892844
 20
228.4321500134
 30
0.0
 11
89.4362892844
 21
228.4321500134
 31
0.0
  0
LINE
  5
364
330
A9
100
AcDbEntity
  8
DV2_Layer1
  6
Continuous
 62
     7
 48
25.4
100
AcDbLine
 10
92.3112892844
 20
228.1821500134
 30
0.0
 11
89.4362892844
 21
228.1821500134
 31
0.0
  0
LINE
  5
365
330
A9
100
AcDbEntity
  8
DV2_Layer1
  6
Continuous
 62
     7
 48
25.4
100
AcDbLine
 10
86.5612892844
 20
228.1821500134
 30
0.0
 11
89.4362892844
 21
228.1821500134
 31
0.0
  0
LINE
  5
366
330
A9
100
AcDbEntity
  8
DV2_Layer1
  6
Continuous
 62
     7
 48
25.4
100
AcDbLine
 10
147.0979257513
 20
259.4785565935
 30
0.0
 11
147.3048130142
 21
258.527936498
 31
0.0
  0
LINE
  5
367
330
A9
100
AcDbEntity
  8
DV2_Layer1
  6
Continuous
 62
     7
 48
25.4
100
AcDbLine
 10
141.4352811715
 20
258.4800795719
 30
0.0
 11
141.6427291113
 21
257.5295583389
 31
0.0
  0
ARC
  5
368
330
A9
100
AcDbEntity
  8
DV2_Layer1
  6
Continuous
 62
     7
 48
25.4
100
AcDbCircle
 10
117.0612892844
 20
254.1822871746
 30
0.0
 40
24.75
100
AcDbArc
 50
10.0
 51
180.0
  0
LINE
  5
369
330
A9
100
AcDbEntity
  8
DV2_Layer1
  6
Continuous
 62
     7
 48
25.4
100
AcDbLine
 10
92.3112892844
 20
228.4321500134
 30
0.0
 11
86.5612892844
 21
228.4321500134
 31
0.0
  0
LINE
  5
36A
330
A9
100
AcDbEntity
  8
DV2_Layer1
  6
Continuous
 62
     7
 48
25.4
100
AcDbLine
 10
141.8324711494
 20
257.1716847684
 30
0.0
 11
147.248913791
 21
258.1267497455
 31
0.0
  0
ARC
  5
36B
330
A9
100
AcDbEntity
  8
DV2_Layer1
  6
Continuous
 62
     7
 48
25.4
100
AcDbCircle
 10
146.8136692401
 20
258.4342466205
 30
0.0
 40
0.5
100
AcDbArc
 50
344.9999999997
 51
13.7561940038
  0
LINE
  5
36C
330
A9
100
AcDbEntity
  8
DV2_Layer1
  6
Continuous
 62
     7
 48
25.4
100
AcDbLine
 10
147.248913791
 20
258.1267497455
 30
0.0
 11
147.2966321533
 21
258.304837098
 31
0.0
  0
ARC
  5
36D
330
A9
100
AcDbEntity
  8
DV2_Layer1
  6
Continuous
 62
     7
 48
25.4
100
AcDbCircle
 10
142.1362971169
 20
257.6094997164
 30
0.0
 40
0.5
100
AcDbArc
 50
189.2000909686
 51
215.0
  0
LINE
  5
36E
330
A9
100
AcDbEntity
  8
DV2_Layer1
  6
Continuous
 62
     7
 48
25.4
100
AcDbLine
 10
141.7267210947
 20
257.3227114982
 30
0.0
 11
141.8324711494
 21
257.1716847684
 31
0.0
  0
LINE
  5
36F
330
A9
100
AcDbEntity
  8
DV2_Layer1
  6
Continuous
 62
     7
 48
25.4
100
AcDbLine
 10
86.5612892844
 20
254.1822871746
 30
0.0
 11
86.5612892844
 21
228.4321500134
 31
0.0
  0
LINE
  5
370
330
A9
100
AcDbEntity
  8
DV2_Layer1
  6
Continuous
 62
     7
 48
25.4
100
AcDbLine
 10
92.3112892844
 20
228.4321500134
 30
0.0
 11
92.3112892844
 21
254.1822871746
 31
0.0
  0
LINE
  5
371
330
A9
100
AcDbEntity
  8
DV2_Layer1
  6
CENTER2
 62
     7
 48
25.4
100
AcDbLine
 10
89.4362892844
 20
195.7736138189
 30
0.0
 11
89.4362892844
 21
229.5590875975
 31
0.0
  0
LINE
  5
373
330
A9
100
AcDbEntity
  8
DV2_Standard
  6
CENTER2
 62
     7
 48
25.4
100
AcDbLine
 10
80.5765866931
 20
217.6821500134
 30
0.0
 11
80.5767913993
 21
217.5809805146
 31
0.0
  0
ARC
  5
375
330
A9
100
AcDbEntity
  8
DV2_Layer4
  6
Continuous
 62
     7
 48
25.4
100
AcDbCircle
 10
102.2863712839
 20
224.0571500134
 30
0.0
 40
0.1250000000000001
100
AcDbArc
 50
0.0
 51
90.0
  0
LINE
  5
376
330
A9
100
AcDbEntity
  8
DV2_Layer5
  6
Continuous
 62
     7
 48
25.4
100
AcDbLine
 10
102.4113712839
 20
223.6196500134
 30
0.0
 11
102.4113712839
 21
224.0571500134
 31
0.0
  0
ARC
  5
377
330
A9
100
AcDbEntity
  8
DV2_Layer4
  6
Continuous
 62
     7
 48
25.4
100
AcDbCircle
 10
81.532356616
 20
224.0571500134
 30
0.0
 40
0.1249999999999949
100
AcDbArc
 50
90.0
 51
165.1504721945
  0
ARC
  5
378
330
A9
100
AcDbEntity
  8
DV2_Layer4
  6
Continuous
 62
     7
 48
25.4
100
AcDbCircle
 10
81.532356616
 20
211.3071500134
 30
0.0
 40
0.1250000000000001
100
AcDbArc
 50
194.8495278055
 51
270.0
  0
LINE
  5
379
330
A9
100
AcDbEntity
  8
DV2_Layer5
  6
Continuous
 62
     7
 48
25.4
100
AcDbLine
 10
102.4113712839
 20
211.3071500134
 30
0.0
 11
102.4113712839
 21
211.7446500134
 31
0.0
  0
LINE
  5
37A
330
A9
100
AcDbEntity
  8
DV2_Layer4
  6
Continuous
 62
     7
 48
25.4
100
AcDbLine
 10
93.9613712839
 20
211.1821500134
 30
0.0
 11
102.2863712839
 21
211.1821500134
 31
0.0
  0
ARC
  5
37B
330
A9
100
AcDbEntity
  8
DV2_Layer4
  6
Continuous
 62
     7
 48
25.4
100
AcDbCircle
 10
89.4363712839
 20
229.7655945472
 30
0.0
 40
6.530697444530827
100
AcDbArc
 50
238.7546301157
 51
301.2453698843
  0
SPLINE
  5
37C
330
A9
100
AcDbEntity
  8
DV2_Layer4
  6
Continuous
 62
     7
 48
25.4
100
AcDbSpline
210
0.0
220
0.0
230
1.0
 70
     8
 71
     3
 72
    30
 73
    26
 74
     0
 42
0.0000000001
 43
0.0000000001
 40
0.0
 40
0.0
 40
0.0
 40
0.0
 40
0.0624999999999998
 40
0.0624999999999998
 40
0.1249999999999997
 40
0.1249999999999997
 40
0.2499999999999994
 40
0.2499999999999994
 40
0.3124999999999995
 40
0.3124999999999995
 40
0.3749999999999996
 40
0.3749999999999996
 40
0.4374999999999996
 40
0.4374999999999996
 40
0.4999999999999997
 40
0.4999999999999997
 40
0.6249999999999998
 40
0.6249999999999998
 40
0.7499999999999999
 40
0.7499999999999999
 40
0.875
 40
0.875
 40
0.9375
 40
0.9375
 40
1.0
 40
1.0
 40
1.0
 40
1.0
 10
84.9113712839209
 20
211.1821500134314
 30
0.0
 10
84.9113712839209
 20
211.1821500134314
 30
0.0
 10
84.94308335013037
 20
211.2043387844014
 30
0.0
 10
85.06560878496298
 20
211.2887184868334
 30
0.0
 10
85.15798075925035
 20
211.3519507317839
 30
0.0
 10
85.5079021262372
 20
211.5848608798909
 30
0.0
 10
85.84336116702288
 20
211.8023376813091
 30
0.0
 10
86.45105832255953
 20
212.1451388551003
 30
0.0
 10
86.67440226066128
 20
212.2637080231704
 30
0.0
 10
87.14779626580271
 20
212.4890183638454
 30
0.0
 10
87.39896513011139
 20
212.5966660386288
 30
0.0
 10
87.9368733457211
 20
212.7872937858125
 30
0.0
 10
88.22529710733132
 20
212.869982563895
 30
0.0
 10
88.816425265972
 20
212.9837898775598
 30
0.0
 10
89.12768881401844
 20
213.0157719081671
 30
0.0
 10
90.05028150055416
 20
213.0159995904008
 30
0.0
 10
90.65851447769212
 20
212.8852066379058
 30
0.0
 10
91.74320730637709
 20
212.5015589085072
 30
0.0
 10
92.21490202417159
 20
212.2617668354534
 30
0.0
 10
93.03288482050203
 20
211.8003789926929
 30
0.0
 10
93.36197373156368
 20
211.5867541116665
 30
0.0
 10
93.71513329026965
 20
211.3517108728542
 30
0.0
 10
93.80568137028352
 20
211.2897144362732
 30
0.0
 10
93.92942784624262
 20
211.2045023501551
 30
0.0
 10
93.9613712839209
 20
211.1821500134314
 30
0.0
 10
93.9613712839209
 20
211.1821500134314
 30
0.0
  0
ARC
  5
37D
330
A9
100
AcDbEntity
  8
DV2_Layer4
  6
Continuous
 62
     7
 48
25.4
100
AcDbCircle
 10
102.2863712839
 20
211.3071500134
 30
0.0
 40
0.1250000000000001
100
AcDbArc
 50
270.0
 51
360.0
  0
LINE
  5
37E
330
A9
100
AcDbEntity
  8
DV2_Layer4
  6
Continuous
 62
     7
 48
25.4
100
AcDbLine
 10
102.2863712839
 20
224.1821500134
 30
0.0
 11
92.8238712839
 21
224.1821500134
 31
0.0
  0
LINE
  5
37F
330
A9
100
AcDbEntity
  8
DV2_Layer4
  6
Continuous
 62
     7
 48
25.4
100
AcDbLine
 10
86.0488712839
 20
224.1821500134
 30
0.0
 11
81.532356616
 21
224.1821500134
 31
0.0
  0
ARC
  5
380
330
A9
100
AcDbEntity
  8
DV2_Layer4
  6
Continuous
 62
     7
 48
25.4
100
AcDbCircle
 10
105.5765866931
 20
217.6821500134
 30
0.0
 40
24.99999999999999
100
AcDbArc
 50
165.1504721945
 51
194.8495278055
  0
LINE
  5
381
330
A9
100
AcDbEntity
  8
DV2_Layer4
  6
Continuous
 62
     7
 48
25.4
100
AcDbLine
 10
81.532356616
 20
211.1821500134
 30
0.0
 11
84.9113712839
 21
211.1821500134
 31
0.0
  0
LINE
  5
383
330
A9
100
AcDbEntity
  8
DV2_Layer10
  6
Continuous
 62
     7
 48
25.4
100
AcDbLine
 10
92.8112892844
 20
227.4821500134
 30
0.0
 11
90.1612892844
 21
227.4821500134
 31
0.0
  0
LINE
  5
384
330
A9
100
AcDbEntity
  8
DV2_Layer10
  6
Continuous
 62
     7
 48
25.4
100
AcDbLine
 10
90.1612892844
 20
227.4821500134
 30
0.0
 11
90.1612892844
 21
227.0946500134
 31
0.0
  0
LINE
  5
385
330
A9
100
AcDbEntity
  8
DV2_Layer10
  6
Continuous
 62
     7
 48
25.4
100
AcDbLine
 10
92.8112892844
 20
228.1821500134
 30
0.0
 11
86.0612892844
 21
228.1821500134
 31
0.0
  0
LINE
  5
386
330
A9
100
AcDbEntity
  8
DV2_Layer10
  6
Continuous
 62
     7
 48
25.4
100
AcDbLine
 10
86.0612892844
 20
228.1821500134
 30
0.0
 11
86.0612892844
 21
224.1746348256
 31
0.0
  0
LINE
  5
387
330
A9
100
AcDbEntity
  8
DV2_Layer10
  6
Continuous
 62
     7
 48
25.4
100
AcDbLine
 10
92.8112892844
 20
224.174535828
 30
0.0
 11
92.8112892844
 21
227.0946500134
 31
0.0
  0
LINE
  5
388
330
A9
100
AcDbEntity
  8
DV2_Layer10
  6
Continuous
 62
     7
 48
25.4
100
AcDbLine
 10
90.1612892844
 20
227.0946500134
 30
0.0
 11
92.8112892844
 21
227.0946500134
 31
0.0
  0
LINE
  5
389
330
A9
100
AcDbEntity
  8
DV2_Layer10
  6
Continuous
 62
     7
 48
25.4
100
AcDbLine
 10
92.8112892844
 20
227.4821500134
 30
0.0
 11
92.8112892844
 21
228.1821500134
 31
0.0
  0
LINE
  5
38B
330
A9
100
AcDbEntity
  8
DV2_Layer8
  6
Continuous
 62
     7
 48
25.4
100
AcDbLine
 10
93.9362892844
 20
196.7571500135
 30
0.0
 11
93.9362892844
 21
211.199607221
 31
0.0
  0
LINE
  5
38C
330
A9
100
AcDbEntity
  8
DV2_Layer8
  6
Continuous
 62
     7
 48
25.4
100
AcDbLine
 10
84.9362892844
 20
211.1994928708
 30
0.0
 11
84.9362892844
 21
196.7571500135
 31
0.0
  0
LINE
  5
38E
330
A9
100
AcDbEntity
  8
DV2_020
  6
Continuous
 62
     7
 48
25.4
100
AcDbLine
 10
84.9362892844
 20
196.7571500134
 30
0.0
 11
93.9362892844
 21
196.7571500134
 31
0.0
  0
LINE
  5
38F
330
A9
100
AcDbEntity
  8
DV2_Layer9
  6
Continuous
 62
     7
 48
25.4
100
AcDbLine
 10
96.1862892845
 20
196.3524046563
 30
0.0
 11
96.1862892845
 21
195.6321500134
 31
0.0
  0
ARC
  5
390
330
A9
100
AcDbEntity
  8
DV2_Layer9
  6
Continuous
 62
     7
 48
25.4
100
AcDbCircle
 10
96.0612892844
 20
196.3524046563
 30
0.0
 40
0.1250000000322556
100
AcDbArc
 50
0.0
 51
80.0439961473
  0
ARC
  5
391
330
A9
100
AcDbEntity
  8
DV2_Layer9
  6
Continuous
 62
     7
 48
25.4
100
AcDbCircle
 10
91.7606029062
 20
171.8520021764
 30
0.0
 40
25.00000000003063
100
AcDbArc
 50
80.0439961473
 51
85.0073783738
  0
LINE
  5
392
330
A9
100
AcDbEntity
  8
DV2_Layer9
  6
Continuous
 62
     7
 48
25.4
100
AcDbLine
 10
82.6862892844
 20
196.3524046563
 30
0.0
 11
82.6862892844
 21
195.6321500134
 31
0.0
  0
ARC
  5
393
330
A9
100
AcDbEntity
  8
DV2_Layer9
  6
Continuous
 62
     7
 48
25.4
100
AcDbCircle
 10
82.8112892844
 20
196.3524046563
 30
0.0
 40
0.1250000000019594
100
AcDbArc
 50
99.9560038535
 51
180.0
  0
ARC
  5
394
330
A9
100
AcDbEntity
  8
DV2_Layer9
  6
Continuous
 62
     7
 48
25.4
100
AcDbCircle
 10
87.1119756631
 20
171.8520021765
 30
0.0
 40
25.00000000000001
100
AcDbArc
 50
94.9926216271
 51
99.9560038536
  0
LINE
  5
395
330
A9
100
AcDbEntity
  8
DV2_Layer10
  6
Continuous
 62
     7
 48
25.4
100
AcDbLine
 10
91.6099849363
 20
227.4571500134
 30
0.0
 11
90.1612892844
 21
227.4571500134
 31
0.0
  0
LINE
  5
396
330
A9
100
AcDbEntity
  8
DV2_Layer10
  6
Continuous
 62
     7
 48
25.4
100
AcDbLine
 10
91.3099849363
 20
227.1821500134
 30
0.0
 11
91.3099849363
 21
227.3321500134
 31
0.0
  0
ARC
  5
397
330
A9
100
AcDbEntity
  8
DV2_Layer10
  6
Continuous
 62
     7
 48
25.4
100
AcDbCircle
 10
91.4349849363
 20
227.1821500134
 30
0.0
 40
0.1250000000000001
100
AcDbArc
 50
180.0
 51
224.4270040009
  0
ARC
  5
398
330
A9
100
AcDbEntity
  8
DV2_Layer10
  6
Continuous
 62
     7
 48
25.4
100
AcDbCircle
 10
91.4349849363
 20
227.3321500134
 30
0.0
 40
0.1250000000000018
100
AcDbArc
 50
90.0
 51
180.0
  0
ARC
  5
399
330
A9
100
AcDbEntity
  8
DV2_Layer10
  6
Continuous
 62
     7
 48
25.4
100
AcDbCircle
 10
91.6099849363
 20
227.5821500134
 30
0.0
 40
0.125
100
AcDbArc
 50
270.0
 51
306.8698976458
  0
LINE
  5
39A
330
A9
100
AcDbEntity
  8
DV2_Layer18
  6
Continuous
 62
     7
 48
25.4
100
AcDbLine
 10
80.5085219635
 20
149.767897819
 30
0.0
 11
79.9079841332
 21
147.5266601242
 31
0.0
  0
LINE
  5
39B
330
A9
100
AcDbEntity
  8
DV2_Layer18
  6
Continuous
 62
     7
 48
25.4
100
AcDbLine
 10
80.1344094434
 20
147.5489152673
 30
0.0
 11
79.9838310543
 21
147.8097246876
 31
0.0
  0
LINE
  5
39C
330
A9
100
AcDbEntity
  8
DV2_Layer18
  6
Continuous
 62
     7
 48
25.4
100
AcDbLine
 10
83.1563547075
 20
147.0927084079
 30
0.0
 11
82.7381349526
 21
146.8512491198
 31
0.0
  0
LINE
  5
39D
330
A9
100
AcDbEntity
  8
DV2_Layer18
  6
Continuous
 62
     7
 48
25.4
100
AcDbLine
 10
83.0679744741
 20
146.7628688863
 30
0.0
 11
83.6477808989
 21
148.9267359224
 31
0.0
  0
LINE
  5
39E
330
A9
100
AcDbEntity
  8
DV2_Layer18
  6
Continuous
 62
     7
 48
25.4
100
AcDbLine
 10
96.8046040947
 20
146.7628688863
 30
0.0
 11
96.2247976699
 21
148.9267359224
 31
0.0
  0
LINE
  5
39F
330
A9
100
AcDbEntity
  8
DV2_Layer18
  6
Continuous
 62
     7
 48
25.4
100
AcDbLine
 10
96.7162238613
 20
147.0927084079
 30
0.0
 11
97.1344436163
 21
146.8512491198
 31
0.0
  0
LINE
  5
3A0
330
A9
100
AcDbEntity
  8
DV2_Layer18
  6
Continuous
 62
     7
 48
25.4
100
AcDbLine
 10
99.7381691255
 20
147.5489152673
 30
0.0
 11
99.8887475145
 21
147.8097246876
 31
0.0
  0
LINE
  5
3A1
330
A9
100
AcDbEntity
  8
DV2_Layer18
  6
Continuous
 62
     7
 48
25.4
100
AcDbLine
 10
99.3640566053
 20
149.767897819
 30
0.0
 11
99.9438630302
 21
147.6040307829
 31
0.0
  0
ENDBLK
  5
3A3
330
A9
100
AcDbEntity
  8
0
100
AcDbBlockEnd
  0
BLOCK
  5
3DC
330
3A4
100
AcDbEntity
  8
0
100
AcDbBlockBegin
  2
SE2
 70
     0
 71
     0
 10
0.0
 20
0.0
 30
0.0
  3
SE2
  1

  0
LINE
  5
3A7
330
3A4
100
AcDbEntity
  8
DV3_ﾃﾞﾌｫﾙﾄ
  6
Continuous
 62
     7
 48
25.4
100
AcDbLine
 10
109.2236309183
 20
118.2840575866
 30
0.0
 11
109.4787860998
 21
118.5392127681
 31
0.0
  0
LINE
  5
3A8
330
3A4
100
AcDbEntity
  8
DV3_ﾃﾞﾌｫﾙﾄ
  6
Continuous
 62
     7
 48
25.4
100
AcDbLine
 10
105.9433178055
 20
126.9814050059
 30
0.0
 11
105.4386206675
 21
128.8649603672
 31
0.0
  0
LINE
  5
3A9
330
3A4
100
AcDbEntity
  8
DV3_ﾃﾞﾌｫﾙﾄ
  6
Continuous
 62
     7
 48
25.4
100
AcDbLine
 10
105.4386206675
 20
128.8649603672
 30
0.0
 11
105.4256797153
 21
128.9132566585
 31
0.0
  0
LINE
  5
3AA
330
3A4
100
AcDbEntity
  8
DV3_ﾃﾞﾌｫﾙﾄ
  6
Continuous
 62
     7
 48
25.4
100
AcDbLine
 10
101.4025986488
 20
127.8352753356
 30
0.0
 11
101.920236739
 21
125.903423683
 31
0.0
  0
LINE
  5
3AB
330
3A4
100
AcDbEntity
  8
DV3_ﾃﾞﾌｫﾙﾄ
  6
Continuous
 62
     7
 48
25.4
100
AcDbLine
 10
108.8354023506
 20
118.1800320554
 30
0.0
 11
109.2236309183
 21
118.2840575866
 31
0.0
  0
LINE
  5
3AC
330
3A4
100
AcDbEntity
  8
DV3_ﾃﾞﾌｫﾙﾄ
  6
Continuous
 62
     7
 48
25.4
100
AcDbLine
 10
109.4670333126
 20
118.5360636183
 30
0.0
 11
109.4787860998
 21
118.5392127681
 31
0.0
  0
LINE
  5
3AD
330
3A4
100
AcDbEntity
  8
DV3_ﾃﾞﾌｫﾙﾄ
  6
Continuous
 62
     7
 48
25.4
100
AcDbLine
 10
108.1103781104
 20
118.1725489525
 30
0.0
 11
107.6358120025
 21
118.0453893471
 31
0.0
  0
LINE
  5
3AE
330
3A4
100
AcDbEntity
  8
DV3_ﾃﾞﾌｫﾙﾄ
  6
Continuous
 62
     7
 48
25.4
100
AcDbLine
 10
101.6250196578
 20
125.3920926992
 30
0.0
 11
102.4228293644
 21
122.4146263397
 31
0.0
  0
LINE
  5
3AF
330
3A4
100
AcDbEntity
  8
DV3_ﾃﾞﾌｫﾙﾄ
  6
Continuous
 62
     7
 48
25.4
100
AcDbLine
 10
104.922501598
 20
117.3183600154
 30
0.0
 11
103.527685367
 21
122.5238850567
 31
0.0
  0
LINE
  5
3B0
330
3A4
100
AcDbEntity
  8
DV3_ﾃﾞﾌｫﾙﾄ
  6
Continuous
 62
     7
 48
25.4
100
AcDbLine
 10
104.8376439301
 20
123.0616739525
 30
0.0
 11
102.3280950189
 21
122.3892423483
 31
0.0
  0
LINE
  5
3B1
330
3A4
100
AcDbEntity
  8
DV3_ﾃﾞﾌｫﾙﾄ
  6
Continuous
 62
     7
 48
25.4
100
AcDbLine
 10
107.3471928413
 20
123.7341055566
 30
0.0
 11
107.735421409
 21
123.8381310878
 31
0.0
  0
LINE
  5
3B2
330
3A4
100
AcDbEntity
  8
DV3_ﾃﾞﾌｫﾙﾄ
  6
Continuous
 62
     7
 48
25.4
100
AcDbLine
 10
107.3471928413
 20
123.7341055566
 30
0.0
 11
104.8376439301
 21
123.0616739525
 31
0.0
  0
LINE
  5
3B3
330
3A4
100
AcDbEntity
  8
DV3_ﾃﾞﾌｫﾙﾄ
  6
Continuous
 62
     7
 48
25.4
100
AcDbLine
 10
108.0722170816
 20
123.7415886596
 30
0.0
 11
109.4670333126
 21
118.5360636183
 31
0.0
  0
LINE
  5
3B4
330
3A4
100
AcDbEntity
  8
DV3_ﾃﾞﾌｫﾙﾄ
  6
Continuous
 62
     7
 48
25.4
100
AcDbLine
 10
106.2409957715
 20
123.2509143884
 30
0.0
 11
107.6358120025
 21
118.0453893471
 31
0.0
  0
ARC
  5
3B5
330
3A4
100
AcDbEntity
  8
DV3_ﾃﾞﾌｫﾙﾄ
  6
Continuous
 62
     7
 48
25.4
100
AcDbCircle
 10
104.8203244989
 20
123.0391105244
 30
0.0
 40
5.732732426951718
100
AcDbArc
 50
285.2255677025
 51
299.4145432705
  0
LINE
  5
3B6
330
3A4
100
AcDbEntity
  8
DV3_ﾃﾞﾌｫﾙﾄ
  6
Continuous
 62
     7
 48
25.4
100
AcDbLine
 10
101.6847112697
 20
122.0300616356
 30
0.0
 11
103.0795275007
 21
116.8245365943
 31
0.0
  0
LINE
  5
3B7
330
3A4
100
AcDbEntity
  8
DV3_ﾃﾞﾌｫﾙﾄ
  6
Continuous
 62
     7
 48
25.4
100
AcDbLine
 10
103.0795275007
 20
116.8245365943
 30
0.0
 11
103.4280759606
 21
116.731143316
 31
0.0
  0
LINE
  5
3B8
330
3A4
100
AcDbEntity
  8
DV3_ﾃﾞﾌｫﾙﾄ
  6
Continuous
 62
     7
 48
25.4
100
AcDbLine
 10
109.4787860998
 20
118.5392127681
 30
0.0
 11
108.0839698688
 21
123.7447378094
 31
0.0
  0
LINE
  5
3B9
330
3A4
100
AcDbEntity
  8
DV3_ﾃﾞﾌｫﾙﾄ
  6
Continuous
 62
     7
 48
25.4
100
AcDbLine
 10
101.9398664512
 20
122.2852168172
 30
0.0
 11
101.6847112697
 21
122.0300616356
 31
0.0
  0
LINE
  5
3BA
330
3A4
100
AcDbEntity
  8
DV3_ﾃﾞﾌｫﾙﾄ
  6
Continuous
 62
     7
 48
25.4
100
AcDbLine
 10
106.4546487893
 20
126.6861879248
 30
0.0
 11
105.9433178055
 21
126.9814050059
 31
0.0
  0
LINE
  5
3BB
330
3A4
100
AcDbEntity
  8
DV3_ﾃﾞﾌｫﾙﾄ
  6
Continuous
 62
     7
 48
25.4
100
AcDbLine
 10
101.920236739
 20
125.903423683
 30
0.0
 11
101.6250196578
 21
125.3920926992
 31
0.0
  0
ARC
  5
3BC
330
3A4
100
AcDbEntity
  8
DV3_ﾃﾞﾌｫﾙﾄ
  6
Continuous
 62
     7
 48
25.4
100
AcDbCircle
 10
102.7057892524
 20
120.9220165369
 30
0.0
 40
1.515059244984744
100
AcDbArc
 50
76.7469759335
 51
104.4357017506
  0
ARC
  5
3BD
330
3A4
100
AcDbEntity
  8
DV3_ﾃﾞﾌｫﾙﾄ
  6
Continuous
 62
     7
 48
25.4
100
AcDbCircle
 10
106.299572658
 20
117.5184812376
 30
0.0
 40
5.732732426951498
100
AcDbArc
 50
90.5854567295
 51
104.7744322975
  0
LINE
  5
3BE
330
3A4
100
AcDbEntity
  8
DV3_ﾃﾞﾌｫﾙﾄ
  6
Continuous
 62
     7
 48
25.4
100
AcDbLine
 10
108.0839698688
 20
123.7447378094
 30
0.0
 11
107.735421409
 21
123.8381310878
 31
0.0
  0
LINE
  5
3BF
330
3A4
100
AcDbEntity
  8
DV3_ﾃﾞﾌｫﾙﾄ
  6
Continuous
 62
     7
 48
25.4
100
AcDbLine
 10
103.8163045282
 20
116.8351688472
 30
0.0
 11
103.4280759606
 21
116.731143316
 31
0.0
  0
LINE
  5
3C0
330
3A4
100
AcDbEntity
  8
DV3_ﾃﾞﾌｫﾙﾄ
  6
Continuous
 62
     7
 48
25.4
100
AcDbLine
 10
103.0912802879
 20
116.8276857442
 30
0.0
 11
103.0795275007
 21
116.8245365943
 31
0.0
  0
LINE
  5
3C1
330
3A4
100
AcDbEntity
  8
DV3_ﾃﾞﾌｫﾙﾄ
  6
Continuous
 62
     7
 48
25.4
100
AcDbLine
 10
106.3258534394
 20
117.5076004513
 30
0.0
 11
103.8163045282
 21
116.8351688472
 31
0.0
  0
LINE
  5
3C2
330
3A4
100
AcDbEntity
  8
DV3_ﾃﾞﾌｫﾙﾄ
  6
Continuous
 62
     7
 48
25.4
100
AcDbLine
 10
104.922501598
 20
117.3183600154
 30
0.0
 11
104.4479354901
 21
117.19120041
 31
0.0
  0
LINE
  5
3C3
330
3A4
100
AcDbEntity
  8
DV3_ﾃﾞﾌｫﾙﾄ
  6
Continuous
 62
     7
 48
25.4
100
AcDbLine
 10
108.8354023506
 20
118.1800320554
 30
0.0
 11
106.3258534394
 21
117.5076004513
 31
0.0
  0
LINE
  5
3C4
330
3A4
100
AcDbEntity
  8
DV3_ﾃﾞﾌｫﾙﾄ
  6
Continuous
 62
     7
 48
25.4
100
AcDbLine
 10
101.920236739
 20
125.903423683
 30
0.0
 11
105.9433178055
 21
126.9814050059
 31
0.0
  0
LINE
  5
3C5
330
3A4
100
AcDbEntity
  8
DV3_ﾃﾞﾌｫﾙﾄ
  6
Continuous
 62
     7
 48
25.4
100
AcDbLine
 10
101.6250196578
 20
125.3920926992
 30
0.0
 11
106.4546487893
 21
126.6861879248
 31
0.0
  0
ARC
  5
3C6
330
3A4
100
AcDbEntity
  8
DV3_ﾃﾞﾌｫﾙﾄ
  6
Continuous
 62
     7
 48
25.4
100
AcDbCircle
 10
107.7248870749
 20
122.2668797452
 30
0.0
 40
1.515059244985238
100
AcDbArc
 50
76.7469759335
 51
104.4357017506
  0
ARC
  5
3C7
330
3A4
100
AcDbEntity
  8
DV3_ﾃﾞﾌｫﾙﾄ
  6
Continuous
 62
     7
 48
25.4
100
AcDbCircle
 10
103.4386102946
 20
118.3023946586
 30
0.0
 40
1.515059244984832
100
AcDbArc
 50
256.7469759335
 51
284.4357017506
  0
SPLINE
  5
3C8
330
3A4
100
AcDbEntity
  8
DV3_ﾃﾞﾌｫﾙﾄ
  6
Continuous
 62
     7
 48
25.4
100
AcDbSpline
210
0.0
220
0.0
230
1.0
 70
     8
 71
     3
 72
    10
 73
     6
 74
     0
 42
0.0000000001
 43
0.0000000001
 40
0.0
 40
0.0
 40
0.0
 40
0.0
 40
0.331050674891237
 40
0.6643343268119648
 40
1.0
 40
1.0
 40
1.0
 40
1.0
 10
106.7155618793653
 20
123.3780739937229
 30
0.0
 10
106.7862445184837
 20
123.4381251183855
 30
0.0
 10
106.9037003462029
 20
123.5321532468494
 30
0.0
 10
107.1289208120523
 20
123.6628193304886
 30
0.0
 10
107.2633818825345
 20
123.709507693981
 30
0.0
 10
107.3471928413011
 20
123.7341055565898
 30
0.0
  0
SPLINE
  5
3C9
330
3A4
100
AcDbEntity
  8
DV3_ﾃﾞﾌｫﾙﾄ
  6
Continuous
 62
     7
 48
25.4
100
AcDbSpline
210
0.0
220
0.0
230
1.0
 70
     8
 71
     3
 72
    10
 73
     6
 74
     0
 42
0.0000000001
 43
0.0000000001
 40
0.0
 40
0.0
 40
0.0
 40
0.0
 40
0.3310506748912376
 40
0.6643343268119656
 40
1.0
 40
1.0
 40
1.0
 40
1.0
 10
109.4670333125764
 20
118.5360636182945
 30
0.0
 10
109.3963506734581
 20
118.4760124936319
 30
0.0
 10
109.2788948457388
 20
118.381984365168
 30
0.0
 10
109.0536743798894
 20
118.2513182815288
 30
0.0
 10
108.9192133094073
 20
118.2046299180364
 30
0.0
 10
108.8354023506407
 20
118.1800320554276
 30
0.0
  0
ARC
  5
3CA
330
3A4
100
AcDbEntity
  8
DV3_ﾃﾞﾌｫﾙﾄ
  6
Continuous
 62
     7
 48
25.4
100
AcDbCircle
 10
104.7976649422
 20
123.5421562773
 30
0.0
 40
6.225048120265308
100
AcDbArc
 50
271.1490823642
 51
284.2108066628
  0
ARC
  5
3CB
330
3A4
100
AcDbEntity
  8
DV3_ﾃﾞﾌｫﾙﾄ
  6
Continuous
 62
     7
 48
25.4
100
AcDbCircle
 10
106.5314717827
 20
117.071501058
 30
0.0
 40
6.225048120265103
100
AcDbArc
 50
105.7891933372
 51
118.8509176358
  0
LINE
  5
3CC
330
3A4
100
AcDbEntity
  8
DV3_ﾃﾞﾌｫﾙﾄ
  6
Continuous
 62
     7
 48
25.4
100
AcDbLine
 10
108.1103781104
 20
118.1725489525
 30
0.0
 11
106.7155618794
 21
123.3780739937
 31
0.0
  0
ARC
  5
3CD
330
3A4
100
AcDbEntity
  8
DV3_ﾃﾞﾌｫﾙﾄ
  6
Continuous
 62
     7
 48
25.4
100
AcDbCircle
 10
108.4577081171
 20
119.6472578669
 30
0.0
 40
1.515059244985342
100
AcDbArc
 50
256.7469759335
 51
284.4357017506
  0
LINE
  5
3CE
330
3A4
100
AcDbEntity
  8
DV3_ﾃﾞﾌｫﾙﾄ
  6
Continuous
 62
     7
 48
25.4
100
AcDbLine
 10
103.0912802879
 20
116.8276857442
 30
0.0
 11
101.6964640569
 21
122.0332107855
 31
0.0
  0
SPLINE
  5
3CF
330
3A4
100
AcDbEntity
  8
DV3_ﾃﾞﾌｫﾙﾄ
  6
Continuous
 62
     7
 48
25.4
100
AcDbSpline
210
0.0
220
0.0
230
1.0
 70
     8
 71
     3
 72
    10
 73
     6
 74
     0
 42
0.0000000001
 43
0.0000000001
 40
0.0
 40
0.0
 40
0.0
 40
0.0
 40
0.3310506748912369
 40
0.664334326811964
 40
1.0
 40
1.0
 40
1.0
 40
1.0
 10
101.6964640569385
 20
122.0332107854708
 30
0.0
 10
101.7671466960569
 20
122.0932619101334
 30
0.0
 10
101.8846025237761
 20
122.1872900385973
 30
0.0
 10
102.1098229896255
 20
122.3179561222365
 30
0.0
 10
102.2442840601077
 20
122.3646444857289
 30
0.0
 10
102.3280950188743
 20
122.3892423483377
 30
0.0
  0
LINE
  5
3D0
330
3A4
100
AcDbEntity
  8
DV3_ﾃﾞﾌｫﾙﾄ
  6
Continuous
 62
     7
 48
25.4
100
AcDbLine
 10
103.0531192592
 20
122.3967254513
 30
0.0
 11
104.4479354901
 21
117.19120041
 31
0.0
  0
SPLINE
  5
3D1
330
3A4
100
AcDbEntity
  8
DV3_ﾃﾞﾌｫﾙﾄ
  6
Continuous
 62
     7
 48
25.4
100
AcDbSpline
210
0.0
220
0.0
230
1.0
 70
     8
 71
     3
 72
    10
 73
     6
 74
     0
 42
0.0000000001
 43
0.0000000001
 40
0.0
 40
0.0
 40
0.0
 40
0.0
 40
0.3310506748912349
 40
0.6643343268119639
 40
1.0
 40
1.0
 40
1.0
 40
1.0
 10
104.4479354901497
 20
117.1912004100424
 30
0.0
 10
104.3772528510313
 20
117.1311492853798
 30
0.0
 10
104.259797023312
 20
117.0371211569159
 30
0.0
 10
104.0345765574626
 20
116.9064550732767
 30
0.0
 10
103.9001154869805
 20
116.8597667097843
 30
0.0
 10
103.8163045282139
 20
116.8351688471755
 30
0.0
  0
LINE
  5
3D2
330
3A4
100
AcDbEntity
  8
DV3_ﾃﾞﾌｫﾙﾄ
  6
Continuous
 62
     7
 48
25.4
100
AcDbLine
 10
102.3280950189
 20
122.3892423483
 30
0.0
 11
101.9398664512
 21
122.2852168172
 31
0.0
  0
LINE
  5
3D3
330
3A4
100
AcDbEntity
  8
DV3_ﾃﾞﾌｫﾙﾄ
  6
Continuous
 62
     7
 48
25.4
100
AcDbLine
 10
101.6964640569
 20
122.0332107855
 30
0.0
 11
101.6847112697
 21
122.0300616356
 31
0.0
  0
LINE
  5
3D4
330
3A4
100
AcDbEntity
  8
DV3_ﾃﾞﾌｫﾙﾄ
  6
Continuous
 62
     7
 48
25.4
100
AcDbLine
 10
108.0722170816
 20
123.7415886596
 30
0.0
 11
108.0839698688
 21
123.7447378094
 31
0.0
  0
LINE
  5
3D5
330
3A4
100
AcDbEntity
  8
DV3_ﾃﾞﾌｫﾙﾄ
  6
Continuous
 62
     7
 48
25.4
100
AcDbLine
 10
107.2524584958
 20
123.7087215652
 30
0.0
 11
106.4546487893
 21
126.6861879248
 31
0.0
  0
LINE
  5
3D6
330
3A4
100
AcDbEntity
  8
DV3_ﾃﾞﾌｫﾙﾄ
  6
Continuous
 62
     7
 48
25.4
100
AcDbLine
 10
106.7155618794
 20
123.3780739937
 30
0.0
 11
106.2409957715
 21
123.2509143884
 31
0.0
  0
LINE
  5
3D7
330
3A4
100
AcDbEntity
  8
DV3_ﾃﾞﾌｫﾙﾄ
  6
Continuous
 62
     7
 48
25.4
100
AcDbLine
 10
103.527685367
 20
122.5238850567
 30
0.0
 11
103.0531192592
 21
122.3967254513
 31
0.0
  0
LINE
  5
3D8
330
3A4
100
AcDbEntity
  8
DV3_ﾃﾞﾌｫﾙﾄ
  6
HIDDEN2
 62
     7
 48
25.4
100
AcDbLine
 10
103.7200702515
 20
117.1096130428
 30
0.0
 11
103.2774896843
 21
118.7613462057
 31
0.0
  0
LINE
  5
3D9
330
3A4
100
AcDbEntity
  8
DV3_ﾃﾞﾌｫﾙﾄ
  6
HIDDEN2
 62
     7
 48
25.4
100
AcDbLine
 10
108.7815215812
 20
118.4658248391
 30
0.0
 11
108.3389410141
 21
120.117558002
 31
0.0
  0
LINE
  5
3DA
330
3A4
100
AcDbEntity
  8
DV3_ﾃﾞﾌｫﾙﾄ
  6
Continuous
 62
     7
 48
25.4
100
AcDbLine
 10
105.6197939991
 20
128.1888122888
 30
0.0
 11
101.5967129326
 21
127.1108309659
 31
0.0
  0
LINE
  5
3DB
330
3A4
100
AcDbEntity
  8
DV3_ﾃﾞﾌｫﾙﾄ
  6
Continuous
 62
     7
 48
25.4
100
AcDbLine
 10
101.4025986488
 20
127.8352753356
 30
0.0
 11
105.4256797153
 21
128.9132566585
 31
0.0
  0
ENDBLK
  5
3DD
330
3A4
100
AcDbEntity
  8
0
100
AcDbBlockEnd
  0
BLOCK
  5
416
330
3DE
100
AcDbEntity
  8
0
100
AcDbBlockBegin
  2
SE3
 70
     0
 71
     0
 10
0.0
 20
0.0
 30
0.0
  3
SE3
  1

  0
LINE
  5
3E1
330
3DE
100
AcDbEntity
  8
DV4_ﾃﾞﾌｫﾙﾄ
  6
Continuous
 62
     7
 48
25.4
100
AcDbLine
 10
76.4445026083
 20
116.731143316
 30
0.0
 11
76.7930510682
 21
116.8245365943
 31
0.0
  0
LINE
  5
3E2
330
3DE
100
AcDbEntity
  8
DV4_ﾃﾞﾌｫﾙﾄ
  6
Continuous
 62
     7
 48
25.4
100
AcDbLine
 10
77.9523418299
 20
125.903423683
 30
0.0
 11
78.4570389678
 21
127.7869790443
 31
0.0
  0
LINE
  5
3E3
330
3DE
100
AcDbEntity
  8
DV4_ﾃﾞﾌｫﾙﾄ
  6
Continuous
 62
     7
 48
25.4
100
AcDbLine
 10
78.4570389678
 20
127.7869790443
 30
0.0
 11
78.4699799201
 21
127.8352753356
 31
0.0
  0
LINE
  5
3E4
330
3DE
100
AcDbEntity
  8
DV4_ﾃﾞﾌｫﾙﾄ
  6
Continuous
 62
     7
 48
25.4
100
AcDbLine
 10
74.4468988536
 20
128.9132566585
 30
0.0
 11
73.9292607634
 21
126.9814050059
 31
0.0
  0
LINE
  5
3E5
330
3DE
100
AcDbEntity
  8
DV4_ﾃﾞﾌｫﾙﾄ
  6
Continuous
 62
     7
 48
25.4
100
AcDbLine
 10
76.0562740406
 20
116.8351688472
 30
0.0
 11
76.4445026083
 21
116.731143316
 31
0.0
  0
LINE
  5
3E6
330
3DE
100
AcDbEntity
  8
DV4_ﾃﾞﾌｫﾙﾄ
  6
Continuous
 62
     7
 48
25.4
100
AcDbLine
 10
76.7812982809
 20
116.8276857442
 30
0.0
 11
76.7930510682
 21
116.8245365943
 31
0.0
  0
LINE
  5
3E7
330
3DE
100
AcDbEntity
  8
DV4_ﾃﾞﾌｫﾙﾄ
  6
Continuous
 62
     7
 48
25.4
100
AcDbLine
 10
75.4246430787
 20
117.19120041
 30
0.0
 11
74.9500769708
 21
117.3183600154
 31
0.0
  0
LINE
  5
3E8
330
3DE
100
AcDbEntity
  8
DV4_ﾃﾞﾌｫﾙﾄ
  6
Continuous
 62
     7
 48
25.4
100
AcDbLine
 10
73.4179297796
 20
126.6861879248
 30
0.0
 11
72.620120073
 21
123.7087215652
 31
0.0
  0
LINE
  5
3E9
330
3DE
100
AcDbEntity
  8
DV4_ﾃﾞﾌｫﾙﾄ
  6
Continuous
 62
     7
 48
25.4
100
AcDbLine
 10
72.2367665664
 20
118.0453893471
 30
0.0
 11
73.6315827974
 21
123.2509143884
 31
0.0
  0
LINE
  5
3EA
330
3DE
100
AcDbEntity
  8
DV4_ﾃﾞﾌｫﾙﾄ
  6
Continuous
 62
     7
 48
25.4
100
AcDbLine
 10
75.0349346388
 20
123.0616739525
 30
0.0
 11
72.5253857275
 21
123.7341055566
 31
0.0
  0
LINE
  5
3EB
330
3DE
100
AcDbEntity
  8
DV4_ﾃﾞﾌｫﾙﾄ
  6
Continuous
 62
     7
 48
25.4
100
AcDbLine
 10
77.54448355
 20
122.3892423483
 30
0.0
 11
77.9327121176
 21
122.2852168172
 31
0.0
  0
LINE
  5
3EC
330
3DE
100
AcDbEntity
  8
DV4_ﾃﾞﾌｫﾙﾄ
  6
Continuous
 62
     7
 48
25.4
100
AcDbLine
 10
77.54448355
 20
122.3892423483
 30
0.0
 11
75.0349346388
 21
123.0616739525
 31
0.0
  0
LINE
  5
3ED
330
3DE
100
AcDbEntity
  8
DV4_ﾃﾞﾌｫﾙﾄ
  6
Continuous
 62
     7
 48
25.4
100
AcDbLine
 10
78.1761145119
 20
122.0332107855
 30
0.0
 11
76.7812982809
 21
116.8276857442
 31
0.0
  0
LINE
  5
3EE
330
3DE
100
AcDbEntity
  8
DV4_ﾃﾞﾌｫﾙﾄ
  6
Continuous
 62
     7
 48
25.4
100
AcDbLine
 10
76.3448932018
 20
122.5238850567
 30
0.0
 11
74.9500769708
 21
117.3183600154
 31
0.0
  0
ARC
  5
3EF
330
3DE
100
AcDbEntity
  8
DV4_ﾃﾞﾌｫﾙﾄ
  6
Continuous
 62
     7
 48
25.4
100
AcDbCircle
 10
75.0086538573
 20
123.0507931661
 30
0.0
 40
5.732732426951718
100
AcDbArc
 50
255.2255677025
 51
269.4145432705
  0
LINE
  5
3F0
330
3DE
100
AcDbEntity
  8
DV4_ﾃﾞﾌｫﾙﾄ
  6
Continuous
 62
     7
 48
25.4
100
AcDbLine
 10
71.7886087
 20
123.7447378094
 30
0.0
 11
70.393792469
 21
118.5392127681
 31
0.0
  0
LINE
  5
3F1
330
3DE
100
AcDbEntity
  8
DV4_ﾃﾞﾌｫﾙﾄ
  6
Continuous
 62
     7
 48
25.4
100
AcDbLine
 10
70.393792469
 20
118.5392127681
 30
0.0
 11
70.6489476505
 21
118.2840575866
 31
0.0
  0
LINE
  5
3F2
330
3DE
100
AcDbEntity
  8
DV4_ﾃﾞﾌｫﾙﾄ
  6
Continuous
 62
     7
 48
25.4
100
AcDbLine
 10
76.7930510682
 20
116.8245365943
 30
0.0
 11
78.1878672992
 21
122.0300616356
 31
0.0
  0
LINE
  5
3F3
330
3DE
100
AcDbEntity
  8
DV4_ﾃﾞﾌｫﾙﾄ
  6
Continuous
 62
     7
 48
25.4
100
AcDbLine
 10
72.1371571599
 20
123.8381310878
 30
0.0
 11
71.7886087
 21
123.7447378094
 31
0.0
  0
LINE
  5
3F4
330
3DE
100
AcDbEntity
  8
DV4_ﾃﾞﾌｫﾙﾄ
  6
Continuous
 62
     7
 48
25.4
100
AcDbLine
 10
78.247558911
 20
125.3920926992
 30
0.0
 11
77.9523418299
 21
125.903423683
 31
0.0
  0
LINE
  5
3F5
330
3DE
100
AcDbEntity
  8
DV4_ﾃﾞﾌｫﾙﾄ
  6
Continuous
 62
     7
 48
25.4
100
AcDbLine
 10
73.9292607634
 20
126.9814050059
 30
0.0
 11
73.4179297796
 21
126.6861879248
 31
0.0
  0
ARC
  5
3F6
330
3DE
100
AcDbEntity
  8
DV4_ﾃﾞﾌｫﾙﾄ
  6
Continuous
 62
     7
 48
25.4
100
AcDbCircle
 10
72.118865623
 20
122.274603614
 30
0.0
 40
1.515059244984744
100
AcDbArc
 50
46.7469759335
 51
74.4357017506
  0
ARC
  5
3F7
330
3DE
100
AcDbEntity
  8
DV4_ﾃﾞﾌｫﾙﾄ
  6
Continuous
 62
     7
 48
25.4
100
AcDbCircle
 10
73.5294056982
 20
117.5301638794
 30
0.0
 40
5.732732426951498
100
AcDbArc
 50
60.5854567295
 51
74.7744322975
  0
LINE
  5
3F8
330
3DE
100
AcDbEntity
  8
DV4_ﾃﾞﾌｫﾙﾄ
  6
Continuous
 62
     7
 48
25.4
100
AcDbLine
 10
78.1878672992
 20
122.0300616356
 30
0.0
 11
77.9327121176
 21
122.2852168172
 31
0.0
  0
LINE
  5
3F9
330
3DE
100
AcDbEntity
  8
DV4_ﾃﾞﾌｫﾙﾄ
  6
Continuous
 62
     7
 48
25.4
100
AcDbLine
 10
71.0371762182
 20
118.1800320554
 30
0.0
 11
70.6489476505
 21
118.2840575866
 31
0.0
  0
LINE
  5
3FA
330
3DE
100
AcDbEntity
  8
DV4_ﾃﾞﾌｫﾙﾄ
  6
Continuous
 62
     7
 48
25.4
100
AcDbLine
 10
70.4055452563
 20
118.5360636183
 30
0.0
 11
70.393792469
 21
118.5392127681
 31
0.0
  0
LINE
  5
3FB
330
3DE
100
AcDbEntity
  8
DV4_ﾃﾞﾌｫﾙﾄ
  6
Continuous
 62
     7
 48
25.4
100
AcDbLine
 10
73.5467251294
 20
117.5076004513
 30
0.0
 11
71.0371762182
 21
118.1800320554
 31
0.0
  0
LINE
  5
3FC
330
3DE
100
AcDbEntity
  8
DV4_ﾃﾞﾌｫﾙﾄ
  6
Continuous
 62
     7
 48
25.4
100
AcDbLine
 10
72.2367665664
 20
118.0453893471
 30
0.0
 11
71.7622004585
 21
118.1725489525
 31
0.0
  0
LINE
  5
3FD
330
3DE
100
AcDbEntity
  8
DV4_ﾃﾞﾌｫﾙﾄ
  6
Continuous
 62
     7
 48
25.4
100
AcDbLine
 10
76.0562740406
 20
116.8351688472
 30
0.0
 11
73.5467251294
 21
117.5076004513
 31
0.0
  0
LINE
  5
3FE
330
3DE
100
AcDbEntity
  8
DV4_ﾃﾞﾌｫﾙﾄ
  6
Continuous
 62
     7
 48
25.4
100
AcDbLine
 10
73.9292607634
 20
126.9814050059
 30
0.0
 11
77.9523418299
 21
125.903423683
 31
0.0
  0
LINE
  5
3FF
330
3DE
100
AcDbEntity
  8
DV4_ﾃﾞﾌｫﾙﾄ
  6
Continuous
 62
     7
 48
25.4
100
AcDbLine
 10
73.4179297796
 20
126.6861879248
 30
0.0
 11
78.247558911
 21
125.3920926992
 31
0.0
  0
ARC
  5
400
330
3DE
100
AcDbEntity
  8
DV4_ﾃﾞﾌｫﾙﾄ
  6
Continuous
 62
     7
 48
25.4
100
AcDbCircle
 10
77.1379634454
 20
120.9297404058
 30
0.0
 40
1.515059244985238
100
AcDbArc
 50
46.7469759335
 51
74.4357017506
  0
ARC
  5
401
330
3DE
100
AcDbEntity
  8
DV4_ﾃﾞﾌｫﾙﾄ
  6
Continuous
 62
     7
 48
25.4
100
AcDbCircle
 10
71.4436963228
 20
119.639533998
 30
0.0
 40
1.515059244984832
100
AcDbArc
 50
226.7469759335
 51
254.4357017506
  0
SPLINE
  5
402
330
3DE
100
AcDbEntity
  8
DV4_ﾃﾞﾌｫﾙﾄ
  6
Continuous
 62
     7
 48
25.4
100
AcDbSpline
210
0.0
220
0.0
230
1.0
 70
     8
 71
     3
 72
    10
 73
     6
 74
     0
 42
0.0000000001
 43
0.0000000001
 40
0.0
 40
0.0
 40
0.0
 40
0.0
 40
0.331050674891237
 40
0.6643343268119648
 40
1.0
 40
1.0
 40
1.0
 40
1.0
 10
76.81945930967827
 20
122.3967254513138
 30
0.0
 10
76.91069783309258
 20
122.4133899312382
 30
0.0
 10
77.05943162795195
 20
122.4360927652987
 30
0.0
 10
77.31981131464926
 20
122.4366426802185
 30
0.0
 10
77.45960219925304
 20
122.409845453823
 30
0.0
 10
77.54448354996488
 20
122.3892423483377
 30
0.0
  0
SPLINE
  5
403
330
3DE
100
AcDbEntity
  8
DV4_ﾃﾞﾌｫﾙﾄ
  6
Continuous
 62
     7
 48
25.4
100
AcDbSpline
210
0.0
220
0.0
230
1.0
 70
     8
 71
     3
 72
    10
 73
     6
 74
     0
 42
0.0000000001
 43
0.0000000001
 40
0.0
 40
0.0
 40
0.0
 40
0.0
 40
0.3310506748912376
 40
0.6643343268119656
 40
1.0
 40
1.0
 40
1.0
 40
1.0
 10
76.78129828091203
 20
116.8276857441994
 30
0.0
 10
76.69005975749772
 20
116.811021264275
 30
0.0
 10
76.54132596263834
 20
116.7883184302145
 30
0.0
 10
76.28094627594103
 20
116.7877685152947
 30
0.0
 10
76.14115539133724
 20
116.8145657416902
 30
0.0
 10
76.05627404062541
 20
116.8351688471755
 30
0.0
  0
ARC
  5
404
330
3DE
100
AcDbEntity
  8
DV4_ﾃﾞﾌｫﾙﾄ
  6
Continuous
 62
     7
 48
25.4
100
AcDbCircle
 10
75.240552982
 20
123.4977733458
 30
0.0
 40
6.225048120265308
100
AcDbArc
 50
241.1490823642
 51
254.2108066628
  0
ARC
  5
405
330
3DE
100
AcDbEntity
  8
DV4_ﾃﾞﾌｫﾙﾄ
  6
Continuous
 62
     7
 48
25.4
100
AcDbCircle
 10
73.5067461415
 20
117.0271181265
 30
0.0
 40
6.225048120265103
100
AcDbArc
 50
75.7891933372
 51
88.8509176358
  0
LINE
  5
406
330
3DE
100
AcDbEntity
  8
DV4_ﾃﾞﾌｫﾙﾄ
  6
Continuous
 62
     7
 48
25.4
100
AcDbLine
 10
75.4246430787
 20
117.19120041
 30
0.0
 11
76.8194593097
 21
122.3967254513
 31
0.0
  0
ARC
  5
407
330
3DE
100
AcDbEntity
  8
DV4_ﾃﾞﾌｫﾙﾄ
  6
Continuous
 62
     7
 48
25.4
100
AcDbCircle
 10
76.4627941452
 20
118.2946707898
 30
0.0
 40
1.515059244985342
100
AcDbArc
 50
226.7469759335
 51
254.4357017506
  0
LINE
  5
408
330
3DE
100
AcDbEntity
  8
DV4_ﾃﾞﾌｫﾙﾄ
  6
Continuous
 62
     7
 48
25.4
100
AcDbLine
 10
70.4055452563
 20
118.5360636183
 30
0.0
 11
71.8003614873
 21
123.7415886596
 31
0.0
  0
SPLINE
  5
409
330
3DE
100
AcDbEntity
  8
DV4_ﾃﾞﾌｫﾙﾄ
  6
Continuous
 62
     7
 48
25.4
100
AcDbSpline
210
0.0
220
0.0
230
1.0
 70
     8
 71
     3
 72
    10
 73
     6
 74
     0
 42
0.0000000001
 43
0.0000000001
 40
0.0
 40
0.0
 40
0.0
 40
0.0
 40
0.3310506748912369
 40
0.664334326811964
 40
1.0
 40
1.0
 40
1.0
 40
1.0
 10
71.80036148725141
 20
123.7415886595658
 30
0.0
 10
71.89160001066573
 20
123.7582531394903
 30
0.0
 10
72.04033380552511
 20
123.7809559735507
 30
0.0
 10
72.30071349222241
 20
123.7815058884706
 30
0.0
 10
72.44050437682623
 20
123.7547086620751
 30
0.0
 10
72.52538572753805
 20
123.7341055565897
 30
0.0
  0
LINE
  5
40A
330
3DE
100
AcDbEntity
  8
DV4_ﾃﾞﾌｫﾙﾄ
  6
Continuous
 62
     7
 48
25.4
100
AcDbLine
 10
73.1570166895
 20
123.3780739937
 30
0.0
 11
71.7622004585
 21
118.1725489525
 31
0.0
  0
SPLINE
  5
40B
330
3DE
100
AcDbEntity
  8
DV4_ﾃﾞﾌｫﾙﾄ
  6
Continuous
 62
     7
 48
25.4
100
AcDbSpline
210
0.0
220
0.0
230
1.0
 70
     8
 71
     3
 72
    10
 73
     6
 74
     0
 42
0.0000000001
 43
0.0000000001
 40
0.0
 40
0.0
 40
0.0
 40
0.0
 40
0.3310506748912349
 40
0.6643343268119639
 40
1.0
 40
1.0
 40
1.0
 40
1.0
 10
71.76220045848524
 20
118.1725489524515
 30
0.0
 10
71.67096193507092
 20
118.155884472527
 30
0.0
 10
71.52222814021154
 20
118.1331816384666
 30
0.0
 10
71.26184845351423
 20
118.1326317235467
 30
0.0
 10
71.12205756891042
 20
118.1594289499422
 30
0.0
 10
71.0371762181986
 20
118.1800320554276
 30
0.0
  0
LINE
  5
40C
330
3DE
100
AcDbEntity
  8
DV4_ﾃﾞﾌｫﾙﾄ
  6
Continuous
 62
     7
 48
25.4
100
AcDbLine
 10
72.5253857275
 20
123.7341055566
 30
0.0
 11
72.1371571599
 21
123.8381310878
 31
0.0
  0
LINE
  5
40D
330
3DE
100
AcDbEntity
  8
DV4_ﾃﾞﾌｫﾙﾄ
  6
Continuous
 62
     7
 48
25.4
100
AcDbLine
 10
71.8003614873
 20
123.7415886596
 30
0.0
 11
71.7886087
 21
123.7447378094
 31
0.0
  0
LINE
  5
40E
330
3DE
100
AcDbEntity
  8
DV4_ﾃﾞﾌｫﾙﾄ
  6
Continuous
 62
     7
 48
25.4
100
AcDbLine
 10
78.1761145119
 20
122.0332107855
 30
0.0
 11
78.1878672992
 21
122.0300616356
 31
0.0
  0
LINE
  5
40F
330
3DE
100
AcDbEntity
  8
DV4_ﾃﾞﾌｫﾙﾄ
  6
Continuous
 62
     7
 48
25.4
100
AcDbLine
 10
77.4497492045
 20
122.4146263397
 30
0.0
 11
78.247558911
 21
125.3920926992
 31
0.0
  0
LINE
  5
410
330
3DE
100
AcDbEntity
  8
DV4_ﾃﾞﾌｫﾙﾄ
  6
Continuous
 62
     7
 48
25.4
100
AcDbLine
 10
76.8194593097
 20
122.3967254513
 30
0.0
 11
76.3448932018
 21
122.5238850567
 31
0.0
  0
LINE
  5
411
330
3DE
100
AcDbEntity
  8
DV4_ﾃﾞﾌｫﾙﾄ
  6
Continuous
 62
     7
 48
25.4
100
AcDbLine
 10
73.6315827974
 20
123.2509143884
 30
0.0
 11
73.1570166895
 21
123.3780739937
 31
0.0
  0
LINE
  5
412
330
3DE
100
AcDbEntity
  8
DV4_ﾃﾞﾌｫﾙﾄ
  6
HIDDEN2
 62
     7
 48
25.4
100
AcDbLine
 10
71.0910569876
 20
118.4658248391
 30
0.0
 11
71.5336375547
 21
120.117558002
 31
0.0
  0
LINE
  5
413
330
3DE
100
AcDbEntity
  8
DV4_ﾃﾞﾌｫﾙﾄ
  6
HIDDEN2
 62
     7
 48
25.4
100
AcDbLine
 10
76.1525083174
 20
117.1096130428
 30
0.0
 11
76.5950888845
 21
118.7613462057
 31
0.0
  0
LINE
  5
414
330
3DE
100
AcDbEntity
  8
DV4_ﾃﾞﾌｫﾙﾄ
  6
Continuous
 62
     7
 48
25.4
100
AcDbLine
 10
78.2758656362
 20
127.1108309659
 30
0.0
 11
74.2527845697
 21
128.1888122888
 31
0.0
  0
LINE
  5
415
330
3DE
100
AcDbEntity
  8
DV4_ﾃﾞﾌｫﾙﾄ
  6
Continuous
 62
     7
 48
25.4
100
AcDbLine
 10
74.4468988536
 20
128.9132566585
 30
0.0
 11
78.4699799201
 21
127.8352753356
 31
0.0
  0
ENDBLK
  5
417
330
3DE
100
AcDbEntity
  8
0
100
AcDbBlockEnd
  0
BLOCK
  5
423
330
418
100
AcDbEntity
  8
0
100
AcDbBlockBegin
  2
GDimGGroup4
 70
     0
 71
     0
 10
0.0
 20
0.0
 30
0.0
  3
GDimGGroup4
  1

  0
HATCH
  5
41A
330
418
100
AcDbEntity
  8
Default
  6
Continuous
 62
   136
 48
25.4
100
AcDbHatch
 10
0.0
 20
0.0
 30
0.0
210
0.0
220
0.0
230
1.0
  2
SOLID
 70
     1
 71
     0
 91
        1
 92
        1
 93
        3
 72
     1
 10
95.43628933657358
 20
269.7840475161099
 11
89.43628928441952
 21
268.7840475074176
 72
     1
 10
89.43628928441952
 20
268.7840475074176
 11
95.43628933657358
 21
267.7840474987253
 72
     1
 10
95.43628933657358
 20
267.7840474987253
 11
95.43628933657358
 21
269.7840475161099
 97
        0
 75
     0
 76
     1
 98
        0
  0
LWPOLYLINE
  5
41B
330
418
100
AcDbEntity
  8
Default
  6
Continuous
 62
   136
 48
25.4
370
    30
100
AcDbPolyline
 90
        4
 70
     1
 43
0.0
 10
95.4362893366
 20
269.7840475161
 10
89.4362892844
 20
268.7840475074
 10
95.4362893366
 20
267.7840474987
 10
95.4362893366
 20
269.7840475161
  0
HATCH
  5
41C
330
418
100
AcDbEntity
  8
Default
  6
Continuous
 62
   136
 48
25.4
100
AcDbHatch
 10
0.0
 20
0.0
 30
0.0
210
0.0
220
0.0
230
1.0
  2
SOLID
 70
     1
 71
     0
 91
        1
 92
        1
 93
        3
 72
     1
 10
139.2786971731468
 20
269.7840475161099
 11
139.2786971731468
 21
267.7840474987253
 72
     1
 10
139.2786971731468
 20
267.7840474987253
 11
145.2786972253009
 21
268.7840475074176
 72
     1
 10
145.2786972253009
 20
268.7840475074176
 11
139.2786971731468
 21
269.7840475161099
 97
        0
 75
     0
 76
     1
 98
        0
  0
LWPOLYLINE
  5
41D
330
418
100
AcDbEntity
  8
Default
  6
Continuous
 62
   136
 48
25.4
370
    30
100
AcDbPolyline
 90
        4
 70
     1
 43
0.0
 10
139.2786971731
 20
269.7840475161
 10
145.2786972253
 20
268.7840475074
 10
139.2786971731
 20
267.7840474987
 10
139.2786971731
 20
269.7840475161
  0
LINE
  5
41E
330
418
100
AcDbEntity
  8
Default
  6
Continuous
 62
     7
 48
25.4
100
AcDbLine
 10
89.4362892844
 20
229.5590875975
 30
0.0
 11
89.4362892844
 21
271.7840475335
 31
0.0
  0
LINE
  5
41F
330
418
100
AcDbEntity
  8
Default
  6
Continuous
 62
     7
 48
25.4
100
AcDbLine
 10
145.2786972253
 20
253.4637843067
 30
0.0
 11
145.2786972253
 21
271.7840475335
 31
0.0
  0
LINE
  5
420
330
418
100
AcDbEntity
  8
Default
  6
Continuous
 62
     7
 48
25.4
100
AcDbLine
 10
89.4362892844
 20
268.7840475074
 30
0.0
 11
108.2140136399
 21
268.7840475074
 31
0.0
  0
LINE
  5
421
330
418
100
AcDbEntity
  8
Default
  6
Continuous
 62
     7
 48
25.4
100
AcDbLine
 10
126.5009710072
 20
268.7840475074
 30
0.0
 11
145.2786972253
 21
268.7840475074
 31
0.0
  0
TEXT
  5
422
330
418
100
AcDbEntity
  8
Default
  6
Continuous
 62
     7
 48
25.4
100
AcDbText
 10
110.3140145474
 20
265.7840475074
 30
0.0
 40
6.0
  1
223
  7
SEACAD_arial_ttf
 11
110.3140145474
 21
271.7840475074
 31
0.0
100
AcDbText
 73
     3
  0
ENDBLK
  5
424
330
418
100
AcDbEntity
  8
0
100
AcDbBlockEnd
  0
BLOCK
  5
430
330
425
100
AcDbEntity
  8
0
100
AcDbBlockBegin
  2
GDimGGroup5
 70
     0
 71
     0
 10
0.0
 20
0.0
 30
0.0
  3
GDimGGroup5
  1

  0
HATCH
  5
427
330
425
100
AcDbEntity
  8
Default
  6
Continuous
 62
   136
 48
25.4
100
AcDbHatch
 10
0.0
 20
0.0
 30
0.0
210
0.0
220
0.0
230
1.0
  2
SOLID
 70
     1
 71
     0
 91
        1
 92
        1
 93
        3
 72
     1
 10
95.43628933657358
 20
251.7840482909703
 11
89.43628928441952
 21
250.784048282278
 72
     1
 10
89.43628928441952
 20
250.784048282278
 11
95.43628933657358
 21
249.7840482735856
 72
     1
 10
95.43628933657358
 20
249.7840482735856
 11
95.43628933657358
 21
251.7840482909703
 97
        0
 75
     0
 76
     1
 98
        0
  0
LWPOLYLINE
  5
428
330
425
100
AcDbEntity
  8
Default
  6
Continuous
 62
   136
 48
25.4
370
    30
100
AcDbPolyline
 90
        4
 70
     1
 43
0.0
 10
95.4362893366
 20
251.784048291
 10
89.4362892844
 20
250.7840482823
 10
95.4362893366
 20
249.7840482736
 10
95.4362893366
 20
251.784048291
  0
HATCH
  5
429
330
425
100
AcDbEntity
  8
Default
  6
Continuous
 62
   136
 48
25.4
100
AcDbHatch
 10
0.0
 20
0.0
 30
0.0
210
0.0
220
0.0
230
1.0
  2
SOLID
 70
     1
 71
     0
 91
        1
 92
        1
 93
        3
 72
     1
 10
120.2728441347204
 20
251.7840482909703
 11
120.2728441347204
 21
249.7840482735856
 72
     1
 10
120.2728441347204
 20
249.7840482735856
 11
126.2728441868745
 21
250.784048282278
 72
     1
 10
126.2728441868745
 20
250.784048282278
 11
120.2728441347204
 21
251.7840482909703
 97
        0
 75
     0
 76
     1
 98
        0
  0
LWPOLYLINE
  5
42A
330
425
100
AcDbEntity
  8
Default
  6
Continuous
 62
   136
 48
25.4
370
    30
100
AcDbPolyline
 90
        4
 70
     1
 43
0.0
 10
120.2728441347
 20
251.784048291
 10
126.2728441869
 20
250.7840482823
 10
120.2728441347
 20
249.7840482736
 10
120.2728441347
 20
251.784048291
  0
LINE
  5
42B
330
425
100
AcDbEntity
  8
Default
  6
Continuous
 62
     7
 48
25.4
100
AcDbLine
 10
89.4362892844
 20
229.5590875975
 30
0.0
 11
89.4362892844
 21
253.7840483084
 31
0.0
  0
LINE
  5
42C
330
425
100
AcDbEntity
  8
Default
  6
Continuous
 62
     7
 48
25.4
100
AcDbLine
 10
126.2728441869
 20
234.0805630804
 30
0.0
 11
126.2728441869
 21
253.7840483084
 31
0.0
  0
LINE
  5
42D
330
425
100
AcDbEntity
  8
Default
  6
Continuous
 62
     7
 48
25.4
100
AcDbLine
 10
89.4362892844
 20
250.7840482823
 30
0.0
 11
98.7110877298
 21
250.7840482823
 31
0.0
  0
LINE
  5
42E
330
425
100
AcDbEntity
  8
Default
  6
Continuous
 62
     7
 48
25.4
100
AcDbLine
 10
116.9980438788
 20
250.7840482823
 30
0.0
 11
126.2728441869
 21
250.7840482823
 31
0.0
  0
TEXT
  5
42F
330
425
100
AcDbEntity
  8
Default
  6
Continuous
 62
     7
 48
25.4
100
AcDbText
 10
100.811087706
 20
247.7840482823
 30
0.0
 40
6.0
  1
147
  7
SEACAD_arial_ttf
 11
100.811087706
 21
253.7840482823
 31
0.0
100
AcDbText
 73
     3
  0
ENDBLK
  5
431
330
425
100
AcDbEntity
  8
0
100
AcDbBlockEnd
  0
BLOCK
  5
43D
330
432
100
AcDbEntity
  8
0
100
AcDbBlockBegin
  2
GDimGGroup6
 70
     0
 71
     0
 10
0.0
 20
0.0
 30
0.0
  3
GDimGGroup6
  1

  0
HATCH
  5
434
330
432
100
AcDbEntity
  8
Default
  6
Continuous
 62
   136
 48
25.4
100
AcDbHatch
 10
0.0
 20
0.0
 30
0.0
210
0.0
220
0.0
230
1.0
  2
SOLID
 70
     1
 71
     0
 91
        1
 92
        1
 93
        3
 72
     1
 10
182.3868599070274
 20
201.6321500655855
 11
180.3868598896427
 21
201.6321500655855
 72
     1
 10
180.3868598896427
 20
201.6321500655855
 11
181.386859898335
 21
195.6321500134314
 72
     1
 10
181.386859898335
 20
195.6321500134314
 11
182.3868599070274
 21
201.6321500655855
 97
        0
 75
     0
 76
     1
 98
        0
  0
LWPOLYLINE
  5
435
330
432
100
AcDbEntity
  8
Default
  6
Continuous
 62
   136
 48
25.4
370
    30
100
AcDbPolyline
 90
        4
 70
     1
 43
0.0
 10
182.386859907
 20
201.6321500656
 10
181.3868598983
 20
195.6321500134
 10
180.3868598896
 20
201.6321500656
 10
182.386859907
 20
201.6321500656
  0
HATCH
  5
436
330
432
100
AcDbEntity
  8
Default
  6
Continuous
 62
   136
 48
25.4
100
AcDbHatch
 10
0.0
 20
0.0
 30
0.0
210
0.0
220
0.0
230
1.0
  2
SOLID
 70
     1
 71
     0
 91
        1
 92
        1
 93
        3
 72
     1
 10
182.3868599070274
 20
278.6822871224741
 11
181.386859898335
 21
284.6822871746281
 72
     1
 10
181.386859898335
 20
284.6822871746281
 11
180.3868598896427
 21
278.6822871224741
 72
     1
 10
180.3868598896427
 20
278.6822871224741
 11
182.3868599070274
 21
278.6822871224741
 97
        0
 75
     0
 76
     1
 98
        0
  0
LWPOLYLINE
  5
437
330
432
100
AcDbEntity
  8
Default
  6
Continuous
 62
   136
 48
25.4
370
    30
100
AcDbPolyline
 90
        4
 70
     1
 43
0.0
 10
182.386859907
 20
278.6822871225
 10
181.3868598983
 20
284.6822871746
 10
180.3868598896
 20
278.6822871225
 10
182.386859907
 20
278.6822871225
  0
LINE
  5
438
330
432
100
AcDbEntity
  8
Default
  6
Continuous
 62
     7
 48
25.4
100
AcDbLine
 10
106.313774173
 20
195.6321500134
 30
0.0
 11
184.3868599244
 21
195.6321500134
 31
0.0
  0
LINE
  5
439
330
432
100
AcDbEntity
  8
Default
  6
Continuous
 62
     7
 48
25.4
100
AcDbLine
 10
124.3747992072
 20
284.6822871746
 30
0.0
 11
184.3868599244
 21
284.6822871746
 31
0.0
  0
LINE
  5
43A
330
432
100
AcDbEntity
  8
Default
  6
Continuous
 62
     7
 48
25.4
100
AcDbLine
 10
181.3868598983
 20
195.6321500134
 30
0.0
 11
181.3868598983
 21
235.057217617
 31
0.0
  0
LINE
  5
43B
330
432
100
AcDbEntity
  8
Default
  6
Continuous
 62
     7
 48
25.4
100
AcDbLine
 10
181.3868598983
 20
245.257219571
 30
0.0
 11
181.3868598983
 21
284.6822871746
 31
0.0
  0
TEXT
  5
43C
330
432
100
AcDbEntity
  8
Default
  6
Continuous
 62
     7
 48
25.4
100
AcDbText
 10
174.3433816375
 20
237.1572182667
 30
0.0
 40
6.0
  1
356
  7
SEACAD_arial_ttf
 11
174.3433816375
 21
243.1572182667
 31
0.0
100
AcDbText
 73
     3
  0
ENDBLK
  5
43E
330
432
100
AcDbEntity
  8
0
100
AcDbBlockEnd
  0
BLOCK
  5
44A
330
43F
100
AcDbEntity
  8
0
100
AcDbBlockBegin
  2
GDimGGroup7
 70
     0
 71
     0
 10
0.0
 20
0.0
 30
0.0
  3
GDimGGroup7
  1

  0
HATCH
  5
441
330
43F
100
AcDbEntity
  8
Default
  6
Continuous
 62
   136
 48
25.4
100
AcDbHatch
 10
0.0
 20
0.0
 30
0.0
210
0.0
220
0.0
230
1.0
  2
SOLID
 70
     1
 71
     0
 91
        1
 92
        1
 93
        3
 72
     1
 10
134.4412878437005
 20
201.6321500655855
 11
132.4412878263158
 21
201.6321500655855
 72
     1
 10
132.4412878263158
 20
201.6321500655855
 11
133.4412878350082
 21
195.6321500134314
 72
     1
 10
133.4412878350082
 20
195.6321500134314
 11
134.4412878437005
 21
201.6321500655855
 97
        0
 75
     0
 76
     1
 98
        0
  0
LWPOLYLINE
  5
442
330
43F
100
AcDbEntity
  8
Default
  6
Continuous
 62
   136
 48
25.4
370
    30
100
AcDbPolyline
 90
        4
 70
     1
 43
0.0
 10
134.4412878437
 20
201.6321500656
 10
133.441287835
 20
195.6321500134
 10
132.4412878263
 20
201.6321500656
 10
134.4412878437
 20
201.6321500656
  0
HATCH
  5
443
330
43F
100
AcDbEntity
  8
Default
  6
Continuous
 62
   136
 48
25.4
100
AcDbHatch
 10
0.0
 20
0.0
 30
0.0
210
0.0
220
0.0
230
1.0
  2
SOLID
 70
     1
 71
     0
 91
        1
 92
        1
 93
        3
 72
     1
 10
134.4412878437005
 20
247.4637842545059
 11
133.4412878350082
 21
253.46378430666
 72
     1
 10
133.4412878350082
 20
253.46378430666
 11
132.4412878263158
 21
247.4637842545059
 72
     1
 10
132.4412878263158
 20
247.4637842545059
 11
134.4412878437005
 21
247.4637842545059
 97
        0
 75
     0
 76
     1
 98
        0
  0
LWPOLYLINE
  5
444
330
43F
100
AcDbEntity
  8
Default
  6
Continuous
 62
   136
 48
25.4
370
    30
100
AcDbPolyline
 90
        4
 70
     1
 43
0.0
 10
134.4412878437
 20
247.4637842545
 10
133.441287835
 20
253.4637843067
 10
132.4412878263
 20
247.4637842545
 10
134.4412878437
 20
247.4637842545
  0
LINE
  5
445
330
43F
100
AcDbEntity
  8
Default
  6
Continuous
 62
     7
 48
25.4
100
AcDbLine
 10
106.313774173
 20
195.6321500134
 30
0.0
 11
136.4412878611
 21
195.6321500134
 31
0.0
  0
LINE
  5
446
330
43F
100
AcDbEntity
  8
Default
  6
Continuous
 62
     7
 48
25.4
100
AcDbLine
 10
145.2786972253
 20
253.4637843067
 30
0.0
 11
130.4412878089
 21
253.4637843067
 31
0.0
  0
LINE
  5
447
330
43F
100
AcDbEntity
  8
Default
  6
Continuous
 62
     7
 48
25.4
100
AcDbLine
 10
133.441287835
 20
195.6321500134
 30
0.0
 11
133.441287835
 21
219.4479662818
 31
0.0
  0
LINE
  5
448
330
43F
100
AcDbEntity
  8
Default
  6
Continuous
 62
     7
 48
25.4
100
AcDbLine
 10
133.441287835
 20
229.6479661757
 30
0.0
 11
133.441287835
 21
253.4637843067
 31
0.0
  0
TEXT
  5
449
330
43F
100
AcDbEntity
  8
Default
  6
Continuous
 62
     7
 48
25.4
100
AcDbText
 10
126.3978095741
 20
221.5479669314
 30
0.0
 40
6.0
  1
231
  7
SEACAD_arial_ttf
 11
126.3978095741
 21
227.5479669314
 31
0.0
100
AcDbText
 73
     3
  0
ENDBLK
  5
44B
330
43F
100
AcDbEntity
  8
0
100
AcDbBlockEnd
  0
BLOCK
  5
458
330
44C
100
AcDbEntity
  8
0
100
AcDbBlockBegin
  2
GDimGGroup8
 70
     0
 71
     0
 10
0.0
 20
0.0
 30
0.0
  3
GDimGGroup8
  1

  0
HATCH
  5
44E
330
44C
100
AcDbEntity
  8
Default
  6
Continuous
 62
   136
 48
25.4
100
AcDbHatch
 10
0.0
 20
0.0
 30
0.0
210
0.0
220
0.0
230
1.0
  2
SOLID
 70
     1
 71
     0
 91
        1
 92
        1
 93
        3
 72
     1
 10
134.4412878437005
 20
201.6321500655855
 11
132.4412878263158
 21
201.6321500655855
 72
     1
 10
132.4412878263158
 20
201.6321500655855
 11
133.4412878350082
 21
195.6321500134314
 72
     1
 10
133.4412878350082
 20
195.6321500134314
 11
134.4412878437005
 21
201.6321500655855
 97
        0
 75
     0
 76
     1
 98
        0
  0
LWPOLYLINE
  5
44F
330
44C
100
AcDbEntity
  8
Default
  6
Continuous
 62
   136
 48
25.4
370
    30
100
AcDbPolyline
 90
        4
 70
     1
 43
0.0
 10
134.4412878437
 20
201.6321500656
 10
133.441287835
 20
195.6321500134
 10
132.4412878263
 20
201.6321500656
 10
134.4412878437
 20
201.6321500656
  0
HATCH
  5
450
330
44C
100
AcDbEntity
  8
Default
  6
Continuous
 62
   136
 48
25.4
100
AcDbHatch
 10
0.0
 20
0.0
 30
0.0
210
0.0
220
0.0
230
1.0
  2
SOLID
 70
     1
 71
     0
 91
        1
 92
        1
 93
        3
 72
     1
 10
134.4412878437005
 20
174.6321499612774
 11
133.4412878350082
 21
180.6321500134314
 72
     1
 10
133.4412878350082
 20
180.6321500134314
 11
132.4412878263158
 21
174.6321499612774
 72
     1
 10
132.4412878263158
 20
174.6321499612774
 11
134.4412878437005
 21
174.6321499612774
 97
        0
 75
     0
 76
     1
 98
        0
  0
LWPOLYLINE
  5
451
330
44C
100
AcDbEntity
  8
Default
  6
Continuous
 62
   136
 48
25.4
370
    30
100
AcDbPolyline
 90
        4
 70
     1
 43
0.0
 10
134.4412878437
 20
174.6321499613
 10
133.441287835
 20
180.6321500134
 10
132.4412878263
 20
174.6321499613
 10
134.4412878437
 20
174.6321499613
  0
LINE
  5
452
330
44C
100
AcDbEntity
  8
Default
  6
Continuous
 62
     7
 48
25.4
100
AcDbLine
 10
106.313774173
 20
195.6321500134
 30
0.0
 11
136.4412878611
 21
195.6321500134
 31
0.0
  0
LINE
  5
453
330
44C
100
AcDbEntity
  8
Default
  6
Continuous
 62
     7
 48
25.4
100
AcDbLine
 10
96.6865530495
 20
180.6321500134
 30
0.0
 11
136.4412878611
 21
180.6321500134
 31
0.0
  0
LINE
  5
454
330
44C
100
AcDbEntity
  8
Default
  6
Continuous
 62
     7
 48
25.4
100
AcDbLine
 10
133.441287835
 20
207.6321501177
 30
0.0
 11
133.441287835
 21
195.6321500134
 31
0.0
  0
LINE
  5
455
330
44C
100
AcDbEntity
  8
Default
  6
Continuous
 62
     7
 48
25.4
100
AcDbLine
 10
133.441287835
 20
180.6321500134
 30
0.0
 11
133.441287835
 21
168.6321499091
 31
0.0
  0
TEXT
  5
456
330
44C
100
AcDbEntity
  8
Default
  6
Continuous
 62
     7
 48
25.4
100
AcDbText
 10
139.9760704437
 20
185.1321501811
 30
0.0
 40
6.0
  1
60
  7
SEACAD_arial_ttf
 11
139.9760704437
 21
191.1321501811
 31
0.0
100
AcDbText
 73
     3
  0
TEXT
  5
457
330
44C
100
AcDbEntity
  8
Default
  6
Continuous
 62
     7
 48
25.4
100
AcDbText
 10
117.5152008785
 20
185.1321501811
 30
0.0
 40
6.0
  1
max.
  7
SEACAD_arial_ttf
 11
117.5152008785
 21
191.1321501811
 31
0.0
100
AcDbText
 73
     3
  0
ENDBLK
  5
459
330
44C
100
AcDbEntity
  8
0
100
AcDbBlockEnd
  0
BLOCK
  5
466
330
45A
100
AcDbEntity
  8
0
100
AcDbBlockBegin
  2
GDimGGroup9
 70
     0
 71
     0
 10
0.0
 20
0.0
 30
0.0
  3
GDimGGroup9
  1

  0
HATCH
  5
45C
330
45A
100
AcDbEntity
  8
Default
  6
Continuous
 62
   136
 48
25.4
100
AcDbHatch
 10
0.0
 20
0.0
 30
0.0
210
0.0
220
0.0
230
1.0
  2
SOLID
 70
     1
 71
     0
 91
        1
 92
        1
 93
        3
 72
     1
 10
76.68628923226549
 20
203.9470113401927
 11
76.68628923226549
 21
201.947011322808
 72
     1
 10
76.68628923226549
 20
201.947011322808
 11
82.68628928441956
 21
202.9470113315004
 72
     1
 10
82.68628928441956
 20
202.9470113315004
 11
76.68628923226549
 21
203.9470113401927
 97
        0
 75
     0
 76
     1
 98
        0
  0
LWPOLYLINE
  5
45D
330
45A
100
AcDbEntity
  8
Default
  6
Continuous
 62
   136
 48
25.4
370
    30
100
AcDbPolyline
 90
        4
 70
     1
 43
0.0
 10
76.6862892323
 20
203.9470113402
 10
82.6862892844
 20
202.9470113315
 10
76.6862892323
 20
201.9470113228
 10
76.6862892323
 20
203.9470113402
  0
HATCH
  5
45E
330
45A
100
AcDbEntity
  8
Default
  6
Continuous
 62
   136
 48
25.4
100
AcDbHatch
 10
0.0
 20
0.0
 30
0.0
210
0.0
220
0.0
230
1.0
  2
SOLID
 70
     1
 71
     0
 91
        1
 92
        1
 93
        3
 72
     1
 10
102.1862893366059
 20
203.9470113401927
 11
96.18628928445185
 21
202.9470113315004
 72
     1
 10
96.18628928445185
 20
202.9470113315004
 11
102.1862893366059
 21
201.947011322808
 72
     1
 10
102.1862893366059
 20
201.947011322808
 11
102.1862893366059
 21
203.9470113401927
 97
        0
 75
     0
 76
     1
 98
        0
  0
LWPOLYLINE
  5
45F
330
45A
100
AcDbEntity
  8
Default
  6
Continuous
 62
   136
 48
25.4
370
    30
100
AcDbPolyline
 90
        4
 70
     1
 43
0.0
 10
102.1862893366
 20
203.9470113402
 10
96.1862892845
 20
202.9470113315
 10
102.1862893366
 20
201.9470113228
 10
102.1862893366
 20
203.9470113402
  0
LINE
  5
460
330
45A
100
AcDbEntity
  8
Default
  6
Continuous
 62
     7
 48
25.4
100
AcDbLine
 10
82.6862892844
 20
196.3524046563
 30
0.0
 11
82.6862892844
 21
205.9470113576
 31
0.0
  0
LINE
  5
461
330
45A
100
AcDbEntity
  8
Default
  6
Continuous
 62
     7
 48
25.4
100
AcDbLine
 10
96.1862892845
 20
196.3524046563
 30
0.0
 11
96.1862892845
 21
205.9470113576
 31
0.0
  0
LINE
  5
462
330
45A
100
AcDbEntity
  8
Default
  6
Continuous
 62
     7
 48
25.4
100
AcDbLine
 10
51.1654457786
 20
202.9470113315
 30
0.0
 11
82.6862892844
 21
202.9470113315
 31
0.0
  0
LINE
  5
463
330
45A
100
AcDbEntity
  8
Default
  6
Continuous
 62
     7
 48
25.4
100
AcDbLine
 10
96.1862892845
 20
202.9470113315
 30
0.0
 11
108.1862893888
 21
202.9470113315
 31
0.0
  0
TEXT
  5
464
330
45A
100
AcDbEntity
  8
Default
  6
Continuous
 62
     7
 48
25.4
100
AcDbText
 10
64.3075513518
 20
204.4470113315
 30
0.0
 40
6.0
  1
54
  7
SEACAD_arial_ttf
 11
64.3075513518
 21
210.4470113315
 31
0.0
100
AcDbText
 73
     3
  0
TEXT
  5
465
330
45A
100
AcDbEntity
  8
Default
  6
Continuous
 62
     7
 48
25.4
100
AcDbText
 10
53.2654460887
 20
204.4470113315
 30
0.0
 40
6.0
  1
O
  7
SEACAD_semeca1_ttf
 11
53.2654460887
 21
210.4470113315
 31
0.0
100
AcDbText
 73
     3
  0
ENDBLK
  5
467
330
45A
100
AcDbEntity
  8
0
100
AcDbBlockEnd
  0
BLOCK
  5
472
330
468
100
AcDbEntity
  8
0
100
AcDbBlockBegin
  2
GDimGGroup10
 70
     0
 71
     0
 10
0.0
 20
0.0
 30
0.0
  3
GDimGGroup10
  1

  0
HATCH
  5
46A
330
468
100
AcDbEntity
  8
Default
  6
Continuous
 62
   136
 48
25.4
100
AcDbHatch
 10
0.0
 20
0.0
 30
0.0
210
0.0
220
0.0
230
1.0
  2
SOLID
 70
     1
 71
     0
 91
        1
 92
        1
 93
        3
 72
     1
 10
79.18628923226547
 20
190.4567944833979
 11
79.18628923226547
 21
188.4567944660132
 72
     1
 10
79.18628923226547
 20
188.4567944660132
 11
85.18628928441953
 21
189.4567944747056
 72
     1
 10
85.18628928441953
 20
189.4567944747056
 11
79.18628923226547
 21
190.4567944833979
 97
        0
 75
     0
 76
     1
 98
        0
  0
LWPOLYLINE
  5
46B
330
468
100
AcDbEntity
  8
Default
  6
Continuous
 62
   136
 48
25.4
370
    30
100
AcDbPolyline
 90
        4
 70
     1
 43
0.0
 10
79.1862892323
 20
190.4567944834
 10
85.1862892844
 20
189.4567944747
 10
79.1862892323
 20
188.456794466
 10
79.1862892323
 20
190.4567944834
  0
HATCH
  5
46C
330
468
100
AcDbEntity
  8
Default
  6
Continuous
 62
   136
 48
25.4
100
AcDbHatch
 10
0.0
 20
0.0
 30
0.0
210
0.0
220
0.0
230
1.0
  2
SOLID
 70
     1
 71
     0
 91
        1
 92
        1
 93
        3
 72
     1
 10
99.68628933657359
 20
190.4567944833979
 11
93.68628928441953
 21
189.4567944747056
 72
     1
 10
93.68628928441953
 20
189.4567944747056
 11
99.68628933657359
 21
188.4567944660132
 72
     1
 10
99.68628933657359
 20
188.4567944660132
 11
99.68628933657359
 21
190.4567944833979
 97
        0
 75
     0
 76
     1
 98
        0
  0
LWPOLYLINE
  5
46D
330
468
100
AcDbEntity
  8
Default
  6
Continuous
 62
   136
 48
25.4
370
    30
100
AcDbPolyline
 90
        4
 70
     1
 43
0.0
 10
99.6862893366
 20
190.4567944834
 10
93.6862892844
 20
189.4567944747
 10
99.6862893366
 20
188.456794466
 10
99.6862893366
 20
190.4567944834
  0
LINE
  5
46E
330
468
100
AcDbEntity
  8
Default
  6
Continuous
 62
     7
 48
25.4
100
AcDbLine
 10
47.4698931314
 20
189.4567944747
 30
0.0
 11
85.1862892844
 21
189.4567944747
 31
0.0
  0
LINE
  5
46F
330
468
100
AcDbEntity
  8
Default
  6
Continuous
 62
     7
 48
25.4
100
AcDbLine
 10
93.6862892844
 20
189.4567944747
 30
0.0
 11
105.6862893887
 21
189.4567944747
 31
0.0
  0
TEXT
  5
470
330
468
100
AcDbEntity
  8
Default
  6
Continuous
 62
     7
 48
25.4
100
AcDbText
 10
60.6120001017
 20
190.9567944747
 30
0.0
 40
6.0
  1
34
  7
SEACAD_arial_ttf
 11
60.6120001017
 21
196.9567944747
 31
0.0
100
AcDbText
 73
     3
  0
TEXT
  5
471
330
468
100
AcDbEntity
  8
Default
  6
Continuous
 62
     7
 48
25.4
100
AcDbText
 10
49.5698948385
 20
190.9567944747
 30
0.0
 40
6.0
  1
O
  7
SEACAD_semeca1_ttf
 11
49.5698948385
 21
196.9567944747
 31
0.0
100
AcDbText
 73
     3
  0
ENDBLK
  5
473
330
468
100
AcDbEntity
  8
0
100
AcDbBlockEnd
  0
BLOCK
  5
480
330
474
100
AcDbEntity
  8
0
100
AcDbBlockBegin
  2
GDimGGroup11
 70
     0
 71
     0
 10
0.0
 20
0.0
 30
0.0
  3
GDimGGroup11
  1

  0
HATCH
  5
476
330
474
100
AcDbEntity
  8
Default
  6
Continuous
 62
   136
 48
25.4
100
AcDbHatch
 10
0.0
 20
0.0
 30
0.0
210
0.0
220
0.0
230
1.0
  2
SOLID
 70
     1
 71
     0
 91
        1
 92
        1
 93
        3
 72
     1
 10
139.2006105288425
 20
239.0223505101778
 11
145.2786972253009
 21
238.7838913867025
 72
     1
 10
145.2786972253009
 20
238.7838913867025
 11
139.6064938497782
 21
240.9807321888414
 72
     1
 10
139.6064938497782
 20
240.9807321888414
 11
139.2006105288425
 21
239.0223505101778
 97
        0
 75
     0
 76
     1
 98
        0
  0
LWPOLYLINE
  5
477
330
474
100
AcDbEntity
  8
Default
  6
Continuous
 62
   136
 48
25.4
370
    30
100
AcDbPolyline
 90
        4
 70
     1
 43
0.0
 10
139.2006105288
 20
239.0223505102
 10
145.2786972253
 20
238.7838913867
 10
139.6064938498
 20
240.9807321888
 10
139.2006105288
 20
239.0223505102
  0
HATCH
  5
478
330
474
100
AcDbEntity
  8
Default
  6
Continuous
 62
   136
 48
25.4
100
AcDbHatch
 10
0.0
 20
0.0
 30
0.0
210
0.0
220
0.0
230
1.0
  2
SOLID
 70
     1
 71
     0
 91
        1
 92
        1
 93
        3
 72
     1
 10
153.0322546784551
 20
242.1552553203472
 11
147.8276655711687
 21
239.0068822694605
 72
     1
 10
147.8276655711687
 20
239.0068822694605
 11
153.7720194999704
 21
240.2970981476658
 72
     1
 10
153.7720194999704
 20
240.2970981476659
 11
153.0322546784551
 21
242.1552553203472
 97
        0
 75
     0
 76
     1
 98
        0
  0
LWPOLYLINE
  5
479
330
474
100
AcDbEntity
  8
Default
  6
Continuous
 62
   136
 48
25.4
370
    30
100
AcDbPolyline
 90
        4
 70
     1
 43
0.0
 10
153.0322546785
 20
242.1552553203
 10
147.8276655712
 20
239.0068822695
 10
153.7720195
 20
240.2970981477
 10
153.0322546785
 20
242.1552553203
  0
LINE
  5
47A
330
474
100
AcDbEntity
  8
Default
  6
Continuous
 62
     7
 48
25.4
100
AcDbLine
 10
145.2786972253
 20
249.2097817169
 30
0.0
 11
145.2786972253
 21
235.7838918263
 31
0.0
  0
LINE
  5
47B
330
474
100
AcDbEntity
  8
Default
  6
Continuous
 62
     7
 48
25.4
100
AcDbLine
 10
146.4517743603
 20
246.8104803334
 30
0.0
 11
148.3485756322
 21
236.0524533787
 31
0.0
  0
LINE
  5
47C
330
474
100
AcDbEntity
  8
Default
  6
Continuous
 62
     7
 48
25.4
100
AcDbLine
 10
158.1265026289
 20
246.3621540393
 30
0.0
 11
175.7091110157
 21
246.3621540393
 31
0.0
  0
ARC
  5
47D
330
474
100
AcDbEntity
  8
Default
  6
Continuous
 62
     7
 48
25.4
100
AcDbCircle
 10
145.2786972253
 20
253.4637843067
 30
0.0
 40
14.67989291995758
100
AcDbArc
 50
223.163869729
 51
270.0
  0
ARC
  5
47E
330
474
100
AcDbEntity
  8
Default
  6
Continuous
 62
     7
 48
25.4
100
AcDbCircle
 10
145.2786972253
 20
253.4637843067
 30
0.0
 40
14.67989291995777
100
AcDbArc
 50
279.9993329588
 51
331.0683568546
  0
TEXT
  5
47F
330
474
100
AcDbEntity
  8
Default
  6
Continuous
 62
     7
 48
25.4
100
AcDbText
 10
160.8265026574
 20
247.8621540393
 30
0.0
 40
6.0
  1
10°
  7
SEACAD_arial_ttf
 11
160.8265026574
 21
253.8621540393
 31
0.0
100
AcDbText
 73
     3
  0
ENDBLK
  5
481
330
474
100
AcDbEntity
  8
0
100
AcDbBlockEnd
  0
BLOCK
  5
4BC
330
482
100
AcDbEntity
  8
0
100
AcDbBlockBegin
  2
SE4
 70
     0
 71
     0
 10
0.0
 20
0.0
 30
0.0
  3
SE4
  1

  0
LINE
  5
485
330
482
100
AcDbEntity
  8
DV5_Standard
  6
CENTER2
 62
     7
 48
25.4
100
AcDbLine
 10
94.4362892844
 20
76.7724474221
 30
0.0
 11
94.5374587832
 21
76.7726521283
 31
0.0
  0
ARC
  5
487
330
482
100
AcDbEntity
  8
DV5_Layer4
  6
Continuous
 62
     7
 48
25.4
100
AcDbCircle
 10
88.0612892844
 20
98.4822320129
 30
0.0
 40
0.1250000000000001
100
AcDbArc
 50
90.0
 51
180.0
  0
LINE
  5
489
330
482
100
AcDbEntity
  8
DV5_Layer5
  6
Continuous
 62
     7
 48
25.4
100
AcDbLine
 10
88.4987892844
 20
98.6072320129
 30
0.0
 11
88.0612892844
 21
98.6072320129
 31
0.0
  0
ARC
  5
48A
330
482
100
AcDbEntity
  8
DV5_Layer4
  6
Continuous
 62
     7
 48
25.4
100
AcDbCircle
 10
88.0612892844
 20
77.728217345
 30
0.0
 40
0.1249999999999949
100
AcDbArc
 50
180.0
 51
255.1504721945
  0
ARC
  5
48B
330
482
100
AcDbEntity
  8
DV5_Layer4
  6
Continuous
 62
     7
 48
25.4
100
AcDbCircle
 10
100.8112892844
 20
77.728217345
 30
0.0
 40
0.1250000000000001
100
AcDbArc
 50
284.8495278055
 51
360.0
  0
LINE
  5
48C
330
482
100
AcDbEntity
  8
DV5_Layer5
  6
Continuous
 62
     7
 48
25.4
100
AcDbLine
 10
100.8112892844
 20
98.6072320129
 30
0.0
 11
100.3737892844
 21
98.6072320129
 31
0.0
  0
LINE
  5
48D
330
482
100
AcDbEntity
  8
DV5_Layer4
  6
Continuous
 62
     7
 48
25.4
100
AcDbLine
 10
100.9362892844
 20
88.5071500134
 30
0.0
 11
100.9362892844
 21
98.4822320129
 31
0.0
  0
ARC
  5
48E
330
482
100
AcDbEntity
  8
DV5_Layer4
  6
Continuous
 62
     7
 48
25.4
100
AcDbCircle
 10
100.8112892844
 20
98.4822320129
 30
0.0
 40
0.1250000000000001
100
AcDbArc
 50
0.0
 51
90.0
  0
LINE
  5
48F
330
482
100
AcDbEntity
  8
DV5_Layer4
  6
Continuous
 62
     7
 48
25.4
100
AcDbLine
 10
87.9362892844
 20
98.4822320129
 30
0.0
 11
87.9362892844
 21
85.6321500134
 31
0.0
  0
LINE
  5
490
330
482
100
AcDbEntity
  8
DV5_Layer4
  6
Continuous
 62
     7
 48
25.4
100
AcDbLine
 10
87.9362892844
 20
85.6321500134
 30
0.0
 11
87.9362892844
 21
77.728217345
 31
0.0
  0
ARC
  5
491
330
482
100
AcDbEntity
  8
DV5_Layer4
  6
Continuous
 62
     7
 48
25.4
100
AcDbCircle
 10
94.4362892844
 20
101.7724474221
 30
0.0
 40
24.99999999999999
100
AcDbArc
 50
255.1504721945
 51
284.8495278055
  0
LINE
  5
492
330
482
100
AcDbEntity
  8
DV5_Layer4
  6
Continuous
 62
     7
 48
25.4
100
AcDbLine
 10
100.9362892844
 20
77.728217345
 30
0.0
 11
100.9362892844
 21
82.7571500134
 31
0.0
  0
ARC
  5
493
330
482
100
AcDbEntity
  8
DV5_Layer5
  6
Continuous
 62
     7
 48
25.4
100
AcDbCircle
 10
94.324171838
 20
102.8447048902
 30
0.0
 40
6.25
100
AcDbArc
 50
14.7231957461
 51
18.4971262286
  0
LINE
  5
494
330
482
100
AcDbEntity
  8
DV5_Layer5
  6
Continuous
 62
     7
 48
25.4
100
AcDbLine
 10
88.0596879432
 20
98.6072320129
 30
0.0
 11
87.9357693642
 21
98.7311505919
 31
0.0
  0
LINE
  5
495
330
482
100
AcDbEntity
  8
DV5_Layer5
  6
Continuous
 62
     7
 48
25.4
100
AcDbLine
 10
100.7599321187
 20
104.433139356
 30
0.0
 11
94.4362892844
 21
104.433139356
 31
0.0
  0
LINE
  5
497
330
482
100
AcDbEntity
  8
DV5_Layer6
  6
Continuous
 62
     7
 48
25.4
100
AcDbLine
 10
88.0023154204
 20
104.8275617099
 30
0.0
 11
94.4362892844
 21
104.8275617099
 31
0.0
  0
ARC
  5
498
330
482
100
AcDbEntity
  8
DV5_Layer6
  6
Continuous
 62
     7
 48
25.4
100
AcDbCircle
 10
94.5023154204
 20
88.4274221449
 30
0.0
 40
25.0
100
AcDbArc
 50
75.6800770734
 51
104.3199229266
  0
LINE
  5
499
330
482
100
AcDbEntity
  8
DV5_Layer5
  6
Continuous
 62
     7
 48
25.4
100
AcDbLine
 10
100.8128906257
 20
98.6072320129
 30
0.0
 11
100.9335971262
 21
98.7322272533
 31
0.0
  0
LINE
  5
49A
330
482
100
AcDbEntity
  8
DV5_Layer5
  6
Continuous
 62
     7
 48
25.4
100
AcDbLine
 10
94.4362892844
 20
104.433139356
 30
0.0
 11
88.1094437676
 21
104.433139356
 31
0.0
  0
ARC
  5
49B
330
482
100
AcDbEntity
  8
DV5_Layer6
  6
Continuous
 62
     7
 48
25.4
100
AcDbCircle
 10
100.6238800487
 20
112.4084343525
 30
0.0
 40
0.2499999999999895
100
AcDbArc
 50
1.0000004286
 51
75.6800770734
  0
LINE
  5
49C
330
482
100
AcDbEntity
  8
DV5_Layer6
  6
Continuous
 62
     7
 48
25.4
100
AcDbLine
 10
88.1354853412
 20
112.4568580926
 30
0.0
 11
88.0023154204
 21
104.8275617099
 31
0.0
  0
ARC
  5
49D
330
482
100
AcDbEntity
  8
DV5_Layer5
  6
Continuous
 62
     7
 48
25.4
100
AcDbCircle
 10
94.5452040483
 20
102.8447048902
 30
0.0
 40
6.250000000000003
100
AcDbArc
 50
161.5028737714
 51
165.2768042539
  0
LINE
  5
49E
330
482
100
AcDbEntity
  8
DV5_Layer4
  6
Continuous
 62
     7
 48
25.4
100
AcDbLine
 10
88.0596879432
 20
98.6072320129
 30
0.0
 11
100.8128906257
 21
98.6072320129
 31
0.0
  0
LINE
  5
49F
330
482
100
AcDbEntity
  8
DV5_Layer5
  6
Continuous
 62
     7
 48
25.4
100
AcDbLine
 10
87.9357693642
 20
98.7311505919
 30
0.0
 11
100.9325574064
 21
98.7311505919
 31
0.0
  0
ARC
  5
4A0
330
482
100
AcDbEntity
  8
DV5_Layer5
  6
Continuous
 62
     7
 48
25.4
100
AcDbCircle
 10
100.7599321187
 20
104.308139356
 30
0.0
 40
0.125
100
AcDbArc
 50
0.5
 51
90.0
  0
ARC
  5
4A1
330
482
100
AcDbEntity
  8
DV5_Layer5
  6
Continuous
 62
     7
 48
25.4
100
AcDbCircle
 10
88.1094437676
 20
104.308139356
 30
0.0
 40
0.125
100
AcDbArc
 50
90.0
 51
179.5
  0
LINE
  5
4A2
330
482
100
AcDbEntity
  8
DV5_Layer5
  6
Continuous
 62
     7
 48
25.4
100
AcDbLine
 10
87.9357693642
 20
98.7311505919
 30
0.0
 11
87.9844485272
 21
104.3092301729
 31
0.0
  0
LINE
  5
4A3
330
482
100
AcDbEntity
  8
DV5_Layer6
  6
Continuous
 62
     7
 48
25.4
100
AcDbLine
 10
101.0062428117
 20
104.8275617099
 30
0.0
 11
100.8738419725
 21
112.4127974559
 31
0.0
  0
ARC
  5
4A4
330
482
100
AcDbEntity
  8
DV5_Layer6
  6
Continuous
 62
     7
 48
25.4
100
AcDbCircle
 10
88.380750792
 20
112.4084343525
 30
0.0
 40
0.2499999999999986
100
AcDbArc
 50
104.3199229266
 51
178.9999995714
  0
LINE
  5
4A5
330
482
100
AcDbEntity
  8
DV5_Layer5
  6
Continuous
 62
     7
 48
25.4
100
AcDbLine
 10
100.9335971262
 20
98.7322272533
 30
0.0
 11
100.8849273591
 21
104.3092301729
 31
0.0
  0
CIRCLE
  5
4A6
330
482
100
AcDbEntity
  8
DV5_Layer6
  6
Continuous
 62
     7
 48
25.4
100
AcDbCircle
 10
94.4362892844
 20
110.6775617099
 30
0.0
 40
1.249999999999973
  0
LINE
  5
4A7
330
482
100
AcDbEntity
  8
DV5_Layer6
  6
Continuous
 62
     7
 48
25.4
100
AcDbLine
 10
101.0062428117
 20
104.8275617099
 30
0.0
 11
94.4362892844
 21
104.8275617099
 31
0.0
  0
ARC
  5
4A9
330
482
100
AcDbEntity
  8
DV5_Layer9
  6
Continuous
 62
     7
 48
25.4
100
AcDbCircle
 10
94.4362892844
 20
85.6321500134
 30
0.0
 40
6.750000000032327
100
AcDbArc
 50
164.357528986
 51
195.642471014
  0
LINE
  5
4AB
330
482
100
AcDbEntity
  8
DV5_Layer1
  6
Continuous
 62
     7
 48
25.4
100
AcDbLine
 10
94.4362892844
 20
88.5071500134
 30
0.0
 11
150.0942725507
 21
88.5071500134
 31
0.0
  0
LINE
  5
4AC
330
482
100
AcDbEntity
  8
DV5_Layer1
  6
Continuous
 62
     7
 48
25.4
100
AcDbLine
 10
94.4362892844
 20
82.7571500134
 30
0.0
 11
150.0942725507
 21
82.7571500134
 31
0.0
  0
ARC
  5
4AD
330
482
100
AcDbEntity
  8
DV5_Layer4
  6
Continuous
 62
     7
 48
25.4
100
AcDbCircle
 10
94.4362892844
 20
85.6321500134
 30
0.0
 40
3.375000000000017
100
AcDbArc
 50
58.4136619035
 51
301.5863380965
  0
ARC
  5
4AE
330
482
100
AcDbEntity
  8
DV5_Layer1
  6
Continuous
 62
     7
 48
25.4
100
AcDbCircle
 10
94.4362892844
 20
85.6321500134
 30
0.0
 40
2.875000000000003
100
AcDbArc
 50
90.0
 51
270.0
  0
ELLIPSE
  5
4AF
330
482
100
AcDbEntity
  8
DV5_Layer1
  6
Continuous
 62
     7
 48
25.4
100
AcDbEllipse
 10
149.5559014946
 20
85.6321500134
 30
0.0
 11
0.0
 21
-2.875000000000016
 31
0.0
210
0.0
220
0.0
230
1.0
 40
0.9846715871
 41
0.0
 42
3.141592653589793
  0
ELLIPSE
  5
4B0
330
482
100
AcDbEntity
  8
DV5_Layer1
  6
Continuous
 62
     7
 48
25.4
100
AcDbEllipse
 10
150.0942725507
 20
85.6321500134
 30
0.0
 11
0.0
 21
-2.875000000000016
 31
0.0
210
0.0
220
0.0
230
1.0
 40
0.9846715871
 41
0.0
 42
3.141592653589793
  0
LINE
  5
4B1
330
482
100
AcDbEntity
  8
DV5_Layer1
  6
HIDDEN2
 62
     7
 48
25.4
100
AcDbLine
 10
129.9084561579
 20
109.4317791544
 30
0.0
 11
141.2000167164
 21
115.9509646824
 31
0.0
  0
LINE
  5
4B2
330
482
100
AcDbEntity
  8
DV5_Layer1
  6
HIDDEN2
 62
     7
 48
25.4
100
AcDbLine
 10
132.7834561579
 20
104.4521330826
 30
0.0
 11
144.0750167164
 21
110.9713186107
 31
0.0
  0
ELLIPSE
  5
4B3
330
482
100
AcDbEntity
  8
DV5_Layer1
  6
HIDDEN2
 62
     7
 48
25.4
100
AcDbEllipse
 10
142.1712737052
 20
113.1919561185
 30
0.0
 11
1.437500000000008
 21
-2.489823035880276
 31
0.0
210
0.0
220
0.0
230
0.9999999999999998
 40
0.9846715871
 41
0.000000000000006
 42
3.141592653589791
  0
ELLIPSE
  5
4B4
330
482
100
AcDbEntity
  8
DV5_Layer1
  6
HIDDEN2
 62
     7
 48
25.4
100
AcDbEllipse
 10
142.6375167164
 20
113.4611416466
 30
0.0
 11
1.437500000000008
 21
-2.489823035880276
 31
0.0
210
0.0
220
0.0
230
0.9999999999999998
 40
0.9846715871
 41
0.000000000000006
 42
3.141592653589793
  0
LINE
  5
4B6
330
482
100
AcDbEntity
  8
DV5_Default
  6
CENTER2
 62
     7
 48
25.4
100
AcDbLine
 10
147.5839324788
 20
116.3169561185
 30
0.0
 11
136.7586149315
 21
110.0669561185
 31
0.0
  0
LINE
  5
4B7
330
482
100
AcDbEntity
  8
DV5_Layer1
  6
HIDDEN2
 62
     7
 48
25.4
100
AcDbLine
 10
132.7834561579
 20
66.8121669442
 30
0.0
 11
144.0750167164
 21
60.2929814162
 31
0.0
  0
LINE
  5
4B8
330
482
100
AcDbEntity
  8
DV5_Layer1
  6
HIDDEN2
 62
     7
 48
25.4
100
AcDbLine
 10
129.9084561579
 20
61.8325208725
 30
0.0
 11
141.2000167164
 21
55.3133353444
 31
0.0
  0
ELLIPSE
  5
4B9
330
482
100
AcDbEntity
  8
DV5_Layer1
  6
HIDDEN2
 62
     7
 48
25.4
100
AcDbEllipse
 10
142.1712737052
 20
58.0723439083
 30
0.0
 11
-1.437500000000008
 21
-2.489823035880275
 31
0.0
210
0.0
220
0.0
230
1.0
 40
0.9846715871
 41
0.0000000000000018
 42
3.141592653589775
  0
ELLIPSE
  5
4BA
330
482
100
AcDbEntity
  8
DV5_Layer1
  6
HIDDEN2
 62
     7
 48
25.4
100
AcDbEllipse
 10
142.6375167164
 20
57.8031583803
 30
0.0
 11
-1.437500000000008
 21
-2.489823035880275
 31
0.0
210
0.0
220
0.0
230
1.0
 40
0.9846715871
 41
6.283185307179578
 42
9.424777960769372
  0
LINE
  5
4BB
330
482
100
AcDbEntity
  8
DV5_Default
  6
CENTER2
 62
     7
 48
25.4
100
AcDbLine
 10
147.5839324788
 20
54.9473439083
 30
0.0
 11
136.7586149315
 21
61.1973439083
 31
0.0
  0
ENDBLK
  5
4BD
330
482
100
AcDbEntity
  8
0
100
AcDbBlockEnd
  0
BLOCK
  5
4CE
330
4BE
100
AcDbEntity
  8
0
100
AcDbBlockBegin
  2
GDimGGroup12
 70
     0
 71
     0
 10
0.0
 20
0.0
 30
0.0
  3
GDimGGroup12
  1

  0
HATCH
  5
4C0
330
4BE
100
AcDbEntity
  8
Default
  6
Continuous
 62
   136
 48
25.4
100
AcDbHatch
 10
0.0
 20
0.0
 30
0.0
210
0.0
220
0.0
230
1.0
  2
SOLID
 70
     1
 71
     0
 91
        1
 92
        1
 93
        3
 72
     1
 10
161.8677306704736
 20
53.57757503733313
 11
159.9612276365432
 21
47.8013092171992
 72
     1
 10
159.9612276365432
 20
47.8013092171992
 11
163.638059961656
 21
52.64701914415927
 72
     1
 10
163.638059961656
 20
52.64701914415927
 11
161.8677306704736
 21
53.57757503733313
 97
        0
 75
     0
 76
     1
 98
        0
  0
LWPOLYLINE
  5
4C1
330
4BE
100
AcDbEntity
  8
Default
  6
Continuous
 62
   136
 48
25.4
370
    30
100
AcDbPolyline
 90
        4
 70
     1
 43
0.0
 10
161.8677306705
 20
53.5775750373
 10
159.9612276365
 20
47.8013092172
 10
163.6380599617
 20
52.6470191442
 10
161.8677306705
 20
53.5775750373
  0
HATCH
  5
4C2
330
4BE
100
AcDbEntity
  8
Default
  6
Continuous
 62
   136
 48
25.4
100
AcDbHatch
 10
0.0
 20
0.0
 30
0.0
210
0.0
220
0.0
230
1.0
  2
SOLID
 70
     1
 71
     0
 91
        1
 92
        1
 93
        3
 72
     1
 10
163.6380599599859
 20
118.6172808814363
 11
159.9612276365432
 21
123.4629908096637
 72
     1
 10
159.9612276365432
 20
123.4629908096637
 11
161.8677306684828
 21
117.6867249888726
 72
     1
 10
161.8677306684828
 20
117.6867249888726
 11
163.6380599599859
 21
118.6172808814363
 97
        0
 75
     0
 76
     1
 98
        0
  0
LWPOLYLINE
  5
4C3
330
4BE
100
AcDbEntity
  8
Default
  6
Continuous
 62
   136
 48
25.4
370
    30
100
AcDbPolyline
 90
        4
 70
     1
 43
0.0
 10
163.63805996
 20
118.6172808814
 10
159.9612276365
 20
123.4629908097
 10
161.8677306685
 20
117.6867249889
 10
163.63805996
 20
118.6172808814
  0
LINE
  5
4C4
330
4BE
100
AcDbEntity
  8
Default
  6
Continuous
 62
     7
 48
25.4
100
AcDbLine
 10
147.5839330009
 20
54.9473436069
 30
0.0
 11
162.5593026607
 21
46.3013099027
 31
0.0
  0
LINE
  5
4C5
330
4BE
100
AcDbEntity
  8
Default
  6
Continuous
 62
     7
 48
25.4
100
AcDbLine
 10
147.5839330009
 20
116.3169564199
 30
0.0
 11
162.5593026607
 21
124.9629901242
 31
0.0
  0
ARC
  5
4C6
330
4BE
100
AcDbEntity
  8
Default
  6
Continuous
 62
     7
 48
25.4
100
AcDbCircle
 10
94.4362892844
 20
85.6321500134
 30
0.0
 40
75.66168159246379
100
AcDbArc
 50
330.0
 51
349.2598066952
  0
ARC
  5
4C7
330
4BE
100
AcDbEntity
  8
Default
  6
Continuous
 62
     7
 48
25.4
100
AcDbCircle
 10
94.4362892844
 20
85.6321500134
 30
0.0
 40
75.66168159246614
100
AcDbArc
 50
10.7401933048
 51
30.0
  0
TEXT
  5
4C8
330
4BE
100
AcDbEntity
  8
Default
  6
Continuous
 62
     7
 48
25.4
100
AcDbText
 10
159.704492616
 20
82.6321500134
 30
0.0
 40
6.0
  1
150
  7
SEACAD_arial_ttf
 11
159.704492616
 21
88.6321500134
 31
0.0
100
AcDbText
 73
     3
  0
TEXT
  5
4C9
330
4BE
100
AcDbEntity
  8
Default
  6
Continuous
 62
     7
 48
25.4
100
AcDbText
 10
173.7914491378
 20
82.6321500134
 30
0.0
 40
6.0
  1
°
  7
SEACAD_arial_ttf
 11
173.7914491378
 21
88.6321500134
 31
0.0
100
AcDbText
 73
     3
  0
TEXT
  5
4CA
330
4BE
100
AcDbEntity
  8
Default
  6
Continuous
 62
     7
 48
25.4
100
AcDbText
 10
176.8936230508
 20
91.6321500134
 30
0.0
 40
6.0
  1
0
  7
SEACAD_arial_ttf
 11
176.8936230508
 21
97.6321500134
 31
0.0
100
AcDbText
 73
     3
  0
TEXT
  5
4CB
330
4BE
100
AcDbEntity
  8
Default
  6
Continuous
 62
     7
 48
25.4
100
AcDbText
 10
181.5892752247
 20
91.6321500134
 30
0.0
 40
6.0
  1
°
  7
SEACAD_arial_ttf
 11
181.5892752247
 21
97.6321500134
 31
0.0
100
AcDbText
 73
     3
  0
TEXT
  5
4CC
330
4BE
100
AcDbEntity
  8
Default
  6
Continuous
 62
     7
 48
25.4
100
AcDbText
 10
159.704492616
 20
73.6321500134
 30
0.0
 40
6.0
  1
360
  7
SEACAD_arial_ttf
 11
159.704492616
 21
79.6321500134
 31
0.0
100
AcDbText
 73
     3
  0
TEXT
  5
4CD
330
4BE
100
AcDbEntity
  8
Default
  6
Continuous
 62
     7
 48
25.4
100
AcDbText
 10
173.7914491378
 20
73.6321500134
 30
0.0
 40
6.0
  1
°
  7
SEACAD_arial_ttf
 11
173.7914491378
 21
79.6321500134
 31
0.0
100
AcDbText
 73
     3
  0
ENDBLK
  5
4CF
330
4BE
100
AcDbEntity
  8
0
100
AcDbBlockEnd
  0
BLOCK
  5
4DB
330
4D0
100
AcDbEntity
  8
0
100
AcDbBlockBegin
  2
GDimGGroup13
 70
     0
 71
     0
 10
0.0
 20
0.0
 30
0.0
  3
GDimGGroup13
  1

  0
HATCH
  5
4D2
330
4D0
100
AcDbEntity
  8
Default
  6
Continuous
 62
   136
 48
25.4
100
AcDbHatch
 10
0.0
 20
0.0
 30
0.0
210
0.0
220
0.0
230
1.0
  2
SOLID
 70
     1
 71
     0
 91
        1
 92
        1
 93
        3
 72
     1
 10
63.00207809073642
 20
111.4595646470384
 11
69.05645214620006
 21
110.8725761976101
 72
     1
 10
69.05645214620006
 20
110.8725761976101
 11
63.51971618544093
 21
113.3914163164089
 72
     1
 10
63.51971618544093
 20
113.3914163164089
 11
63.00207809073642
 21
111.4595646470384
 97
        0
 75
     0
 76
     1
 98
        0
  0
LWPOLYLINE
  5
4D3
330
4D0
100
AcDbEntity
  8
Default
  6
Continuous
 62
   136
 48
25.4
370
    30
100
AcDbPolyline
 90
        4
 70
     1
 43
0.0
 10
63.0020780907
 20
111.459564647
 10
69.0564521462
 20
110.8725761976
 10
63.5197161854
 20
113.3914163164
 10
63.0020780907
 20
111.459564647
  0
HATCH
  5
4D4
330
4D0
100
AcDbEntity
  8
Default
  6
Continuous
 62
   136
 48
25.4
100
AcDbHatch
 10
0.0
 20
0.0
 30
0.0
210
0.0
220
0.0
230
1.0
  2
SOLID
 70
     1
 71
     0
 91
        1
 92
        1
 93
        3
 72
     1
 10
79.65463943671392
 20
106.9975242824741
 11
80.17227753141843
 21
108.9293759518446
 72
     1
 10
80.17227753141842
 20
108.9293759518446
 11
74.11790347595478
 21
109.5163644012729
 72
     1
 10
74.11790347595479
 20
109.5163644012729
 11
79.65463943671392
 21
106.9975242824741
 97
        0
 75
     0
 76
     1
 98
        0
  0
LWPOLYLINE
  5
4D5
330
4D0
100
AcDbEntity
  8
Default
  6
Continuous
 62
   136
 48
25.4
370
    30
100
AcDbPolyline
 90
        4
 70
     1
 43
0.0
 10
79.6546394367
 20
106.9975242825
 10
74.117903476
 20
109.5163644013
 10
80.1722775314
 20
108.9293759518
 10
79.6546394367
 20
106.9975242825
  0
LINE
  5
4D6
330
4D0
100
AcDbEntity
  8
Default
  6
Continuous
 62
     7
 48
25.4
100
AcDbLine
 10
71.0910569876
 20
118.4658248391
 30
0.0
 11
68.2799950041
 21
107.9747986936
 31
0.0
  0
LINE
  5
4D7
330
4D0
100
AcDbEntity
  8
Default
  6
Continuous
 62
     7
 48
25.4
100
AcDbLine
 10
76.1525083174
 20
117.1096130428
 30
0.0
 11
73.3414463339
 21
106.6185868972
 31
0.0
  0
LINE
  5
4D8
330
4D0
100
AcDbEntity
  8
Default
  6
Continuous
 62
     7
 48
25.4
100
AcDbLine
 10
41.5249320874
 20
118.2496247638
 30
0.0
 11
69.0564521462
 21
110.8725761976
 31
0.0
  0
LINE
  5
4D9
330
4D0
100
AcDbEntity
  8
Default
  6
Continuous
 62
     7
 48
25.4
100
AcDbLine
 10
74.117903476
 20
109.5163644013
 30
0.0
 11
85.7090134922
 21
106.410535833
 31
0.0
  0
TEXT
  5
4DA
330
4D0
100
AcDbEntity
  8
Default
  6
Continuous
 62
     7
 48
25.4
100
AcDbText
 10
43.9416045831
 20
119.1549935908
 30
0.0
 40
6.0
  1
G1/2
 50
345.0
  7
SEACAD_arial_ttf
 11
45.4945188537
 21
124.9505485485
 31
0.0
100
AcDbText
 73
     3
  0
ENDBLK
  5
4DC
330
4D0
100
AcDbEntity
  8
0
100
AcDbBlockEnd
  0
BLOCK
  5
4E8
330
4DD
100
AcDbEntity
  8
0
100
AcDbBlockBegin
  2
GDimGGroup14
 70
     0
 71
     0
 10
0.0
 20
0.0
 30
0.0
  3
GDimGGroup14
  1

  0
HATCH
  5
4DF
330
4DD
100
AcDbEntity
  8
Default
  6
Continuous
 62
   136
 48
25.4
100
AcDbHatch
 10
0.0
 20
0.0
 30
0.0
210
0.0
220
0.0
230
1.0
  2
SOLID
 70
     1
 71
     0
 91
        1
 92
        1
 93
        3
 72
     1
 10
182.3868599070274
 20
189.6321499612774
 11
181.386859898335
 21
195.6321500134314
 72
     1
 10
181.386859898335
 20
195.6321500134314
 11
180.3868598896427
 21
189.6321499612774
 72
     1
 10
180.3868598896427
 20
189.6321499612774
 11
182.3868599070274
 21
189.6321499612774
 97
        0
 75
     0
 76
     1
 98
        0
  0
LWPOLYLINE
  5
4E0
330
4DD
100
AcDbEntity
  8
Default
  6
Continuous
 62
   136
 48
25.4
370
    30
100
AcDbPolyline
 90
        4
 70
     1
 43
0.0
 10
182.386859907
 20
189.6321499613
 10
181.3868598983
 20
195.6321500134
 10
180.3868598896
 20
189.6321499613
 10
182.386859907
 20
189.6321499613
  0
HATCH
  5
4E1
330
4DD
100
AcDbEntity
  8
Default
  6
Continuous
 62
   136
 48
25.4
100
AcDbHatch
 10
0.0
 20
0.0
 30
0.0
210
0.0
220
0.0
230
1.0
  2
SOLID
 70
     1
 71
     0
 91
        1
 92
        1
 93
        3
 72
     1
 10
182.3868599070274
 20
134.3742660492077
 11
180.3868598896427
 21
134.3742660492077
 72
     1
 10
180.3868598896427
 20
134.3742660492077
 11
181.386859898335
 21
128.3742659970536
 72
     1
 10
181.386859898335
 20
128.3742659970536
 11
182.3868599070274
 21
134.3742660492077
 97
        0
 75
     0
 76
     1
 98
        0
  0
LWPOLYLINE
  5
4E2
330
4DD
100
AcDbEntity
  8
Default
  6
Continuous
 62
   136
 48
25.4
370
    30
100
AcDbPolyline
 90
        4
 70
     1
 43
0.0
 10
182.386859907
 20
134.3742660492
 10
181.3868598983
 20
128.3742659971
 10
180.3868598896
 20
134.3742660492
 10
182.386859907
 20
134.3742660492
  0
LINE
  5
4E3
330
4DD
100
AcDbEntity
  8
Default
  6
Continuous
 62
     7
 48
25.4
100
AcDbLine
 10
106.313774173
 20
195.6321500134
 30
0.0
 11
184.3868599244
 21
195.6321500134
 31
0.0
  0
LINE
  5
4E4
330
4DD
100
AcDbEntity
  8
Default
  6
Continuous
 62
     7
 48
25.4
100
AcDbLine
 10
103.414139182
 20
128.3742659971
 30
0.0
 11
184.3868599244
 21
128.3742659971
 31
0.0
  0
LINE
  5
4E5
330
4DD
100
AcDbEntity
  8
Default
  6
Continuous
 62
     7
 48
25.4
100
AcDbLine
 10
181.3868598983
 20
195.6321500134
 30
0.0
 11
181.3868598983
 21
167.1032100808
 31
0.0
  0
LINE
  5
4E6
330
4DD
100
AcDbEntity
  8
Default
  6
Continuous
 62
     7
 48
25.4
100
AcDbLine
 10
181.3868598983
 20
156.9032096549
 30
0.0
 11
181.3868598983
 21
128.3742659971
 31
0.0
  0
TEXT
  5
4E7
330
4DD
100
AcDbEntity
  8
Default
  6
Continuous
 62
     7
 48
25.4
100
AcDbText
 10
169.5042512027
 20
159.0032094312
 30
0.0
 40
6.0
  1
350　
  7
SEACAD_arial_ttf
 11
169.5042512027
 21
165.0032094312
 31
0.0
100
AcDbText
 73
     3
  0
ENDBLK
  5
4E9
330
4DD
100
AcDbEntity
  8
0
100
AcDbBlockEnd
  0
BLOCK
  5
4F5
330
4EA
100
AcDbEntity
  8
0
100
AcDbBlockBegin
  2
GDimGGroup15
 70
     0
 71
     0
 10
0.0
 20
0.0
 30
0.0
  3
GDimGGroup15
  1

  0
HATCH
  5
4EC
330
4EA
100
AcDbEntity
  8
Default
  6
Continuous
 62
   136
 48
25.4
100
AcDbHatch
 10
0.0
 20
0.0
 30
0.0
210
0.0
220
0.0
230
1.0
  2
SOLID
 70
     1
 71
     0
 91
        1
 92
        1
 93
        3
 72
     1
 10
38.83206578519622
 20
189.6321499612774
 11
40.83206580258091
 21
189.6321499612774
 72
     1
 10
40.83206580258091
 20
189.6321499612774
 11
39.83206579388857
 21
195.6321500134314
 72
     1
 10
39.83206579388857
 20
195.6321500134314
 11
38.83206578519622
 21
189.6321499612774
 97
        0
 75
     0
 76
     1
 98
        0
  0
LWPOLYLINE
  5
4ED
330
4EA
100
AcDbEntity
  8
Default
  6
Continuous
 62
   136
 48
25.4
370
    30
100
AcDbPolyline
 90
        4
 70
     1
 43
0.0
 10
38.8320657852
 20
189.6321499613
 10
39.8320657939
 20
195.6321500134
 10
40.8320658026
 20
189.6321499613
 10
38.8320657852
 20
189.6321499613
  0
HATCH
  5
4EE
330
4EA
100
AcDbEntity
  8
Default
  6
Continuous
 62
   136
 48
25.4
100
AcDbHatch
 10
0.0
 20
0.0
 30
0.0
210
0.0
220
0.0
230
1.0
  2
SOLID
 70
     1
 71
     0
 91
        1
 92
        1
 93
        3
 72
     1
 10
38.83206578519622
 20
134.3742660492077
 11
39.83206579388857
 21
128.3742659970536
 72
     1
 10
39.83206579388857
 20
128.3742659970536
 11
40.83206580258091
 21
134.3742660492077
 72
     1
 10
40.83206580258091
 20
134.3742660492077
 11
38.83206578519622
 21
134.3742660492077
 97
        0
 75
     0
 76
     1
 98
        0
  0
LWPOLYLINE
  5
4EF
330
4EA
100
AcDbEntity
  8
Default
  6
Continuous
 62
   136
 48
25.4
370
    30
100
AcDbPolyline
 90
        4
 70
     1
 43
0.0
 10
38.8320657852
 20
134.3742660492
 10
39.8320657939
 20
128.3742659971
 10
40.8320658026
 20
134.3742660492
 10
38.8320657852
 20
134.3742660492
  0
LINE
  5
4F0
330
4EA
100
AcDbEntity
  8
Default
  6
Continuous
 62
     7
 48
25.4
100
AcDbLine
 10
72.5588043958
 20
195.6321500134
 30
0.0
 11
36.8320657678
 21
195.6321500134
 31
0.0
  0
LINE
  5
4F1
330
4EA
100
AcDbEntity
  8
Default
  6
Continuous
 62
     7
 48
25.4
100
AcDbLine
 10
76.4584393868
 20
128.3742659971
 30
0.0
 11
36.8320657678
 21
128.3742659971
 31
0.0
  0
LINE
  5
4F2
330
4EA
100
AcDbEntity
  8
Default
  6
Continuous
 62
     7
 48
25.4
100
AcDbLine
 10
39.8320657939
 20
195.6321500134
 30
0.0
 11
39.8320657939
 21
167.1032100808
 31
0.0
  0
LINE
  5
4F3
330
4EA
100
AcDbEntity
  8
Default
  6
Continuous
 62
     7
 48
25.4
100
AcDbLine
 10
39.8320657939
 20
156.9032096549
 30
0.0
 11
39.8320657939
 21
128.3742659971
 31
0.0
  0
TEXT
  5
4F4
330
4EA
100
AcDbEntity
  8
Default
  6
Continuous
 62
     7
 48
25.4
100
AcDbText
 10
30.688587533
 20
159.0032094312
 30
0.0
 40
6.0
  1
350
  7
SEACAD_arial_ttf
 11
30.688587533
 21
165.0032094312
 31
0.0
100
AcDbText
 73
     3
  0
ENDBLK
  5
4F6
330
4EA
100
AcDbEntity
  8
0
100
AcDbBlockEnd
  0
BLOCK
  5
501
330
4F7
100
AcDbEntity
  8
0
100
AcDbBlockBegin
  2
GDimGGroup16
 70
     0
 71
     0
 10
0.0
 20
0.0
 30
0.0
  3
GDimGGroup16
  1

  0
HATCH
  5
4F9
330
4F7
100
AcDbEntity
  8
Default
  6
Continuous
 62
   136
 48
25.4
100
AcDbHatch
 10
0.0
 20
0.0
 30
0.0
210
0.0
220
0.0
230
1.0
  2
SOLID
 70
     1
 71
     0
 91
        1
 92
        1
 93
        3
 72
     1
 10
98.31128933657358
 20
231.6963388575211
 11
92.31128928441952
 21
230.6963388488288
 72
     1
 10
92.31128928441952
 20
230.6963388488288
 11
98.31128933657358
 21
229.6963388401364
 72
     1
 10
98.31128933657358
 20
229.6963388401364
 11
98.31128933657358
 21
231.6963388575211
 97
        0
 75
     0
 76
     1
 98
        0
  0
LWPOLYLINE
  5
4FA
330
4F7
100
AcDbEntity
  8
Default
  6
Continuous
 62
   136
 48
25.4
370
    30
100
AcDbPolyline
 90
        4
 70
     1
 43
0.0
 10
98.3112893366
 20
231.6963388575
 10
92.3112892844
 20
230.6963388488
 10
98.3112893366
 20
229.6963388401
 10
98.3112893366
 20
231.6963388575
  0
HATCH
  5
4FB
330
4F7
100
AcDbEntity
  8
Default
  6
Continuous
 62
   136
 48
25.4
100
AcDbHatch
 10
0.0
 20
0.0
 30
0.0
210
0.0
220
0.0
230
1.0
  2
SOLID
 70
     1
 71
     0
 91
        1
 92
        1
 93
        3
 72
     1
 10
80.56128923226545
 20
231.6963388575211
 11
80.56128923226545
 21
229.6963388401364
 72
     1
 10
80.56128923226545
 20
229.6963388401364
 11
86.56128928441952
 21
230.6963388488288
 72
     1
 10
86.56128928441952
 20
230.6963388488288
 11
80.56128923226545
 21
231.6963388575211
 97
        0
 75
     0
 76
     1
 98
        0
  0
LWPOLYLINE
  5
4FC
330
4F7
100
AcDbEntity
  8
Default
  6
Continuous
 62
   136
 48
25.4
370
    30
100
AcDbPolyline
 90
        4
 70
     1
 43
0.0
 10
80.5612892323
 20
231.6963388575
 10
86.5612892844
 20
230.6963388488
 10
80.5612892323
 20
229.6963388401
 10
80.5612892323
 20
231.6963388575
  0
LINE
  5
4FD
330
4F7
100
AcDbEntity
  8
Default
  6
Continuous
 62
     7
 48
25.4
100
AcDbLine
 10
104.3112893887
 20
230.6963388488
 30
0.0
 11
92.3112892844
 21
230.6963388488
 31
0.0
  0
LINE
  5
4FE
330
4F7
100
AcDbEntity
  8
Default
  6
Continuous
 62
     7
 48
25.4
100
AcDbLine
 10
86.5612892844
 20
230.6963388488
 30
0.0
 11
60.6124295332
 21
230.6963388488
 31
0.0
  0
TEXT
  5
4FF
330
4F7
100
AcDbEntity
  8
Default
  6
Continuous
 62
     7
 48
25.4
100
AcDbText
 10
73.7545355609
 20
232.1963388488
 30
0.0
 40
6.0
  1
23
  7
SEACAD_arial_ttf
 11
73.7545355609
 21
238.1963388488
 31
0.0
100
AcDbText
 73
     3
  0
TEXT
  5
500
330
4F7
100
AcDbEntity
  8
Default
  6
Continuous
 62
     7
 48
25.4
100
AcDbText
 10
62.7124302978
 20
232.1963388488
 30
0.0
 40
6.0
  1
O
  7
SEACAD_semeca1_ttf
 11
62.7124302978
 21
238.1963388488
 31
0.0
100
AcDbText
 73
     3
  0
ENDBLK
  5
502
330
4F7
100
AcDbEntity
  8
0
100
AcDbBlockEnd
  0
ENDSEC
  0
SECTION
  2
ENTITIES
  0
TEXT
  5
2B
330
1F
100
AcDbEntity
  8
Layer03
  6
Continuous
 62
     7
 48
25.4
100
AcDbText
 10
12.1444444444
 20
31.9333333333
 30
0.0
 40
4.0
  1
1:4
  7
SEACAD_arial_ttfB
 11
12.1444444444
 21
35.9333333333
 31
0.0
100
AcDbText
 73
     3
  0
TEXT
  5
2D
330
1F
100
AcDbEntity
  8
Layer03
  6
Continuous
 62
     7
 48
25.4
100
AcDbText
 10
18.9611111111
 20
8.6666666667
 30
0.0
 40
5.0
  1
x
  7
SEACAD_arial_ttfB
 11
18.9611111111
 21
13.6666666667
 31
0.0
100
AcDbText
 73
     3
  0
TEXT
  5
2E
330
1F
100
AcDbEntity
  8
Layer03
  6
Continuous
 62
     7
 48
25.4
100
AcDbText
 10
175.4
 20
13.9333333333
 30
0.0
 40
4.0
  1
32.445.000
  7
SEACAD_arial_ttfB
 11
175.4
 21
17.9333333333
 31
0.0
100
AcDbText
 73
     3
  0
INSERT
  5
31
330
1F
100
AcDbEntity
  8
Default
100
AcDbBlockReference
  2
SEANNOT_GROUP
 10
0.0
 20
0.0
 30
0.0
  0
INSERT
  5
37
330
1F
100
AcDbEntity
  8
Default
100
AcDbBlockReference
  2
SEANNOT_GROUP1
 10
0.0
 20
0.0
 30
0.0
  0
INSERT
  5
3C
330
1F
100
AcDbEntity
  8
Default
100
AcDbBlockReference
  2
SEANNOT_GROUP2
 10
0.0
 20
0.0
 30
0.0
  0
CIRCLE
  5
40
330
1F
100
AcDbEntity
  8
Default
  6
Continuous
 62
     7
 48
25.4
100
AcDbCircle
 10
69.8112892844
 20
85.6321500134
 30
0.0
 40
4.375
  0
TEXT
  5
41
330
1F
100
AcDbEntity
  8
Layer3
  6
Continuous
 62
     7
 48
25.4
100
AcDbText
 10
47.4
 20
17.9333333333
 30
0.0
 40
4.0
  1
32.917.000
  7
SEACAD_arial_ttfB
 11
47.4
 21
21.9333333333
 31
0.0
100
AcDbText
 73
     3
  0
TEXT
  5
43
330
1F
100
AcDbEntity
  8
Bogenauslauf_55grad_unten
  6
Continuous
 62
     7
 48
25.4
100
AcDbText
 10
71.2222222222
 20
41.4666666667
 30
0.0
 40
2.0
  1
J2004
  7
SEACAD_arial_ttfB
 11
71.2222222222
 21
43.4666666667
 31
0.0
100
AcDbText
 73
     3
  0
TEXT
  5
45
330
1F
100
AcDbEntity
  8
Bogenauslauf_55grad_unten
  6
Continuous
 62
     7
 48
25.4
100
AcDbText
 10
70.0888888889
 20
36.9666666667
 30
0.0
 40
2.0
  1
04. 2.20
  7
SEACAD_arial_ttfB
 11
70.0888888889
 21
38.9666666667
 31
0.0
100
AcDbText
 73
     3
  0
TEXT
  5
46
330
1F
100
AcDbEntity
  8
Bogenauslauf_55grad_unten
  6
Continuous
 62
     7
 48
25.4
100
AcDbText
 10
72.8666666667
 20
31.9666666667
 30
0.0
 40
2.0
  1
Sm
  7
SEACAD_arial_ttfB
 11
72.8666666667
 21
33.9666666667
 31
0.0
100
AcDbText
 73
     3
  0
TEXT
  5
47
330
1F
100
AcDbEntity
  8
Layer3
  6
Continuous
 62
     7
 48
25.4
100
AcDbText
 10
78.5555555556
 20
17.9333333333
 30
0.0
 40
4.0
  1
32.917.new
  7
SEACAD_arial_ttfB
 11
78.5555555556
 21
21.9333333333
 31
0.0
100
AcDbText
 73
     3
  0
TEXT
  5
48
330
1F
100
AcDbEntity
  8
Bogenauslauf_55grad_unten
  6
Continuous
 62
     7
 48
25.4
100
AcDbText
 10
51.2222222222
 20
41.4666666667
 30
0.0
 40
2.0
  1
J2002
  7
SEACAD_arial_ttfB
 11
51.2222222222
 21
43.4666666667
 31
0.0
100
AcDbText
 73
     3
  0
TEXT
  5
49
330
1F
100
AcDbEntity
  8
Bogenauslauf_55grad_unten
  6
Continuous
 62
     7
 48
25.4
100
AcDbText
 10
50.0888888889
 20
36.9666666667
 30
0.0
 40
2.0
  1
02. 5.20
  7
SEACAD_arial_ttfB
 11
50.0888888889
 21
38.9666666667
 31
0.0
100
AcDbText
 73
     3
  0
TEXT
  5
4A
330
1F
100
AcDbEntity
  8
Bogenauslauf_55grad_unten
  6
Continuous
 62
     7
 48
25.4
100
AcDbText
 10
52.8666666667
 20
31.9666666667
 30
0.0
 40
2.0
  1
Sm
  7
SEACAD_arial_ttfB
 11
52.8666666667
 21
33.9666666667
 31
0.0
100
AcDbText
 73
     3
  0
TEXT
  5
4B
330
1F
100
AcDbEntity
  8
Bogenauslauf_55grad_unten
  6
Continuous
 62
     7
 48
25.4
100
AcDbText
 10
90.0888888889
 20
36.9666666667
 30
0.0
 40
2.0
  1
06. 2.20
  7
SEACAD_arial_ttfB
 11
90.0888888889
 21
38.9666666667
 31
0.0
100
AcDbText
 73
     3
  0
TEXT
  5
4C
330
1F
100
AcDbEntity
  8
Bogenauslauf_55grad_unten
  6
Continuous
 62
     7
 48
25.4
100
AcDbText
 10
92.8666666667
 20
31.9666666667
 30
0.0
 40
2.0
  1
Sm
  7
SEACAD_arial_ttfB
 11
92.8666666667
 21
33.9666666667
 31
0.0
100
AcDbText
 73
     3
  0
TEXT
  5
4D
330
1F
100
AcDbEntity
  8
Bogenauslauf_55grad_unten
  6
Continuous
 62
     7
 48
25.4
100
AcDbText
 10
90.4222222222
 20
41.4666666667
 30
0.0
 40
2.0
  1
Supply
  7
SEACAD_arial_ttfB
 11
90.4222222222
 21
43.4666666667
 31
0.0
100
AcDbText
 73
     3
  0
TEXT
  5
4E
330
1F
100
AcDbEntity
  8
Bogenauslauf_55grad_unten
  6
Continuous
 62
     7
 48
25.4
100
AcDbText
 10
110.0888888889
 20
36.9666666667
 30
0.0
 40
2.0
  1
06. 9.20
  7
SEACAD_arial_ttfB
 11
110.0888888889
 21
38.9666666667
 31
0.0
100
AcDbText
 73
     3
  0
TEXT
  5
4F
330
1F
100
AcDbEntity
  8
Bogenauslauf_55grad_unten
  6
Continuous
 62
     7
 48
25.4
100
AcDbText
 10
112.8666666667
 20
31.9666666667
 30
0.0
 40
2.0
  1
Sm
  7
SEACAD_arial_ttfB
 11
112.8666666667
 21
33.9666666667
 31
0.0
100
AcDbText
 73
     3
  0
TEXT
  5
50
330
1F
100
AcDbEntity
  8
Bogenauslauf_55grad_unten
  6
Continuous
 62
     7
 48
25.4
100
AcDbText
 10
110.9777777778
 20
41.4666666667
 30
0.0
 40
2.0
  1
K2006
  7
SEACAD_arial_ttfB
 11
110.9777777778
 21
43.4666666667
 31
0.0
100
AcDbText
 73
     3
  0
TEXT
  5
51
330
1F
100
AcDbEntity
  8
Bogenauslauf_55grad_unten
  6
Continuous
 62
     7
 48
25.4
100
AcDbText
 10
108.4888888889
 20
26.9666666667
 30
0.0
 40
2.0
  1
m3244506
  7
SEACAD_arial_ttfB
 11
108.4888888889
 21
28.9666666667
 31
0.0
100
AcDbText
 73
     3
  0
TEXT
  5
52
330
1F
100
AcDbEntity
  8
Layer3
  6
Continuous
 62
     7
 48
25.4
100
AcDbText
 10
110.9111111111
 20
17.9333333333
 30
0.0
 40
4.0
  1
32.445.00U
  7
SEACAD_arial_ttfB
 11
110.9111111111
 21
21.9333333333
 31
0.0
100
AcDbText
 73
     3
  0
INSERT
  5
54
330
1F
100
AcDbEntity
  8
0
100
AcDbBlockReference
  2
SE
 10
0.0
 20
0.0
 30
0.0
  0
INSERT
  5
71
330
1F
100
AcDbEntity
  8
Default
100
AcDbBlockReference
  2
GDimGGroup
 10
0.0
 20
0.0
 30
0.0
  0
INSERT
  5
7F
330
1F
100
AcDbEntity
  8
Default
100
AcDbBlockReference
  2
GDimGGroup1
 10
0.0
 20
0.0
 30
0.0
  0
INSERT
  5
8C
330
1F
100
AcDbEntity
  8
Default
100
AcDbBlockReference
  2
GDimGGroup2
 10
0.0
 20
0.0
 30
0.0
  0
INSERT
  5
99
330
1F
100
AcDbEntity
  8
Default
100
AcDbBlockReference
  2
GDimGGroup3
 10
0.0
 20
0.0
 30
0.0
  0
INSERT
  5
AA
330
1F
100
AcDbEntity
  8
0
100
AcDbBlockReference
  2
SE1
 10
0.0
 20
0.0
 30
0.0
  0
INSERT
  5
3A5
330
1F
100
AcDbEntity
  8
0
100
AcDbBlockReference
  2
SE2
 10
0.0
 20
0.0
 30
0.0
  0
INSERT
  5
3DF
330
1F
100
AcDbEntity
  8
0
100
AcDbBlockReference
  2
SE3
 10
0.0
 20
0.0
 30
0.0
  0
INSERT
  5
419
330
1F
100
AcDbEntity
  8
Default
100
AcDbBlockReference
  2
GDimGGroup4
 10
0.0
 20
0.0
 30
0.0
  0
INSERT
  5
426
330
1F
100
AcDbEntity
  8
Default
100
AcDbBlockReference
  2
GDimGGroup5
 10
0.0
 20
0.0
 30
0.0
  0
INSERT
  5
433
330
1F
100
AcDbEntity
  8
Default
100
AcDbBlockReference
  2
GDimGGroup6
 10
0.0
 20
0.0
 30
0.0
  0
INSERT
  5
440
330
1F
100
AcDbEntity
  8
Default
100
AcDbBlockReference
  2
GDimGGroup7
 10
0.0
 20
0.0
 30
0.0
  0
INSERT
  5
44D
330
1F
100
AcDbEntity
  8
Default
100
AcDbBlockReference
  2
GDimGGroup8
 10
0.0
 20
0.0
 30
0.0
  0
INSERT
  5
45B
330
1F
100
AcDbEntity
  8
Default
100
AcDbBlockReference
  2
GDimGGroup9
 10
0.0
 20
0.0
 30
0.0
  0
INSERT
  5
469
330
1F
100
AcDbEntity
  8
Default
100
AcDbBlockReference
  2
GDimGGroup10
 10
0.0
 20
0.0
 30
0.0
  0
INSERT
  5
475
330
1F
100
AcDbEntity
  8
Default
100
AcDbBlockReference
  2
GDimGGroup11
 10
0.0
 20
0.0
 30
0.0
  0
INSERT
  5
483
330
1F
100
AcDbEntity
  8
0
100
AcDbBlockReference
  2
SE4
 10
0.0
 20
0.0
 30
0.0
  0
INSERT
  5
4BF
330
1F
100
AcDbEntity
  8
Default
100
AcDbBlockReference
  2
GDimGGroup12
 10
0.0
 20
0.0
 30
0.0
  0
INSERT
  5
4D1
330
1F
100
AcDbEntity
  8
Default
100
AcDbBlockReference
  2
GDimGGroup13
 10
0.0
 20
0.0
 30
0.0
  0
INSERT
  5
4DE
330
1F
100
AcDbEntity
  8
Default
100
AcDbBlockReference
  2
GDimGGroup14
 10
0.0
 20
0.0
 30
0.0
  0
INSERT
  5
4EB
330
1F
100
AcDbEntity
  8
Default
100
AcDbBlockReference
  2
GDimGGroup15
 10
0.0
 20
0.0
 30
0.0
  0
INSERT
  5
4F8
330
1F
100
AcDbEntity
  8
Default
100
AcDbBlockReference
  2
GDimGGroup16
 10
0.0
 20
0.0
 30
0.0
  0
LINE
  5
504
330
1F
100
AcDbEntity
  8
MDS_Layer_90
  6
Continuous
 62
     7
 48
25.4
100
AcDbLine
 10
6.6
 20
291.0
 30
0.0
 11
205.0
 21
291.0
 31
0.0
  0
LINE
  5
505
330
1F
100
AcDbEntity
  8
MDS_Layer_90
  6
Continuous
 62
     7
 48
25.4
100
AcDbLine
 10
6.6
 20
291.0
 30
0.0
 11
6.6
 21
45.0
 31
0.0
  0
LINE
  5
507
330
1F
100
AcDbEntity
  8
MDS_Layer_94
  6
Continuous
 62
     7
 48
25.4
100
AcDbLine
 10
85.0
 20
30.0
 30
0.0
 11
105.0
 21
30.0
 31
0.0
  0
LINE
  5
508
330
1F
100
AcDbEntity
  8
MDS_Layer_94
  6
Continuous
 62
     7
 48
25.4
100
AcDbLine
 10
125.0
 20
35.0
 30
0.0
 11
145.0
 21
35.0
 31
0.0
  0
LINE
  5
509
330
1F
100
AcDbEntity
  8
MDS_Layer_94
  6
Continuous
 62
     7
 48
25.4
100
AcDbLine
 10
105.0
 20
30.0
 30
0.0
 11
125.0
 21
30.0
 31
0.0
  0
LINE
  5
50A
330
1F
100
AcDbEntity
  8
MDS_Layer_94
  6
Continuous
 62
     7
 48
25.4
100
AcDbLine
 10
105.0
 20
25.0
 30
0.0
 11
105.0
 21
45.0
 31
0.0
  0
LINE
  5
50B
330
1F
100
AcDbEntity
  8
MDS_Layer_94
  6
Continuous
 62
     7
 48
25.4
100
AcDbLine
 10
25.6
 20
45.0
 30
0.0
 11
25.6
 21
25.0
 31
0.0
  0
LINE
  5
50C
330
1F
100
AcDbEntity
  8
MDS_Layer_94
  6
Continuous
 62
     7
 48
25.4
100
AcDbLine
 10
85.0
 20
25.0
 30
0.0
 11
105.0
 21
25.0
 31
0.0
  0
LINE
  5
50D
330
1F
100
AcDbEntity
  8
MDS_Layer_94
  6
Continuous
 62
     7
 48
25.4
100
AcDbLine
 10
125.0
 20
30.0
 30
0.0
 11
145.0
 21
30.0
 31
0.0
  0
LINE
  5
50E
330
1F
100
AcDbEntity
  8
MDS_Layer_94
  6
Continuous
 62
     7
 48
25.4
100
AcDbLine
 10
105.0
 20
25.0
 30
0.0
 11
125.0
 21
25.0
 31
0.0
  0
LINE
  5
50F
330
1F
100
AcDbEntity
  8
MDS_Layer_94
  6
Continuous
 62
     7
 48
25.4
100
AcDbLine
 10
125.0
 20
25.0
 30
0.0
 11
125.0
 21
45.0
 31
0.0
  0
LINE
  5
510
330
1F
100
AcDbEntity
  8
MDS_Layer_94
  6
Continuous
 62
     7
 48
25.4
100
AcDbLine
 10
145.0
 20
25.0
 30
0.0
 11
145.0
 21
45.0
 31
0.0
  0
LINE
  5
511
330
1F
100
AcDbEntity
  8
MDS_Layer_94
  6
Continuous
 62
     7
 48
25.4
100
AcDbLine
 10
125.0
 20
25.0
 30
0.0
 11
145.0
 21
25.0
 31
0.0
  0
LINE
  5
512
330
1F
100
AcDbEntity
  8
MDS_Layer_94
  6
Continuous
 62
     7
 48
25.4
100
AcDbLine
 10
85.0
 20
40.0
 30
0.0
 11
105.0
 21
40.0
 31
0.0
  0
LINE
  5
513
330
1F
100
AcDbEntity
  8
MDS_Layer_94
  6
Continuous
 62
     7
 48
25.4
100
AcDbLine
 10
105.0
 20
40.0
 30
0.0
 11
125.0
 21
40.0
 31
0.0
  0
LINE
  5
514
330
1F
100
AcDbEntity
  8
MDS_Layer_94
  6
Continuous
 62
     7
 48
25.4
100
AcDbLine
 10
125.0
 20
40.0
 30
0.0
 11
145.0
 21
40.0
 31
0.0
  0
LINE
  5
515
330
1F
100
AcDbEntity
  8
MDS_Layer_94
  6
Continuous
 62
     7
 48
25.4
100
AcDbLine
 10
25.6
 20
35.0
 30
0.0
 11
45.0
 21
35.0
 31
0.0
  0
LINE
  5
516
330
1F
100
AcDbEntity
  8
MDS_Layer_94
  6
Continuous
 62
     7
 48
25.4
100
AcDbLine
 10
85.0
 20
35.0
 30
0.0
 11
105.0
 21
35.0
 31
0.0
  0
LINE
  5
517
330
1F
100
AcDbEntity
  8
MDS_Layer_94
  6
Continuous
 62
     7
 48
25.4
100
AcDbLine
 10
105.0
 20
35.0
 30
0.0
 11
125.0
 21
35.0
 31
0.0
  0
LINE
  5
518
330
1F
100
AcDbEntity
  8
MDS_Layer_94
  6
Continuous
 62
     7
 48
25.4
100
AcDbLine
 10
6.6
 20
5.0168024536
 30
0.0
 11
6.6
 21
25.0
 31
0.0
  0
LINE
  5
519
330
1F
100
AcDbEntity
  8
MDS_Layer_94
  6
Continuous
 62
     7
 48
25.4
100
AcDbLine
 10
16.1
 20
20.0
 30
0.0
 11
16.1
 21
5.0168024536
 31
0.0
  0
LINE
  5
51A
330
1F
100
AcDbEntity
  8
MDS_Layer_94
  6
Continuous
 62
     7
 48
25.4
100
AcDbLine
 10
6.6
 20
5.0
 30
0.0
 11
45.0
 21
5.0
 31
0.0
  0
LINE
  5
51B
330
1F
100
AcDbEntity
  8
MDS_Layer_94
  6
Continuous
 62
     7
 48
25.4
100
AcDbLine
 10
6.6
 20
39.999
 30
0.0
 11
45.0
 21
39.999
 31
0.0
  0
LINE
  5
51C
330
1F
100
AcDbEntity
  8
MDS_Layer_94
  6
Continuous
 62
     7
 48
25.4
100
AcDbLine
 10
6.6
 20
40.0
 30
0.0
 11
45.0
 21
40.0
 31
0.0
  0
LINE
  5
51D
330
1F
100
AcDbEntity
  8
MDS_Layer_94
  6
Continuous
 62
     7
 48
25.4
100
AcDbLine
 10
6.6
 20
39.998
 30
0.0
 11
45.0
 21
39.998
 31
0.0
  0
LINE
  5
51E
330
1F
100
AcDbEntity
  8
MDS_Layer_94
  6
Continuous
 62
     7
 48
25.4
100
AcDbLine
 10
45.0
 20
5.0
 30
0.0
 11
45.0
 21
25.0
 31
0.0
  0
LINE
  5
51F
330
1F
100
AcDbEntity
  8
MDS_Layer_94
  6
Continuous
 62
     7
 48
25.4
100
AcDbLine
 10
45.0
 20
15.0
 30
0.0
 11
77.0
 21
15.0
 31
0.0
  0
LINE
  5
520
330
1F
100
AcDbEntity
  8
MDS_Layer_94
  6
Continuous
 62
     7
 48
25.4
100
AcDbLine
 10
77.0
 20
15.0
 30
0.0
 11
109.0
 21
15.0
 31
0.0
  0
LINE
  5
521
330
1F
100
AcDbEntity
  8
MDS_Layer_94
  6
Continuous
 62
     7
 48
25.4
100
AcDbLine
 10
25.6
 20
5.0168024536
 30
0.0
 11
25.6
 21
25.0
 31
0.0
  0
LINE
  5
522
330
1F
100
AcDbEntity
  8
MDS_Layer_94
  6
Continuous
 62
     7
 48
25.4
100
AcDbLine
 10
45.0
 20
5.0
 30
0.0
 11
77.0
 21
5.0
 31
0.0
  0
LINE
  5
523
330
1F
100
AcDbEntity
  8
MDS_Layer_94
  6
Continuous
 62
     7
 48
25.4
100
AcDbLine
 10
165.0
 20
25.0
 30
0.0
 11
185.0
 21
25.0
 31
0.0
  0
LINE
  5
524
330
1F
100
AcDbEntity
  8
MDS_Layer_94
  6
Continuous
 62
     7
 48
25.4
100
AcDbLine
 10
141.0
 20
15.0
 30
0.0
 11
173.0
 21
15.0
 31
0.0
  0
LINE
  5
525
330
1F
100
AcDbEntity
  8
MDS_Layer_94
  6
Continuous
 62
     7
 48
25.4
100
AcDbLine
 10
205.0
 20
25.0
 30
0.0
 11
205.0
 21
45.0
 31
0.0
  0
LINE
  5
526
330
1F
100
AcDbEntity
  8
MDS_Layer_94
  6
Continuous
 62
     7
 48
25.4
100
AcDbLine
 10
185.0
 20
30.0
 30
0.0
 11
205.0
 21
30.0
 31
0.0
  0
LINE
  5
527
330
1F
100
AcDbEntity
  8
MDS_Layer_94
  6
Continuous
 62
     7
 48
25.4
100
AcDbLine
 10
185.0
 20
35.0
 30
0.0
 11
205.0
 21
35.0
 31
0.0
  0
LINE
  5
528
330
1F
100
AcDbEntity
  8
MDS_Layer_94
  6
Continuous
 62
     7
 48
25.4
100
AcDbLine
 10
185.0
 20
40.0
 30
0.0
 11
205.0
 21
40.0
 31
0.0
  0
LINE
  5
529
330
1F
100
AcDbEntity
  8
MDS_Layer_94
  6
Continuous
 62
     7
 48
25.4
100
AcDbLine
 10
185.0
 20
25.0
 30
0.0
 11
185.0
 21
45.0
 31
0.0
  0
LINE
  5
52A
330
1F
100
AcDbEntity
  8
MDS_Layer_94
  6
Continuous
 62
     7
 48
25.4
100
AcDbLine
 10
165.0
 20
30.0
 30
0.0
 11
185.0
 21
30.0
 31
0.0
  0
LINE
  5
52B
330
1F
100
AcDbEntity
  8
MDS_Layer_94
  6
Continuous
 62
     7
 48
25.4
100
AcDbLine
 10
165.0
 20
35.0
 30
0.0
 11
185.0
 21
35.0
 31
0.0
  0
LINE
  5
52C
330
1F
100
AcDbEntity
  8
MDS_Layer_94
  6
Continuous
 62
     7
 48
25.4
100
AcDbLine
 10
165.0
 20
40.0
 30
0.0
 11
185.0
 21
40.0
 31
0.0
  0
LINE
  5
52D
330
1F
100
AcDbEntity
  8
MDS_Layer_94
  6
Continuous
 62
     7
 48
25.4
100
AcDbLine
 10
145.0
 20
35.0
 30
0.0
 11
165.0
 21
35.0
 31
0.0
  0
LINE
  5
52E
330
1F
100
AcDbEntity
  8
MDS_Layer_94
  6
Continuous
 62
     7
 48
25.4
100
AcDbLine
 10
165.0
 20
25.0
 30
0.0
 11
165.0
 21
45.0
 31
0.0
  0
LINE
  5
52F
330
1F
100
AcDbEntity
  8
MDS_Layer_94
  6
Continuous
 62
     7
 48
25.4
100
AcDbLine
 10
145.0
 20
40.0
 30
0.0
 11
165.0
 21
40.0
 31
0.0
  0
LINE
  5
530
330
1F
100
AcDbEntity
  8
MDS_Layer_94
  6
Continuous
 62
     7
 48
25.4
100
AcDbLine
 10
45.0
 20
45.0
 30
0.0
 11
205.0
 21
45.0
 31
0.0
  0
LINE
  5
531
330
1F
100
AcDbEntity
  8
MDS_Layer_94
  6
Continuous
 62
     7
 48
25.4
100
AcDbLine
 10
25.6
 20
30.0
 30
0.0
 11
45.0
 21
30.0
 31
0.0
  0
LINE
  5
532
330
1F
100
AcDbEntity
  8
MDS_Layer_94
  6
Continuous
 62
     7
 48
25.4
100
AcDbLine
 10
6.6
 20
20.0
 30
0.0
 11
25.6
 21
20.0
 31
0.0
  0
LINE
  5
533
330
1F
100
AcDbEntity
  8
MDS_Layer_94
  6
Continuous
 62
     7
 48
25.4
100
AcDbLine
 10
6.6
 20
15.0
 30
0.0
 11
25.6
 21
15.0
 31
0.0
  0
LINE
  5
534
330
1F
100
AcDbEntity
  8
MDS_Layer_94
  6
Continuous
 62
     7
 48
25.4
100
AcDbLine
 10
6.6
 20
25.0
 30
0.0
 11
45.0
 21
25.0
 31
0.0
  0
LINE
  5
535
330
1F
100
AcDbEntity
  8
MDS_Layer_94
  6
Continuous
 62
     7
 48
25.4
100
AcDbLine
 10
45.0
 20
25.0
 30
0.0
 11
45.0
 21
45.0
 31
0.0
  0
LINE
  5
536
330
1F
100
AcDbEntity
  8
MDS_Layer_94
  6
Continuous
 62
     7
 48
25.4
100
AcDbLine
 10
45.0
 20
40.0
 30
0.0
 11
65.0
 21
40.0
 31
0.0
  0
LINE
  5
537
330
1F
100
AcDbEntity
  8
MDS_Layer_94
  6
Continuous
 62
     7
 48
25.4
100
AcDbLine
 10
45.0
 20
35.0
 30
0.0
 11
65.0
 21
35.0
 31
0.0
  0
LINE
  5
538
330
1F
100
AcDbEntity
  8
MDS_Layer_94
  6
Continuous
 62
     7
 48
25.4
100
AcDbLine
 10
45.0
 20
30.0
 30
0.0
 11
65.0
 21
30.0
 31
0.0
  0
LINE
  5
539
330
1F
100
AcDbEntity
  8
MDS_Layer_94
  6
Continuous
 62
     7
 48
25.4
100
AcDbLine
 10
65.0
 20
25.0
 30
0.0
 11
65.0
 21
45.0
 31
0.0
  0
LINE
  5
53A
330
1F
100
AcDbEntity
  8
MDS_Layer_94
  6
Continuous
 62
     7
 48
25.4
100
AcDbLine
 10
45.0
 20
25.0
 30
0.0
 11
65.0
 21
25.0
 31
0.0
  0
LINE
  5
53B
330
1F
100
AcDbEntity
  8
MDS_Layer_94
  6
Continuous
 62
     7
 48
25.4
100
AcDbLine
 10
65.0
 20
40.0
 30
0.0
 11
85.0
 21
40.0
 31
0.0
  0
LINE
  5
53C
330
1F
100
AcDbEntity
  8
MDS_Layer_94
  6
Continuous
 62
     7
 48
25.4
100
AcDbLine
 10
65.0
 20
35.0
 30
0.0
 11
85.0
 21
35.0
 31
0.0
  0
LINE
  5
53D
330
1F
100
AcDbEntity
  8
MDS_Layer_94
  6
Continuous
 62
     7
 48
25.4
100
AcDbLine
 10
65.0
 20
30.0
 30
0.0
 11
85.0
 21
30.0
 31
0.0
  0
LINE
  5
53E
330
1F
100
AcDbEntity
  8
MDS_Layer_94
  6
Continuous
 62
     7
 48
25.4
100
AcDbLine
 10
85.0
 20
25.0
 30
0.0
 11
85.0
 21
45.0
 31
0.0
  0
LINE
  5
53F
330
1F
100
AcDbEntity
  8
MDS_Layer_94
  6
Continuous
 62
     7
 48
25.4
100
AcDbLine
 10
65.0
 20
25.0
 30
0.0
 11
85.0
 21
25.0
 31
0.0
  0
LINE
  5
540
330
1F
100
AcDbEntity
  8
MDS_Layer_94
  6
Continuous
 62
     7
 48
25.4
100
AcDbLine
 10
45.0
 20
45.0
 30
0.0
 11
6.6
 21
45.0
 31
0.0
  0
LINE
  5
541
330
1F
100
AcDbEntity
  8
MDS_Layer_94
  6
Continuous
 62
     7
 48
25.4
100
AcDbLine
 10
6.6
 20
45.0
 30
0.0
 11
6.6
 21
25.0
 31
0.0
  0
LINE
  5
542
330
1F
100
AcDbEntity
  8
MDS_Layer_94
  6
Continuous
 62
     7
 48
25.4
100
AcDbLine
 10
185.0
 20
25.0
 30
0.0
 11
205.0
 21
25.0
 31
0.0
  0
LINE
  5
543
330
1F
100
AcDbEntity
  8
MDS_Layer_94
  6
Continuous
 62
     7
 48
25.4
100
AcDbLine
 10
77.0
 20
5.0
 30
0.0
 11
109.0
 21
5.0
 31
0.0
  0
LINE
  5
544
330
1F
100
AcDbEntity
  8
MDS_Layer_94
  6
Continuous
 62
     7
 48
25.4
100
AcDbLine
 10
145.0
 20
30.0
 30
0.0
 11
165.0
 21
30.0
 31
0.0
  0
LINE
  5
545
330
1F
100
AcDbEntity
  8
MDS_Layer_94
  6
Continuous
 62
     7
 48
25.4
100
AcDbLine
 10
109.0
 20
5.0
 30
0.0
 11
109.0
 21
25.0
 31
0.0
  0
LINE
  5
546
330
1F
100
AcDbEntity
  8
MDS_Layer_94
  6
Continuous
 62
     7
 48
25.4
100
AcDbLine
 10
109.0
 20
15.0
 30
0.0
 11
141.0
 21
15.0
 31
0.0
  0
LINE
  5
547
330
1F
100
AcDbEntity
  8
MDS_Layer_94
  6
Continuous
 62
     7
 48
25.4
100
AcDbLine
 10
145.0
 20
25.0
 30
0.0
 11
165.0
 21
25.0
 31
0.0
  0
LINE
  5
548
330
1F
100
AcDbEntity
  8
MDS_Layer_94
  6
Continuous
 62
     7
 48
25.4
100
AcDbLine
 10
77.0
 20
5.0
 30
0.0
 11
77.0
 21
25.0
 31
0.0
  0
LINE
  5
549
330
1F
100
AcDbEntity
  8
MDS_Layer_94
  6
Continuous
 62
     7
 48
25.4
100
AcDbLine
 10
205.0
 20
5.0
 30
0.0
 11
205.0
 21
25.0
 31
0.0
  0
LINE
  5
54A
330
1F
100
AcDbEntity
  8
MDS_Layer_94
  6
Continuous
 62
     7
 48
25.4
100
AcDbLine
 10
173.0
 20
5.0
 30
0.0
 11
205.0
 21
5.0
 31
0.0
  0
LINE
  5
54B
330
1F
100
AcDbEntity
  8
MDS_Layer_94
  6
Continuous
 62
     7
 48
25.4
100
AcDbLine
 10
173.0
 20
5.0
 30
0.0
 11
173.0
 21
25.0
 31
0.0
  0
LINE
  5
54C
330
1F
100
AcDbEntity
  8
MDS_Layer_94
  6
Continuous
 62
     7
 48
25.4
100
AcDbLine
 10
141.0
 20
5.0
 30
0.0
 11
173.0
 21
5.0
 31
0.0
  0
LINE
  5
54D
330
1F
100
AcDbEntity
  8
MDS_Layer_94
  6
Continuous
 62
     7
 48
25.4
100
AcDbLine
 10
109.0
 20
5.0
 30
0.0
 11
141.0
 21
5.0
 31
0.0
  0
LINE
  5
54E
330
1F
100
AcDbEntity
  8
MDS_Layer_94
  6
Continuous
 62
     7
 48
25.4
100
AcDbLine
 10
141.0
 20
5.0
 30
0.0
 11
141.0
 21
25.0
 31
0.0
  0
TEXT
  5
550
330
1F
100
AcDbEntity
  8
MDS_Layer_94
  6
Continuous
 62
     7
 48
25.4
100
AcDbText
 10
27.2
 20
14.0913731012
 30
0.0
 40
2.5
  1
und
  7
SEACAD_seiso_ttf
 11
27.2
 21
16.5913731012
 31
0.0
100
AcDbText
 73
     3
  0
TEXT
  5
551
330
1F
100
AcDbEntity
  8
MDS_Layer_94
  6
Continuous
 62
     7
 48
25.4
100
AcDbText
 10
27.2
 20
9.0913731012
 30
0.0
 40
2.5
  1
Varianten
  7
SEACAD_seiso_ttf
 11
27.2
 21
11.5913731012
 31
0.0
100
AcDbText
 73
     3
  0
TEXT
  5
552
330
1F
100
AcDbEntity
  8
MDS_Layer_94
  6
Continuous
 62
     7
 48
25.4
100
AcDbText
 10
7.1240657125
 20
21.5397731012
 30
0.0
 40
2.5
  1
Dateiformat
  7
SEACAD_seiso_ttf
 11
7.1240657125
 21
24.0397731012
 31
0.0
100
AcDbText
 73
     3
  0
TEXT
  5
553
330
1F
100
AcDbEntity
  8
MDS_Layer_94
  6
Continuous
 62
     7
 48
25.4
100
AcDbText
 10
7.4059642026
 20
16.5238108871
 30
0.0
 40
2.0
  1
Raster
  7
SEACAD_arial_ttf
 11
7.4059642026
 21
18.5238108871
 31
0.0
100
AcDbText
 73
     3
  0
TEXT
  5
554
330
1F
100
AcDbEntity
  8
MDS_Layer_94
  6
Continuous
 62
     7
 48
25.4
100
AcDbText
 10
16.9707887071
 20
16.3869274332
 30
0.0
 40
2.0
  1
Vektor
  7
SEACAD_arial_ttf
 11
16.9707887071
 21
18.3869274332
 31
0.0
100
AcDbText
 73
     3
  0
TEXT
  5
555
330
1F
100
AcDbEntity
  8
MDS_Layer_94
  6
Continuous
 62
     7
 48
25.4
100
AcDbText
 10
27.2
 20
31.4228985666
 30
0.0
 40
2.5
  1
Name
  7
SEACAD_seiso_ttf
 11
27.2
 21
33.9228985666
 31
0.0
100
AcDbText
 73
     3
  0
TEXT
  5
556
330
1F
100
AcDbEntity
  8
MDS_Layer_94
  6
Continuous
 62
     7
 48
25.4
100
AcDbText
 10
27.2
 20
19.0913831012
 30
0.0
 40
2.5
  1
Prod.-Nr.
  7
SEACAD_seiso_ttf
 11
27.2
 21
21.5913831012
 31
0.0
100
AcDbText
 73
     3
  0
TEXT
  5
557
330
1F
100
AcDbEntity
  8
MDS_Layer_94
  6
Continuous
 62
     7
 48
25.4
100
AcDbText
 10
27.266739169
 20
26.5531113353
 30
0.0
 40
2.5
  1
Gepruft
  7
SEACAD_seiso_ttf
 11
27.266739169
 21
29.0531113353
 31
0.0
100
AcDbText
 73
     3
  0
TEXT
  5
558
330
1F
100
AcDbEntity
  8
MDS_Layer_94
  6
Continuous
 62
     7
 48
25.4
100
AcDbText
 10
9.468641411
 20
41.4915690176
 30
0.0
 40
2.5
  1
Masstab
  7
SEACAD_seiso_ttf
 11
9.468641411
 21
43.9915690176
 31
0.0
100
AcDbText
 73
     3
  0
TEXT
  5
559
330
1F
100
AcDbEntity
  8
MDS_Layer_94
  6
Continuous
 62
     7
 48
25.4
100
AcDbText
 10
27.2010851897
 20
36.4228985666
 30
0.0
 40
2.5
  1
Datum
  7
SEACAD_seiso_ttf
 11
27.2010851897
 21
38.9228985666
 31
0.0
100
AcDbText
 73
     3
  0
TEXT
  5
55A
330
1F
100
AcDbEntity
  8
MDS_Layer_94
  6
Continuous
 62
     7
 48
25.4
100
AcDbText
 10
27.2
 20
41.4250689461
 30
0.0
 40
2.5
  1
And.-Mitt.
  7
SEACAD_seiso_ttf
 11
27.2
 21
43.9250689461
 31
0.0
100
AcDbText
 73
     3
  0
LINE
  5
55B
330
1F
100
AcDbEntity
  8
MDS_Layer_90
  6
Continuous
 62
     7
 48
25.4
100
AcDbLine
 10
205.0
 20
291.0
 30
0.0
 11
205.0
 21
45.0
 31
0.0
  0
ENDSEC
  0
SECTION
  2
OBJECTS
  0
DICTIONARY
  5
C
330
0
100
AcDbDictionary
281
     1
  3
ACAD_GROUP
350
D
  3
ACAD_LAYOUT
350
1A
  3
ACAD_MLINESTYLE
350
17
  3
ACAD_PLOTSETTINGS
350
19
  3
ACAD_PLOTSTYLENAME
350
E
  0
DICTIONARY
  5
D
102
{ACAD_REACTORS
330
C
102
}
330
C
100
AcDbDictionary
281
     1
  0
DICTIONARY
  5
1A
102
{ACAD_REACTORS
330
C
102
}
330
C
100
AcDbDictionary
281
     1
  3
Layout1
350
1E
  3
Model
350
22
  0
DICTIONARY
  5
17
102
{ACAD_REACTORS
330
C
102
}
330
C
100
AcDbDictionary
281
     1
  3
Standard
350
18
  0
DICTIONARY
  5
19
102
{ACAD_REACTORS
330
C
102
}
330
C
100
AcDbDictionary
281
     1
  0
ACDBDICTIONARYWDFLT
  5
E
102
{ACAD_REACTORS
330
C
102
}
330
C
100
AcDbDictionary
281
     1
  3
Normal
350
F
100
AcDbDictionaryWithDefault
340
F
  0
LAYOUT
  5
1E
102
{ACAD_REACTORS
330
1A
102
}
330
1A
100
AcDbPlotSettings
  1

  2

  4

  6

 40
0.0
 41
0.0
 42
0.0
 43
0.0
 44
0.0
 45
0.0
 46
0.0
 47
0.0
 48
0.0
 49
0.0
140
0.0
141
0.0
142
1.0
143
1.0
 70
   688
 72
     0
 73
     0
 74
     5
  7

 75
    16
147
1.0
148
0.0
149
0.0
100
AcDbLayout
  1
Layout1
 70
     1
 71
     1
 10
0.0
 20
0.0
 11
210.0
 21
297.0
 12
0.0
 22
0.0
 32
0.0
 14
0.0
 24
0.0
 34
0.0
 15
210.0
 25
297.0
 35
0.0
146
0.0
 13
0.0
 23
0.0
 33
0.0
 16
1.0
 26
0.0
 36
0.0
 17
0.0
 27
1.0
 37
0.0
 76
     0
330
1B
  0
LAYOUT
  5
22
102
{ACAD_REACTORS
330
1A
102
}
330
1A
100
AcDbPlotSettings
  1

  2

  4

  6

 40
0.0
 41
0.0
 42
0.0
 43
0.0
 44
0.0
 45
0.0
 46
0.0
 47
0.0
 48
0.0
 49
0.0
140
0.0
141
0.0
142
1.0
143
1.0
 70
  1712
 72
     0
 73
     0
 74
     0
  7

 75
     0
147
1.0
148
0.0
149
0.0
100
AcDbLayout
  1
Model
 70
     1
 71
     0
 10
0.0
 20
0.0
 11
210.0
 21
297.0
 12
0.0
 22
0.0
 32
0.0
 14
0.0
 24
0.0
 34
0.0
 15
210.0
 25
297.0
 35
0.0
146
0.0
 13
0.0
 23
0.0
 33
0.0
 16
1.0
 26
0.0
 36
0.0
 17
0.0
 27
1.0
 37
0.0
 76
     0
330
1F
  0
MLINESTYLE
  5
18
102
{ACAD_REACTORS
330
17
102
}
330
17
100
AcDbMlineStyle
  2
Standard
 70
     0
  3

 62
   256
 51
90.0
 52
90.0
 71
     2
 49
0.5
 62
   256
  6
BYLAYER
 49
-0.5
 62
   256
  6
BYLAYER
  0
ACDBPLACEHOLDER
  5
F
102
{ACAD_REACTORS
330
E
102
}
330
E
  0
ENDSEC
  0
EOF
