  0
SECTION
  2
HEADER
  9
$ACADVER
  1
AC1015
  9
$ACADMAINTVER
 70
     6
  9
$DWGCODEPAGE
  3
ANSI_932
  9
$INSBASE
 10
0.0
 20
0.0
 30
0.0
  9
$EXTMIN
 10
0.0
 20
0.0
 30
0.0
  9
$EXTMAX
 10
210.0
 20
297.0
 30
0.0
  9
$LIMMIN
 10
0.0
 20
0.0
  9
$LIMMAX
 10
210.0
 20
297.0
  9
$ORTHOMODE
 70
     0
  9
$REGENMODE
 70
     1
  9
$FILLMODE
 70
     1
  9
$QTEXTMODE
 70
     0
  9
$MIRRTEXT
 70
     1
  9
$LTSCALE
 40
1.0
  9
$ATTMODE
 70
     1
  9
$TEXTSIZE
 40
0.2
  9
$TRACEWID
 40
0.05
  9
$TEXTSTYLE
  7
Standard
  9
$CLAYER
  8
0
  9
$CELTYPE
  6
ByLayer
  9
$CECOLOR
 62
   256
  9
$CELTSCALE
 40
25.4
  9
$DISPSILH
 70
     0
  9
$DIMSCALE
 40
1.0
  9
$DIMASZ
 40
0.18
  9
$DIMEXO
 40
0.0625
  9
$DIMDLI
 40
0.38
  9
$DIMRND
 40
0.0
  9
$DIMDLE
 40
0.0
  9
$DIMEXE
 40
0.18
  9
$DIMTP
 40
0.0
  9
$DIMTM
 40
0.0
  9
$DIMTXT
 40
0.18
  9
$DIMCEN
 40
0.09
  9
$DIMTSZ
 40
0.0
  9
$DIMTOL
 70
     0
  9
$DIMLIM
 70
     0
  9
$DIMTIH
 70
     1
  9
$DIMTOH
 70
     1
  9
$DIMSE1
 70
     0
  9
$DIMSE2
 70
     0
  9
$DIMTAD
 70
     0
  9
$DIMZIN
 70
     0
  9
$DIMBLK
  1

  9
$DIMASO
 70
     1
  9
$DIMSHO
 70
     1
  9
$DIMPOST
  1

  9
$DIMAPOST
  1

  9
$DIMALT
 70
     0
  9
$DIMALTD
 70
     2
  9
$DIMALTF
 40
25.4
  9
$DIMLFAC
 40
1.0
  9
$DIMTOFL
 70
     0
  9
$DIMTVP
 40
0.0
  9
$DIMTIX
 70
     0
  9
$DIMSOXD
 70
     0
  9
$DIMSAH
 70
     0
  9
$DIMBLK1
  1

  9
$DIMBLK2
  1

  9
$DIMSTYLE
  2
Standard
  9
$DIMCLRD
 70
     0
  9
$DIMCLRE
 70
     0
  9
$DIMCLRT
 70
     0
  9
$DIMTFAC
 40
1.0
  9
$DIMGAP
 40
0.09
  9
$DIMJUST
 70
     0
  9
$DIMSD1
 70
     0
  9
$DIMSD2
 70
     0
  9
$DIMTOLJ
 70
     1
  9
$DIMTZIN
 70
     0
  9
$DIMALTZ
 70
     0
  9
$DIMALTTZ
 70
     0
  9
$DIMUPT
 70
     0
  9
$DIMDEC
 70
     4
  9
$DIMTDEC
 70
     4
  9
$DIMALTU
 70
     2
  9
$DIMALTTD
 70
     2
  9
$DIMTXSTY
  7
Standard
  9
$DIMAUNIT
 70
     0
  9
$DIMADEC
 70
     0
  9
$DIMALTRND
 40
0.0
  9
$DIMAZIN
 70
     0
  9
$DIMDSEP
 70
    46
  9
$DIMATFIT
 70
     3
  9
$DIMFRAC
 70
     0
  9
$DIMLDRBLK
  1

  9
$DIMLUNIT
 70
     2
  9
$DIMLWD
 70
    -2
  9
$DIMLWE
 70
    -2
  9
$DIMTMOVE
 70
     0
  9
$LUNITS
 70
     2
  9
$LUPREC
 70
     4
  9
$SKETCHINC
 40
0.1
  9
$FILLETRAD
 40
0.5
  9
$AUNITS
 70
     0
  9
$AUPREC
 70
     0
  9
$MENU
  1
.
  9
$ELEVATION
 40
0.0
  9
$PELEVATION
 40
0.0
  9
$THICKNESS
 40
0.0
  9
$LIMCHECK
 70
     0
  9
$CHAMFERA
 40
0.5
  9
$CHAMFERB
 40
0.5
  9
$CHAMFERC
 40
1.0
  9
$CHAMFERD
 40
0.0
  9
$SKPOLY
 70
     0
  9
$TDCREATE
 40
2454132.792936921
  9
$TDUCREATE
 40
2454132.417936921
  9
$TDUPDATE
 40
2454132.792936933
  9
$TDUUPDATE
 40
2454132.417936933
  9
$TDINDWG
 40
0.0000000116
  9
$TDUSRTIMER
 40
0.0000000116
  9
$USRTIMER
 70
     1
  9
$ANGBASE
 50
0.0
  9
$ANGDIR
 70
     0
  9
$PDMODE
 70
     0
  9
$PDSIZE
 40
0.0
  9
$PLINEWID
 40
0.0
  9
$SPLFRAME
 70
     0
  9
$SPLINETYPE
 70
     6
  9
$SPLINESEGS
 70
     8
  9
$HANDSEED
  5
550
  9
$SURFTAB1
 70
     6
  9
$SURFTAB2
 70
     6
  9
$SURFTYPE
 70
     6
  9
$SURFU
 70
     6
  9
$SURFV
 70
     6
  9
$UCSBASE
  2

  9
$UCSNAME
  2

  9
$UCSORG
 10
0.0
 20
0.0
 30
0.0
  9
$UCSXDIR
 10
1.0
 20
0.0
 30
0.0
  9
$UCSYDIR
 10
0.0
 20
1.0
 30
0.0
  9
$UCSORTHOREF
  2

  9
$UCSORTHOVIEW
 70
     0
  9
$UCSORGTOP
 10
0.0
 20
0.0
 30
0.0
  9
$UCSORGBOTTOM
 10
0.0
 20
0.0
 30
0.0
  9
$UCSORGLEFT
 10
0.0
 20
0.0
 30
0.0
  9
$UCSORGRIGHT
 10
0.0
 20
0.0
 30
0.0
  9
$UCSORGFRONT
 10
0.0
 20
0.0
 30
0.0
  9
$UCSORGBACK
 10
0.0
 20
0.0
 30
0.0
  9
$PUCSBASE
  2

  9
$PUCSNAME
  2

  9
$PUCSORG
 10
0.0
 20
0.0
 30
0.0
  9
$PUCSXDIR
 10
1.0
 20
0.0
 30
0.0
  9
$PUCSYDIR
 10
0.0
 20
1.0
 30
0.0
  9
$PUCSORTHOREF
  2

  9
$PUCSORTHOVIEW
 70
     0
  9
$PUCSORGTOP
 10
0.0
 20
0.0
 30
0.0
  9
$PUCSORGBOTTOM
 10
0.0
 20
0.0
 30
0.0
  9
$PUCSORGLEFT
 10
0.0
 20
0.0
 30
0.0
  9
$PUCSORGRIGHT
 10
0.0
 20
0.0
 30
0.0
  9
$PUCSORGFRONT
 10
0.0
 20
0.0
 30
0.0
  9
$PUCSORGBACK
 10
0.0
 20
0.0
 30
0.0
  9
$USERI1
 70
     0
  9
$USERI2
 70
     0
  9
$USERI3
 70
     0
  9
$USERI4
 70
     0
  9
$USERI5
 70
     0
  9
$USERR1
 40
0.0
  9
$USERR2
 40
0.0
  9
$USERR3
 40
0.0
  9
$USERR4
 40
0.0
  9
$USERR5
 40
0.0
  9
$WORLDVIEW
 70
     1
  9
$SHADEDGE
 70
     3
  9
$SHADEDIF
 70
    70
  9
$TILEMODE
 70
     1
  9
$MAXACTVP
 70
    64
  9
$PINSBASE
 10
0.0
 20
0.0
 30
0.0
  9
$PLIMCHECK
 70
     0
  9
$PEXTMIN
 10
0.0
 20
0.0
 30
0.0
  9
$PEXTMAX
 10
210.0
 20
297.0
 30
0.0
  9
$PLIMMIN
 10
0.0
 20
0.0
  9
$PLIMMAX
 10
210.0
 20
297.0
  9
$UNITMODE
 70
     0
  9
$VISRETAIN
 70
     1
  9
$PLINEGEN
 70
     0
  9
$PSLTSCALE
 70
     1
  9
$TREEDEPTH
 70
  3020
  9
$CMLSTYLE
  2
Standard
  9
$CMLJUST
 70
     0
  9
$CMLSCALE
 40
1.0
  9
$PROXYGRAPHICS
 70
     1
  9
$MEASUREMENT
 70
     1
  9
$CELWEIGHT
370
    -1
  9
$ENDCAPS
280
     0
  9
$JOINSTYLE
280
     0
  9
$LWDISPLAY
290
     0
  9
$INSUNITS
 70
     1
  9
$HYPERLINKBASE
  1

  9
$STYLESHEET
  1

  9
$XEDIT
290
     1
  9
$CEPSNTYPE
380
     0
  9
$PSTYLEMODE
290
     1
  9
$FINGERPRINTGUID
  2
{A0CE24A4-8EFB-4DEE-AE6E-AE003C42AEF0}
  9
$VERSIONGUID
  2
{FAEB1C32-E019-11D5-929B-00C0DF256EC4}
  9
$EXTNAMES
290
     1
  9
$PSVPSCALE
 40
0.0
  9
$OLESTARTUP
290
     0
  0
ENDSEC
  0
SECTION
  2
CLASSES
  0
CLASS
  1
ACDBDICTIONARYWDFLT
  2
AcDbDictionaryWithDefault
  3
ObjectDBX Classes
 90
        0
280
     0
281
     0
  0
CLASS
  1
ACDBPLACEHOLDER
  2
AcDbPlaceHolder
  3
ObjectDBX Classes
 90
        0
280
     0
281
     0
  0
CLASS
  1
LAYOUT
  2
AcDbLayout
  3
ObjectDBX Classes
 90
        0
280
     0
281
     0
  0
ENDSEC
  0
SECTION
  2
TABLES
  0
TABLE
  2
VPORT
  5
8
330
0
100
AcDbSymbolTable
 70
     1
  0
VPORT
  5
29
330
8
100
AcDbSymbolTableRecord
100
AcDbViewportTableRecord
  2
*Active
 70
     0
 10
0.0
 20
0.0
 11
1.0
 21
1.0
 12
10.4299065421
 22
4.5
 13
0.0
 23
0.0
 14
0.5
 24
0.5
 15
0.5
 25
0.5
 16
0.0
 26
0.0
 36
1.0
 17
0.0
 27
0.0
 37
0.0
 40
9.0
 41
1.9729729729
 42
50.0
 43
0.0
 44
0.0
 50
0.0
 51
0.0
 71
     0
 72
   100
 73
     1
 74
     3
 75
     0
 76
     0
 77
     0
 78
     0
281
     0
 65
     1
110
0.0
120
0.0
130
0.0
111
1.0
121
0.0
131
0.0
112
0.0
122
1.0
132
0.0
 79
     0
146
0.0
  0
ENDTAB
  0
TABLE
  2
LTYPE
  5
5
330
0
100
AcDbSymbolTable
 70
     3
  0
LTYPE
  5
14
330
5
100
AcDbSymbolTableRecord
100
AcDbLinetypeTableRecord
  2
ByBlock
 70
     0
  3

 72
    65
 73
     0
 40
0.0
  0
LTYPE
  5
15
330
5
100
AcDbSymbolTableRecord
100
AcDbLinetypeTableRecord
  2
ByLayer
 70
     0
  3

 72
    65
 73
     0
 40
0.0
  0
LTYPE
  5
16
330
5
100
AcDbSymbolTableRecord
100
AcDbLinetypeTableRecord
  2
Continuous
 70
     0
  3
Solid line
 72
    65
 73
     0
 40
0.0
  0
LTYPE
  5
81
330
5
100
AcDbSymbolTableRecord
100
AcDbLinetypeTableRecord
  2
CENTER2
 70
     0
  3
___ _ ___ _ ___ _ ___ _ ___ _ ___ _ ___ _ ___ _
 72
    65
 73
     4
 40
1.125
 49
0.75
 74
     4
 75
     0
340
0
 46
0.0
 50
0.0
 44
0.0
 45
0.0
 49
-0.125
 74
     4
 75
     0
340
0
 46
0.0
 50
0.0
 44
0.0
 45
0.0
 49
0.125
 74
     4
 75
     0
340
0
 46
0.0
 50
0.0
 44
0.0
 45
0.0
 49
-0.125
 74
     4
 75
     0
340
0
 46
0.0
 50
0.0
 44
0.0
 45
0.0
  0
LTYPE
  5
2BF
330
5
100
AcDbSymbolTableRecord
100
AcDbLinetypeTableRecord
  2
HIDDEN2
 70
     0
  3
_ _ _ _ _ _ _ _ _ _ _ _ _ _ _ _ _ _ _ _ _ _ _ _
 72
    65
 73
     2
 40
0.1875
 49
0.125
 74
     4
 75
     0
340
0
 46
0.0
 50
0.0
 44
0.0
 45
0.0
 49
-0.0625
 74
     4
 75
     0
340
0
 46
0.0
 50
0.0
 44
0.0
 45
0.0
  0
ENDTAB
  0
TABLE
  2
LAYER
  5
2
330
0
100
AcDbSymbolTable
 70
    36
  0
LAYER
  5
10
330
2
100
AcDbSymbolTableRecord
100
AcDbLayerTableRecord
  2
0
 70
     0
 62
     7
  6
Continuous
370
    -3
390
F
  0
LAYER
  5
2A
330
2
100
AcDbSymbolTableRecord
100
AcDbLayerTableRecord
  2
Layer17
 70
     0
 62
     7
  6
Continuous
370
    -3
390
F
  0
LAYER
  5
2C
330
2
100
AcDbSymbolTableRecord
100
AcDbLayerTableRecord
  2
Layer12
 70
     0
 62
     7
  6
Continuous
370
    -3
390
F
  0
LAYER
  5
34
330
2
100
AcDbSymbolTableRecord
100
AcDbLayerTableRecord
  2
Layer13
 70
     0
 62
     7
  6
Continuous
370
    -3
390
F
  0
LAYER
  5
3C
330
2
100
AcDbSymbolTableRecord
100
AcDbLayerTableRecord
  2
Layer14
 70
     0
 62
     7
  6
Continuous
370
    -3
390
F
  0
LAYER
  5
4A
330
2
100
AcDbSymbolTableRecord
100
AcDbLayerTableRecord
  2
Layer15
 70
     0
 62
     7
  6
Continuous
370
    -3
390
F
  0
LAYER
  5
80
330
2
100
AcDbSymbolTableRecord
100
AcDbLayerTableRecord
  2
Layer18
 70
     0
 62
     7
  6
Continuous
370
    -3
390
F
  0
LAYER
  5
26B
330
2
100
AcDbSymbolTableRecord
100
AcDbLayerTableRecord
  2
Layer11
 70
     0
 62
     7
  6
Continuous
370
    -3
390
F
  0
LAYER
  5
274
330
2
100
AcDbSymbolTableRecord
100
AcDbLayerTableRecord
  2
10
 70
     0
 62
     7
  6
Continuous
370
    -3
390
F
  0
LAYER
  5
27C
330
2
100
AcDbSymbolTableRecord
100
AcDbLayerTableRecord
  2
Standard
 70
     0
 62
     7
  6
Continuous
370
    -3
390
F
  0
LAYER
  5
27E
330
2
100
AcDbSymbolTableRecord
100
AcDbLayerTableRecord
  2
Schraubkappe
 70
     0
 62
     7
  6
Continuous
370
    -3
390
F
  0
LAYER
  5
283
330
2
100
AcDbSymbolTableRecord
100
AcDbLayerTableRecord
  2
Default
 70
     0
 62
     7
  6
Continuous
370
    -3
390
F
  0
LAYER
  5
285
330
2
100
AcDbSymbolTableRecord
100
AcDbLayerTableRecord
  2
MDS_Layer_2
 70
     0
 62
     7
  6
Continuous
370
    -3
390
F
  0
LAYER
  5
28B
330
2
100
AcDbSymbolTableRecord
100
AcDbLayerTableRecord
  2
MDS_Layer_1
 70
     0
 62
     7
  6
Continuous
370
    -3
390
F
  0
LAYER
  5
293
330
2
100
AcDbSymbolTableRecord
100
AcDbLayerTableRecord
  2
MDS_Layer_3
 70
     0
 62
     7
  6
Continuous
370
    -3
390
F
  0
LAYER
  5
2A8
330
2
100
AcDbSymbolTableRecord
100
AcDbLayerTableRecord
  2
Layer03
 70
     0
 62
     7
  6
Continuous
370
    -3
390
F
  0
LAYER
  5
2AA
330
2
100
AcDbSymbolTableRecord
100
AcDbLayerTableRecord
  2
Hebel
 70
     0
 62
     7
  6
Continuous
370
    -3
390
F
  0
LAYER
  5
2D8
330
2
100
AcDbSymbolTableRecord
100
AcDbLayerTableRecord
  2
MDS_Layer_4
 70
     0
 62
     7
  6
Continuous
370
    -3
390
F
  0
LAYER
  5
2DC
330
2
100
AcDbSymbolTableRecord
100
AcDbLayerTableRecord
  2
020
 70
     0
 62
     7
  6
Continuous
370
    -3
390
F
  0
LAYER
  5
2E0
330
2
100
AcDbSymbolTableRecord
100
AcDbLayerTableRecord
  2
Layer09
 70
     0
 62
     7
  6
Continuous
370
    -3
390
F
  0
LAYER
  5
2EB
330
2
100
AcDbSymbolTableRecord
100
AcDbLayerTableRecord
  2
Layer16
 70
     0
 62
     7
  6
Continuous
370
    -3
390
F
  0
LAYER
  5
2FA
330
2
100
AcDbSymbolTableRecord
100
AcDbLayerTableRecord
  2
Layer3
 70
     0
 62
     7
  6
Continuous
370
    -3
390
F
  0
LAYER
  5
2FC
330
2
100
AcDbSymbolTableRecord
100
AcDbLayerTableRecord
  2
Bogenauslauf_55grad_unten
 70
     0
 62
     7
  6
Continuous
370
    -3
390
F
  0
LAYER
  5
3B1
330
2
100
AcDbSymbolTableRecord
100
AcDbLayerTableRecord
  2
DV1_Hebel
 70
     0
 62
     7
  6
Continuous
370
    -3
390
F
  0
LAYER
  5
3B9
330
2
100
AcDbSymbolTableRecord
100
AcDbLayerTableRecord
  2
DV1_Default
 70
     0
 62
     7
  6
Continuous
370
    -3
390
F
  0
LAYER
  5
3F4
330
2
100
AcDbSymbolTableRecord
100
AcDbLayerTableRecord
  2
DV2_ﾃﾞﾌｫﾙﾄ
 70
     0
 62
     7
  6
Continuous
370
    -3
390
F
  0
LAYER
  5
42E
330
2
100
AcDbSymbolTableRecord
100
AcDbLayerTableRecord
  2
DV3_Standard
 70
     0
 62
     7
  6
Continuous
370
    -3
390
F
  0
LAYER
  5
430
330
2
100
AcDbSymbolTableRecord
100
AcDbLayerTableRecord
  2
DV3_Layer4
 70
     0
 62
     7
  6
Continuous
370
    -3
390
F
  0
LAYER
  5
432
330
2
100
AcDbSymbolTableRecord
100
AcDbLayerTableRecord
  2
DV3_Layer5
 70
     0
 62
     7
  6
Continuous
370
    -3
390
F
  0
LAYER
  5
440
330
2
100
AcDbSymbolTableRecord
100
AcDbLayerTableRecord
  2
DV3_Layer6
 70
     0
 62
     7
  6
Continuous
370
    -3
390
F
  0
LAYER
  5
452
330
2
100
AcDbSymbolTableRecord
100
AcDbLayerTableRecord
  2
DV3_Layer9
 70
     0
 62
     7
  6
Continuous
370
    -3
390
F
  0
LAYER
  5
454
330
2
100
AcDbSymbolTableRecord
100
AcDbLayerTableRecord
  2
DV3_Layer1
 70
     0
 62
     7
  6
Continuous
370
    -3
390
F
  0
LAYER
  5
45F
330
2
100
AcDbSymbolTableRecord
100
AcDbLayerTableRecord
  2
DV3_Default
 70
     0
 62
     7
  6
Continuous
370
    -3
390
F
  0
LAYER
  5
47C
330
2
100
AcDbSymbolTableRecord
100
AcDbLayerTableRecord
  2
DV4_ﾃﾞﾌｫﾙﾄ
 70
     0
 62
     7
  6
Continuous
370
    -3
390
F
  0
LAYER
  5
4F7
330
2
100
AcDbSymbolTableRecord
100
AcDbLayerTableRecord
  2
MDS_Layer_90
 70
     0
 62
     7
  6
Continuous
370
    -3
390
F
  0
LAYER
  5
4FA
330
2
100
AcDbSymbolTableRecord
100
AcDbLayerTableRecord
  2
MDS_Layer_94
 70
     0
 62
     7
  6
Continuous
370
    -3
390
F
  0
ENDTAB
  0
TABLE
  2
STYLE
  5
3
330
0
100
AcDbSymbolTable
 70
     5
  0
STYLE
  5
11
330
3
100
AcDbSymbolTableRecord
100
AcDbTextStyleTableRecord
  2
Standard
 70
     0
 40
0.0
 41
1.0
 50
0.0
 71
     0
 42
0.2
  3
txt
  4

  0
STYLE
  5
2D2
330
3
100
AcDbSymbolTableRecord
100
AcDbTextStyleTableRecord
  2
SEACAD_arial_ttfB
 70
     0
 40
0.2
 41
1.0
 50
0.0
 71
     0
 42
0.2
  3
arial.ttf
  4

  0
STYLE
  5
328
330
3
100
AcDbSymbolTableRecord
100
AcDbTextStyleTableRecord
  2
SEACAD_arial_ttf
 70
     0
 40
0.2
 41
1.0
 50
0.0
 71
     0
 42
0.2
  3
arial.ttf
  4

  0
STYLE
  5
377
330
3
100
AcDbSymbolTableRecord
100
AcDbTextStyleTableRecord
  2
SEACAD_semeca1_ttf
 70
     0
 40
0.2
 41
1.0
 50
0.0
 71
     0
 42
0.2
  3
semeca1.ttf
  4

  0
STYLE
  5
543
330
3
100
AcDbSymbolTableRecord
100
AcDbTextStyleTableRecord
  2
SEACAD_seiso_ttf
 70
     0
 40
0.2
 41
1.0
 50
0.0
 71
     0
 42
0.2
  3
seiso.ttf
  4

  0
ENDTAB
  0
TABLE
  2
VIEW
  5
6
330
0
100
AcDbSymbolTable
 70
     0
  0
ENDTAB
  0
TABLE
  2
UCS
  5
7
330
0
100
AcDbSymbolTable
 70
     0
  0
ENDTAB
  0
TABLE
  2
APPID
  5
9
330
0
100
AcDbSymbolTable
 70
     1
  0
APPID
  5
12
330
9
100
AcDbSymbolTableRecord
100
AcDbRegAppTableRecord
  2
ACAD
 70
     0
  0
ENDTAB
  0
TABLE
  2
DIMSTYLE
  5
A
330
0
100
AcDbSymbolTable
 70
     1
100
AcDbDimStyleTable
  0
DIMSTYLE
105
27
330
A
100
AcDbSymbolTableRecord
100
AcDbDimStyleTableRecord
  2
Standard
 70
     0
340
11
  0
ENDTAB
  0
TABLE
  2
BLOCK_RECORD
  5
1
330
0
100
AcDbSymbolTable
 70
    26
  0
BLOCK_RECORD
  5
1F
330
1
100
AcDbSymbolTableRecord
100
AcDbBlockTableRecord
  2
*Model_Space
340
22
  0
BLOCK_RECORD
  5
1B
330
1
100
AcDbSymbolTableRecord
100
AcDbBlockTableRecord
  2
*Paper_Space
340
1E
  0
BLOCK_RECORD
  5
2FF
330
1
100
AcDbSymbolTableRecord
100
AcDbBlockTableRecord
  2
SEANNOT_GROUP
340
0
102
{BLKREFS
331
300
102
}
  0
BLOCK_RECORD
  5
304
330
1
100
AcDbSymbolTableRecord
100
AcDbBlockTableRecord
  2
SEANNOT_GROUP1
340
0
102
{BLKREFS
331
305
102
}
  0
BLOCK_RECORD
  5
309
330
1
100
AcDbSymbolTableRecord
100
AcDbBlockTableRecord
  2
SEANNOT_GROUP2
340
0
102
{BLKREFS
331
30A
102
}
  0
BLOCK_RECORD
  5
31E
330
1
100
AcDbSymbolTableRecord
100
AcDbBlockTableRecord
  2
GDimGGroup
340
0
102
{BLKREFS
331
31F
102
}
  0
BLOCK_RECORD
  5
32C
330
1
100
AcDbSymbolTableRecord
100
AcDbBlockTableRecord
  2
SE
340
0
102
{BLKREFS
331
32D
102
}
  0
BLOCK_RECORD
  5
346
330
1
100
AcDbSymbolTableRecord
100
AcDbBlockTableRecord
  2
SE1
340
0
102
{BLKREFS
331
347
102
}
  0
BLOCK_RECORD
  5
361
330
1
100
AcDbSymbolTableRecord
100
AcDbBlockTableRecord
  2
GDimGGroup1
340
0
102
{BLKREFS
331
362
102
}
  0
BLOCK_RECORD
  5
36E
330
1
100
AcDbSymbolTableRecord
100
AcDbBlockTableRecord
  2
GDimGGroup2
340
0
102
{BLKREFS
331
36F
102
}
  0
BLOCK_RECORD
  5
37B
330
1
100
AcDbSymbolTableRecord
100
AcDbBlockTableRecord
  2
GDimGGroup3
340
0
102
{BLKREFS
331
37C
102
}
  0
BLOCK_RECORD
  5
389
330
1
100
AcDbSymbolTableRecord
100
AcDbBlockTableRecord
  2
GDimGGroup4
340
0
102
{BLKREFS
331
38A
102
}
  0
BLOCK_RECORD
  5
396
330
1
100
AcDbSymbolTableRecord
100
AcDbBlockTableRecord
  2
GDimGGroup5
340
0
102
{BLKREFS
331
397
102
}
  0
BLOCK_RECORD
  5
3A3
330
1
100
AcDbSymbolTableRecord
100
AcDbBlockTableRecord
  2
GDimGGroup6
340
0
102
{BLKREFS
331
3A4
102
}
  0
BLOCK_RECORD
  5
3AF
330
1
100
AcDbSymbolTableRecord
100
AcDbBlockTableRecord
  2
SE2
340
0
102
{BLKREFS
331
3B0
102
}
  0
BLOCK_RECORD
  5
3CB
330
1
100
AcDbSymbolTableRecord
100
AcDbBlockTableRecord
  2
GDimGGroup7
340
0
102
{BLKREFS
331
3CC
102
}
  0
BLOCK_RECORD
  5
3D8
330
1
100
AcDbSymbolTableRecord
100
AcDbBlockTableRecord
  2
GDimGGroup8
340
0
102
{BLKREFS
331
3D9
102
}
  0
BLOCK_RECORD
  5
3E5
330
1
100
AcDbSymbolTableRecord
100
AcDbBlockTableRecord
  2
GDimGGroup9
340
0
102
{BLKREFS
331
3E6
102
}
  0
BLOCK_RECORD
  5
3F2
330
1
100
AcDbSymbolTableRecord
100
AcDbBlockTableRecord
  2
SE3
340
0
102
{BLKREFS
331
3F3
102
}
  0
BLOCK_RECORD
  5
42C
330
1
100
AcDbSymbolTableRecord
100
AcDbBlockTableRecord
  2
SE4
340
0
102
{BLKREFS
331
42D
102
}
  0
BLOCK_RECORD
  5
468
330
1
100
AcDbSymbolTableRecord
100
AcDbBlockTableRecord
  2
GDimGGroup10
340
0
102
{BLKREFS
331
469
102
}
  0
BLOCK_RECORD
  5
47A
330
1
100
AcDbSymbolTableRecord
100
AcDbBlockTableRecord
  2
SE5
340
0
102
{BLKREFS
331
47B
102
}
  0
BLOCK_RECORD
  5
4B4
330
1
100
AcDbSymbolTableRecord
100
AcDbBlockTableRecord
  2
GDimGGroup11
340
0
102
{BLKREFS
331
4B5
102
}
  0
BLOCK_RECORD
  5
4C1
330
1
100
AcDbSymbolTableRecord
100
AcDbBlockTableRecord
  2
GDimGGroup12
340
0
102
{BLKREFS
331
4C2
102
}
  0
BLOCK_RECORD
  5
4D1
330
1
100
AcDbSymbolTableRecord
100
AcDbBlockTableRecord
  2
GDimGGroup13
340
0
102
{BLKREFS
331
4D2
102
}
  0
BLOCK_RECORD
  5
4DE
330
1
100
AcDbSymbolTableRecord
100
AcDbBlockTableRecord
  2
GDimGGroup14
340
0
102
{BLKREFS
331
4DF
102
}
  0
BLOCK_RECORD
  5
4EB
330
1
100
AcDbSymbolTableRecord
100
AcDbBlockTableRecord
  2
GDimGGroup15
340
0
102
{BLKREFS
331
4EC
102
}
  0
ENDTAB
  0
ENDSEC
  0
SECTION
  2
BLOCKS
  0
BLOCK
  5
20
330
1F
100
AcDbEntity
  8
0
100
AcDbBlockBegin
  2
*Model_Space
 70
     0
 71
     0
 10
0.0
 20
0.0
 30
0.0
  3
*Model_Space
  1

  0
ENDBLK
  5
21
330
1F
100
AcDbEntity
  8
0
100
AcDbBlockEnd
  0
BLOCK
  5
1C
330
1B
100
AcDbEntity
 67
     1
  8
0
100
AcDbBlockBegin
  2
*Paper_Space
 70
     0
 71
     0
 10
0.0
 20
0.0
 30
0.0
  3
*Paper_Space
  1

  0
ENDBLK
  5
1D
330
1B
100
AcDbEntity
 67
     1
  8
0
100
AcDbBlockEnd
  0
BLOCK
  5
302
330
2FF
100
AcDbEntity
  8
0
100
AcDbBlockBegin
  2
SEANNOT_GROUP
 70
     0
 71
     0
 10
0.0
 20
0.0
 30
0.0
  3
SEANNOT_GROUP
  1

  0
LINE
  5
301
330
2FF
100
AcDbEntity
  8
Default
  6
CENTER2
 62
     7
 48
25.4
100
AcDbLine
 10
49.4112892844
 20
222.3092240833
 30
0.0
 11
49.4112892844
 21
241.9895225362
 31
0.0
  0
ENDBLK
  5
303
330
2FF
100
AcDbEntity
  8
0
100
AcDbBlockEnd
  0
BLOCK
  5
307
330
304
100
AcDbEntity
  8
0
100
AcDbBlockBegin
  2
SEANNOT_GROUP1
 70
     0
 71
     0
 10
0.0
 20
0.0
 30
0.0
  3
SEANNOT_GROUP1
  1

  0
LINE
  5
306
330
304
100
AcDbEntity
  8
Default
  6
CENTER2
 62
     7
 48
25.4
100
AcDbLine
 10
52.9570603621
 20
220.6558038757
 30
0.0
 11
68.0330436309
 21
233.3060558762
 31
0.0
  0
ENDBLK
  5
308
330
304
100
AcDbEntity
  8
0
100
AcDbBlockEnd
  0
BLOCK
  5
30C
330
309
100
AcDbEntity
  8
0
100
AcDbBlockBegin
  2
SEANNOT_GROUP2
 70
     0
 71
     0
 10
0.0
 20
0.0
 30
0.0
  3
SEANNOT_GROUP2
  1

  0
LINE
  5
30B
330
309
100
AcDbEntity
  8
Default
  6
CENTER2
 62
     7
 48
25.4
100
AcDbLine
 10
45.8655182067
 20
220.6558038757
 30
0.0
 11
30.7895349379
 21
233.3060558762
 31
0.0
  0
ENDBLK
  5
30D
330
309
100
AcDbEntity
  8
0
100
AcDbBlockEnd
  0
BLOCK
  5
32A
330
31E
100
AcDbEntity
  8
0
100
AcDbBlockBegin
  2
GDimGGroup
 70
     0
 71
     0
 10
0.0
 20
0.0
 30
0.0
  3
GDimGGroup
  1

  0
HATCH
  5
320
330
31E
100
AcDbEntity
  8
Layer03
  6
Continuous
 62
   136
 48
25.4
100
AcDbHatch
 10
0.0
 20
0.0
 30
0.0
210
0.0
220
0.0
230
1.0
  2
SOLID
 70
     1
 71
     0
 91
        1
 92
        1
 93
        3
 72
     1
 10
147.5995889874066
 20
174.6321499612774
 11
146.5995889787143
 21
180.6321500134314
 72
     1
 10
146.5995889787143
 20
180.6321500134314
 11
145.5995889700219
 21
174.6321499612774
 72
     1
 10
145.5995889700219
 20
174.6321499612774
 11
147.5995889874066
 21
174.6321499612774
 97
        0
 75
     0
 76
     1
 98
        0
  0
LWPOLYLINE
  5
321
330
31E
100
AcDbEntity
  8
Layer03
  6
Continuous
 62
   136
 48
25.4
370
    20
100
AcDbPolyline
 90
        4
 70
     1
 43
0.00025
 10
147.5995889874
 20
174.6321499613
 10
146.5995889787
 20
180.6321500134
 10
145.59958897
 20
174.6321499613
 10
147.5995889874
 20
174.6321499613
  0
HATCH
  5
322
330
31E
100
AcDbEntity
  8
Layer03
  6
Continuous
 62
   136
 48
25.4
100
AcDbHatch
 10
0.0
 20
0.0
 30
0.0
210
0.0
220
0.0
230
1.0
  2
SOLID
 70
     1
 71
     0
 91
        1
 92
        1
 93
        3
 72
     1
 10
147.5995889874066
 20
201.6321500655855
 11
145.5995889700219
 21
201.6321500655855
 72
     1
 10
145.5995889700219
 20
201.6321500655855
 11
146.5995889787143
 21
195.6321500134314
 72
     1
 10
146.5995889787143
 20
195.6321500134314
 11
147.5995889874066
 21
201.6321500655855
 97
        0
 75
     0
 76
     1
 98
        0
  0
LWPOLYLINE
  5
323
330
31E
100
AcDbEntity
  8
Layer03
  6
Continuous
 62
   136
 48
25.4
370
    20
100
AcDbPolyline
 90
        4
 70
     1
 43
0.00025
 10
147.5995889874
 20
201.6321500656
 10
146.5995889787
 20
195.6321500134
 10
145.59958897
 20
201.6321500656
 10
147.5995889874
 20
201.6321500656
  0
LINE
  5
324
330
31E
100
AcDbEntity
  8
Layer03
  6
Continuous
 62
     7
 48
25.4
100
AcDbLine
 10
106.6865530495
 20
180.6321500134
 30
0.0
 11
149.5995890048
 21
180.6321500134
 31
0.0
  0
LINE
  5
325
330
31E
100
AcDbEntity
  8
Layer03
  6
Continuous
 62
     7
 48
25.4
100
AcDbLine
 10
116.313774173
 20
195.6321500134
 30
0.0
 11
149.5995890048
 21
195.6321500134
 31
0.0
  0
LINE
  5
326
330
31E
100
AcDbEntity
  8
Layer03
  6
Continuous
 62
     7
 48
25.4
100
AcDbLine
 10
146.5995889787
 20
168.6321499091
 30
0.0
 11
146.5995889787
 21
180.6321500134
 31
0.0
  0
LINE
  5
327
330
31E
100
AcDbEntity
  8
Layer03
  6
Continuous
 62
     7
 48
25.4
100
AcDbLine
 10
146.5995889787
 20
195.6321500134
 30
0.0
 11
146.5995889787
 21
207.6321501177
 31
0.0
  0
TEXT
  5
329
330
31E
100
AcDbEntity
  8
Layer03
  6
Continuous
 62
     7
 48
25.4
100
AcDbText
 10
132.1735020222
 20
185.1321498458
 30
0.0
 40
6.0
  1
max.60
  7
SEACAD_arial_ttf
 11
132.1735020222
 21
191.1321498458
 31
0.0
100
AcDbText
 73
     3
  0
ENDBLK
  5
32B
330
31E
100
AcDbEntity
  8
0
100
AcDbBlockEnd
  0
BLOCK
  5
35F
330
32C
100
AcDbEntity
  8
0
100
AcDbBlockBegin
  2
SE
 70
     0
 71
     0
 10
0.0
 20
0.0
 30
0.0
  3
SE
  1

  0
LINE
  5
32E
330
32C
100
AcDbEntity
  8
MDS_Layer_3
  6
Continuous
 62
     7
 48
25.4
100
AcDbLine
 10
96.5612892844
 20
228.4321500134
 30
0.0
 11
99.4362892844
 21
228.4321500134
 31
0.0
  0
LINE
  5
32F
330
32C
100
AcDbEntity
  8
MDS_Layer_3
  6
Continuous
 62
     7
 48
25.4
100
AcDbLine
 10
102.3112892844
 20
228.4321500134
 30
0.0
 11
99.4362892844
 21
228.4321500134
 31
0.0
  0
LINE
  5
330
330
32C
100
AcDbEntity
  8
Standard
  6
Continuous
 62
     7
 48
25.4
100
AcDbLine
 10
102.3112892844
 20
228.4321500134
 30
0.0
 11
96.5612892844
 21
228.4321500134
 31
0.0
  0
LINE
  5
331
330
32C
100
AcDbEntity
  8
Standard
  6
Continuous
 62
     7
 48
25.4
100
AcDbLine
 10
96.5612892844
 20
228.4321500134
 30
0.0
 11
102.3112892844
 21
228.4321500134
 31
0.0
  0
LINE
  5
332
330
32C
100
AcDbEntity
  8
Standard
  6
Continuous
 62
     7
 48
25.4
100
AcDbLine
 10
102.3112892844
 20
228.4321500134
 30
0.0
 11
96.5612892844
 21
228.4321500134
 31
0.0
  0
LINE
  5
333
330
32C
100
AcDbEntity
  8
MDS_Layer_1
  6
Continuous
 62
     7
 48
25.4
100
AcDbLine
 10
96.5612892844
 20
228.1821500134
 30
0.0
 11
99.4362892844
 21
228.1821500134
 31
0.0
  0
LINE
  5
334
330
32C
100
AcDbEntity
  8
MDS_Layer_1
  6
Continuous
 62
     7
 48
25.4
100
AcDbLine
 10
102.3112892844
 20
228.1821500134
 30
0.0
 11
99.4362892844
 21
228.1821500134
 31
0.0
  0
LINE
  5
335
330
32C
100
AcDbEntity
  8
MDS_Layer_3
  6
Continuous
 62
     7
 48
25.4
100
AcDbLine
 10
102.3112892844
 20
228.4321500134
 30
0.0
 11
99.4362892844
 21
228.4321500134
 31
0.0
  0
LINE
  5
336
330
32C
100
AcDbEntity
  8
MDS_Layer_3
  6
Continuous
 62
     7
 48
25.4
100
AcDbLine
 10
102.3112892844
 20
228.4321500134
 30
0.0
 11
102.3112892844
 21
228.1821500134
 31
0.0
  0
LINE
  5
337
330
32C
100
AcDbEntity
  8
MDS_Layer_3
  6
Continuous
 62
     7
 48
25.4
100
AcDbLine
 10
96.5612892844
 20
228.4321500134
 30
0.0
 11
96.5612892844
 21
228.1821500134
 31
0.0
  0
LINE
  5
338
330
32C
100
AcDbEntity
  8
MDS_Layer_3
  6
Continuous
 62
     7
 48
25.4
100
AcDbLine
 10
96.5612892844
 20
228.4321500134
 30
0.0
 11
99.4362892844
 21
228.4321500134
 31
0.0
  0
LINE
  5
339
330
32C
100
AcDbEntity
  8
Standard
  6
Continuous
 62
     7
 48
25.4
100
AcDbLine
 10
96.5612892844
 20
228.4321500134
 30
0.0
 11
102.3112892844
 21
228.4321500134
 31
0.0
  0
ARC
  5
33A
330
32C
100
AcDbEntity
  8
Standard
  6
Continuous
 62
     7
 48
25.4
100
AcDbCircle
 10
109.4362892844
 20
259.9321500134
 30
0.0
 40
7.125
100
AcDbArc
 50
90.0
 51
180.0
  0
ARC
  5
33B
330
32C
100
AcDbEntity
  8
Standard
  6
Continuous
 62
     7
 48
25.4
100
AcDbCircle
 10
109.4362892844
 20
259.9321500134
 30
0.0
 40
12.875
100
AcDbArc
 50
90.0
 51
180.0
  0
ARC
  5
33C
330
32C
100
AcDbEntity
  8
Standard
  6
CENTER2
 62
     7
 48
25.4
100
AcDbCircle
 10
109.4362892844
 20
259.9321500134
 30
0.0
 40
10.0
100
AcDbArc
 50
90.0
 51
180.0
  0
LINE
  5
33D
330
32C
100
AcDbEntity
  8
Standard
  6
Continuous
 62
     7
 48
25.4
100
AcDbLine
 10
102.3112892844
 20
228.4321500134
 30
0.0
 11
102.3112892844
 21
259.9321500134
 31
0.0
  0
LINE
  5
33E
330
32C
100
AcDbEntity
  8
Standard
  6
Continuous
 62
     7
 48
25.4
100
AcDbLine
 10
96.5612892844
 20
228.4321500134
 30
0.0
 11
96.5612892844
 21
259.9321500134
 31
0.0
  0
LINE
  5
33F
330
32C
100
AcDbEntity
  8
Standard
  6
CENTER2
 62
     7
 48
25.4
100
AcDbLine
 10
99.4362892844
 20
228.1821500134
 30
0.0
 11
99.4362892844
 21
259.9321500134
 31
0.0
  0
LINE
  5
340
330
32C
100
AcDbEntity
  8
Standard
  6
Continuous
 62
     7
 48
25.4
100
AcDbLine
 10
109.4362892844
 20
267.0571500134
 30
0.0
 11
145.1862892844
 21
267.0571500134
 31
0.0
  0
LINE
  5
341
330
32C
100
AcDbEntity
  8
Standard
  6
Continuous
 62
     7
 48
25.4
100
AcDbLine
 10
109.4362892844
 20
272.8071500134
 30
0.0
 11
145.1862892844
 21
272.8071500134
 31
0.0
  0
LINE
  5
342
330
32C
100
AcDbEntity
  8
Standard
  6
CENTER2
 62
     7
 48
25.4
100
AcDbLine
 10
109.4362892844
 20
269.9321500134
 30
0.0
 11
145.1862892844
 21
269.9321500134
 31
0.0
  0
ARC
  5
343
330
32C
100
AcDbEntity
  8
Standard
  6
Continuous
 62
     7
 48
25.4
100
AcDbCircle
 10
145.1862892844
 20
259.9321500134
 30
0.0
 40
7.125
100
AcDbArc
 50
0.0
 51
90.0
  0
ARC
  5
344
330
32C
100
AcDbEntity
  8
Standard
  6
CENTER2
 62
     7
 48
25.4
100
AcDbCircle
 10
145.1862892844
 20
259.9321500134
 30
0.0
 40
10.0
100
AcDbArc
 50
0.0
 51
90.0
  0
ARC
  5
345
330
32C
100
AcDbEntity
  8
Standard
  6
Continuous
 62
     7
 48
25.4
100
AcDbCircle
 10
145.1862892844
 20
259.9321500134
 30
0.0
 40
12.875
100
AcDbArc
 50
0.0
 51
90.0
  0
INSERT
  5
347
330
32C
100
AcDbEntity
  8
0
100
AcDbBlockReference
  2
SE1
 10
0.0
 20
0.0
 30
0.0
  0
LINE
  5
357
330
32C
100
AcDbEntity
  8
Standard
  6
Continuous
 62
     7
 48
25.4
100
AcDbLine
 10
152.8094999109
 20
255.6398868889
 30
0.0
 11
157.563078658
 21
255.6398868889
 31
0.0
  0
LINE
  5
358
330
32C
100
AcDbEntity
  8
Standard
  6
Continuous
 62
     7
 48
25.4
100
AcDbLine
 10
152.4362892844
 20
255.3071500134
 30
0.0
 11
155.1862892844
 21
255.3071500134
 31
0.0
  0
ARC
  5
359
330
32C
100
AcDbEntity
  8
Standard
  6
Continuous
 62
     7
 48
25.4
100
AcDbCircle
 10
157.563078658
 20
255.6398868889
 30
0.0
 40
0.500000000000002
100
AcDbArc
 50
318.281319456
 51
4.8487828982
  0
ARC
  5
35A
330
32C
100
AcDbEntity
  8
Standard
  6
Continuous
 62
     7
 48
25.4
100
AcDbCircle
 10
152.8094999109
 20
255.6398868889
 30
0.0
 40
0.5
100
AcDbArc
 50
175.1512171018
 51
221.718680544
  0
LINE
  5
35B
330
32C
100
AcDbEntity
  8
Standard
  6
Continuous
 62
     7
 48
25.4
100
AcDbLine
 10
155.1862892844
 20
255.3071500134
 30
0.0
 11
157.9362892844
 21
255.3071500134
 31
0.0
  0
LINE
  5
35C
330
32C
100
AcDbEntity
  8
Standard
  6
Continuous
 62
     7
 48
25.4
100
AcDbLine
 10
152.3112892844
 20
259.9321500134
 30
0.0
 11
152.3112892844
 21
255.6821500134
 31
0.0
  0
LINE
  5
35D
330
32C
100
AcDbEntity
  8
Standard
  6
Continuous
 62
     7
 48
25.4
100
AcDbLine
 10
158.0612892844
 20
259.9321500134
 30
0.0
 11
158.0612892844
 21
255.6821500134
 31
0.0
  0
LINE
  5
35E
330
32C
100
AcDbEntity
  8
Standard
  6
CENTER2
 62
     7
 48
25.4
100
AcDbLine
 10
155.1862892844
 20
252.9312691824
 30
0.0
 11
155.1862892844
 21
259.9321500134
 31
0.0
  0
ENDBLK
  5
360
330
32C
100
AcDbEntity
  8
0
100
AcDbBlockEnd
  0
BLOCK
  5
355
330
346
100
AcDbEntity
  8
0
100
AcDbBlockBegin
  2
SE1
 70
     0
 71
     0
 10
0.0
 20
0.0
 30
0.0
  3
SE1
  1

  0
LINE
  5
348
330
346
100
AcDbEntity
  8
MDS_Layer_2
  6
Continuous
 62
     7
 48
25.4
100
AcDbLine
 10
158.0612892992
 20
252.4932907164
 30
0.0
 11
158.0612892992
 21
255.2696500134
 31
0.0
  0
LINE
  5
349
330
346
100
AcDbEntity
  8
MDS_Layer_2
  6
Continuous
 62
     7
 48
25.4
100
AcDbLine
 10
158.0612892992
 20
252.4932906757
 30
0.0
 11
155.1862892844
 21
252.4932906757
 31
0.0
  0
LINE
  5
34A
330
346
100
AcDbEntity
  8
MDS_Layer_2
  6
Continuous
 62
     7
 48
25.4
100
AcDbLine
 10
157.8112892844
 20
251.0571500134
 30
0.0
 11
155.1862892844
 21
251.0571500134
 31
0.0
  0
ARC
  5
34B
330
346
100
AcDbEntity
  8
MDS_Layer_2
  6
Continuous
 62
     7
 48
25.4
100
AcDbCircle
 10
153.8112892992
 20
252.4932907164
 30
0.0
 40
4.249999999999814
100
AcDbArc
 50
340.250076613
 51
360.0
  0
LINE
  5
34C
330
346
100
AcDbEntity
  8
MDS_Layer_2
  6
Continuous
 62
     7
 48
25.4
100
AcDbLine
 10
158.0237892992
 20
255.3071500134
 30
0.0
 11
155.1862892844
 21
255.3071500134
 31
0.0
  0
ARC
  5
34D
330
346
100
AcDbEntity
  8
MDS_Layer_2
  6
Continuous
 62
     7
 48
25.4
100
AcDbCircle
 10
158.0237892992
 20
255.2696500134
 30
0.0
 40
0.0374999999999924
100
AcDbArc
 50
0.0000000001
 51
90.0
  0
LINE
  5
34E
330
346
100
AcDbEntity
  8
MDS_Layer_4
  6
CENTER2
 62
     7
 48
25.4
100
AcDbLine
 10
155.1862892844
 20
255.6430572984
 30
0.0
 11
155.1862892844
 21
250.4453340473
 31
0.0
  0
LINE
  5
34F
330
346
100
AcDbEntity
  8
MDS_Layer_2
  6
Continuous
 62
     7
 48
25.4
100
AcDbLine
 10
152.3112892696
 20
252.4932907164
 30
0.0
 11
152.3112892696
 21
255.2696500134
 31
0.0
  0
LINE
  5
350
330
346
100
AcDbEntity
  8
MDS_Layer_2
  6
Continuous
 62
     7
 48
25.4
100
AcDbLine
 10
152.3112892696
 20
252.4932906757
 30
0.0
 11
155.1862892844
 21
252.4932906757
 31
0.0
  0
LINE
  5
351
330
346
100
AcDbEntity
  8
MDS_Layer_2
  6
Continuous
 62
     7
 48
25.4
100
AcDbLine
 10
152.5612892844
 20
251.0571500134
 30
0.0
 11
155.1862892844
 21
251.0571500134
 31
0.0
  0
ARC
  5
352
330
346
100
AcDbEntity
  8
MDS_Layer_2
  6
Continuous
 62
     7
 48
25.4
100
AcDbCircle
 10
156.5612892696
 20
252.4932907164
 30
0.0
 40
4.249999999999814
100
AcDbArc
 50
180.0
 51
199.749923387
  0
LINE
  5
353
330
346
100
AcDbEntity
  8
MDS_Layer_2
  6
Continuous
 62
     7
 48
25.4
100
AcDbLine
 10
152.3487892696
 20
255.3071500134
 30
0.0
 11
155.1862892844
 21
255.3071500134
 31
0.0
  0
ARC
  5
354
330
346
100
AcDbEntity
  8
MDS_Layer_2
  6
Continuous
 62
     7
 48
25.4
100
AcDbCircle
 10
152.3487892696
 20
255.2696500134
 30
0.0
 40
0.0374999999999924
100
AcDbArc
 50
90.0
 51
180.0
  0
ENDBLK
  5
356
330
346
100
AcDbEntity
  8
0
100
AcDbBlockEnd
  0
BLOCK
  5
36C
330
361
100
AcDbEntity
  8
0
100
AcDbBlockBegin
  2
GDimGGroup1
 70
     0
 71
     0
 10
0.0
 20
0.0
 30
0.0
  3
GDimGGroup1
  1

  0
HATCH
  5
363
330
361
100
AcDbEntity
  8
Layer03
  6
Continuous
 62
   136
 48
25.4
100
AcDbHatch
 10
0.0
 20
0.0
 30
0.0
210
0.0
220
0.0
230
1.0
  2
SOLID
 70
     1
 71
     0
 91
        1
 92
        1
 93
        3
 72
     1
 10
105.4362893365576
 20
283.115586922501
 11
99.43628928440354
 21
282.1155869138087
 72
     1
 10
99.43628928440354
 20
282.1155869138087
 11
105.4362893365576
 21
281.1155869051163
 72
     1
 10
105.4362893365576
 20
281.1155869051163
 11
105.4362893365576
 21
283.115586922501
 97
        0
 75
     0
 76
     1
 98
        0
  0
LWPOLYLINE
  5
364
330
361
100
AcDbEntity
  8
Layer03
  6
Continuous
 62
   136
 48
25.4
370
    20
100
AcDbPolyline
 90
        4
 70
     1
 43
0.00025
 10
105.4362893366
 20
283.1155869225
 10
99.4362892844
 20
282.1155869138
 10
105.4362893366
 20
281.1155869051
 10
105.4362893366
 20
283.1155869225
  0
HATCH
  5
365
330
361
100
AcDbEntity
  8
Layer03
  6
Continuous
 62
   136
 48
25.4
100
AcDbHatch
 10
0.0
 20
0.0
 30
0.0
210
0.0
220
0.0
230
1.0
  2
SOLID
 70
     1
 71
     0
 91
        1
 92
        1
 93
        3
 72
     1
 10
149.1862892322495
 20
283.115586922501
 11
149.1862892322495
 21
281.1155869051163
 72
     1
 10
149.1862892322495
 20
281.1155869051163
 11
155.1862892844036
 21
282.1155869138087
 72
     1
 10
155.1862892844036
 20
282.1155869138087
 11
149.1862892322495
 21
283.115586922501
 97
        0
 75
     0
 76
     1
 98
        0
  0
LWPOLYLINE
  5
366
330
361
100
AcDbEntity
  8
Layer03
  6
Continuous
 62
   136
 48
25.4
370
    20
100
AcDbPolyline
 90
        4
 70
     1
 43
0.00025
 10
149.1862892322
 20
283.1155869225
 10
155.1862892844
 20
282.1155869138
 10
149.1862892322
 20
281.1155869051
 10
149.1862892322
 20
283.1155869225
  0
LINE
  5
367
330
361
100
AcDbEntity
  8
Layer03
  6
Continuous
 62
     7
 48
25.4
100
AcDbLine
 10
99.4362892844
 20
259.9321500134
 30
0.0
 11
99.4362892844
 21
285.1155869399
 31
0.0
  0
LINE
  5
368
330
361
100
AcDbEntity
  8
Layer03
  6
Continuous
 62
     7
 48
25.4
100
AcDbLine
 10
155.1862892844
 20
259.9321500134
 30
0.0
 11
155.1862892844
 21
285.1155869399
 31
0.0
  0
LINE
  5
369
330
361
100
AcDbEntity
  8
Layer03
  6
Continuous
 62
     7
 48
25.4
100
AcDbLine
 10
99.4362892844
 20
282.1155869138
 30
0.0
 11
118.1678107269
 21
282.1155869138
 31
0.0
  0
LINE
  5
36A
330
361
100
AcDbEntity
  8
Layer03
  6
Continuous
 62
     7
 48
25.4
100
AcDbLine
 10
136.4547678419
 20
282.1155869138
 30
0.0
 11
155.1862892844
 21
282.1155869138
 31
0.0
  0
TEXT
  5
36B
330
361
100
AcDbEntity
  8
Layer03
  6
Continuous
 62
     7
 48
25.4
100
AcDbText
 10
120.2678116345
 20
279.1155869138
 30
0.0
 40
6.0
  1
223
  7
SEACAD_arial_ttf
 11
120.2678116345
 21
285.1155869138
 31
0.0
100
AcDbText
 73
     3
  0
ENDBLK
  5
36D
330
361
100
AcDbEntity
  8
0
100
AcDbBlockEnd
  0
BLOCK
  5
379
330
36E
100
AcDbEntity
  8
0
100
AcDbBlockBegin
  2
GDimGGroup2
 70
     0
 71
     0
 10
0.0
 20
0.0
 30
0.0
  3
GDimGGroup2
  1

  0
HATCH
  5
370
330
36E
100
AcDbEntity
  8
Layer03
  6
Continuous
 62
   136
 48
25.4
100
AcDbHatch
 10
0.0
 20
0.0
 30
0.0
210
0.0
220
0.0
230
1.0
  2
SOLID
 70
     1
 71
     0
 91
        1
 92
        1
 93
        3
 72
     1
 10
89.18628923224922
 20
188.5696836061591
 11
95.18628928440329
 21
189.5696836148514
 72
     1
 10
95.18628928440329
 20
189.5696836148514
 11
89.18628923224922
 21
190.5696836235438
 72
     1
 10
89.18628923224922
 20
190.5696836235438
 11
89.18628923224922
 21
188.5696836061591
 97
        0
 75
     0
 76
     1
 98
        0
  0
LWPOLYLINE
  5
371
330
36E
100
AcDbEntity
  8
Layer03
  6
Continuous
 62
   136
 48
25.4
370
    20
100
AcDbPolyline
 90
        4
 70
     1
 43
0.00025
 10
89.1862892322
 20
188.5696836062
 10
95.1862892844
 20
189.5696836149
 10
89.1862892322
 20
190.5696836235
 10
89.1862892322
 20
188.5696836062
  0
HATCH
  5
372
330
36E
100
AcDbEntity
  8
Layer03
  6
Continuous
 62
   136
 48
25.4
100
AcDbHatch
 10
0.0
 20
0.0
 30
0.0
210
0.0
220
0.0
230
1.0
  2
SOLID
 70
     1
 71
     0
 91
        1
 92
        1
 93
        3
 72
     1
 10
109.6862893365574
 20
188.5696836061591
 11
109.6862893365574
 21
190.5696836235438
 72
     1
 10
109.6862893365574
 20
190.5696836235438
 11
103.6862892844033
 21
189.5696836148514
 72
     1
 10
103.6862892844033
 20
189.5696836148514
 11
109.6862893365574
 21
188.5696836061591
 97
        0
 75
     0
 76
     1
 98
        0
  0
LWPOLYLINE
  5
373
330
36E
100
AcDbEntity
  8
Layer03
  6
Continuous
 62
   136
 48
25.4
370
    20
100
AcDbPolyline
 90
        4
 70
     1
 43
0.00025
 10
109.6862893366
 20
188.5696836062
 10
103.6862892844
 20
189.5696836149
 10
109.6862893366
 20
190.5696836235
 10
109.6862893366
 20
188.5696836062
  0
LINE
  5
374
330
36E
100
AcDbEntity
  8
Layer03
  6
Continuous
 62
     7
 48
25.4
100
AcDbLine
 10
59.95914701
 20
189.5696836149
 30
0.0
 11
95.1862892844
 21
189.5696836149
 31
0.0
  0
LINE
  5
375
330
36E
100
AcDbEntity
  8
Layer03
  6
Continuous
 62
     7
 48
25.4
100
AcDbLine
 10
103.6862892844
 20
189.5696836149
 30
0.0
 11
115.6862893887
 21
189.5696836149
 31
0.0
  0
TEXT
  5
376
330
36E
100
AcDbEntity
  8
Layer03
  6
Continuous
 62
     7
 48
25.4
100
AcDbText
 10
70.1012516259
 20
191.0696836149
 30
0.0
 40
6.0
  1
34
  7
SEACAD_arial_ttf
 11
70.1012516259
 21
197.0696836149
 31
0.0
100
AcDbText
 73
     3
  0
TEXT
  5
378
330
36E
100
AcDbEntity
  8
Layer03
  6
Continuous
 62
     7
 48
25.4
100
AcDbText
 10
62.0591463627
 20
191.0696836149
 30
0.0
 40
6.0
  1
O
  7
SEACAD_semeca1_ttf
 11
62.0591463627
 21
197.0696836149
 31
0.0
100
AcDbText
 73
     3
  0
ENDBLK
  5
37A
330
36E
100
AcDbEntity
  8
0
100
AcDbBlockEnd
  0
BLOCK
  5
387
330
37B
100
AcDbEntity
  8
0
100
AcDbBlockBegin
  2
GDimGGroup3
 70
     0
 71
     0
 10
0.0
 20
0.0
 30
0.0
  3
GDimGGroup3
  1

  0
HATCH
  5
37D
330
37B
100
AcDbEntity
  8
Layer03
  6
Continuous
 62
   136
 48
25.4
100
AcDbHatch
 10
0.0
 20
0.0
 30
0.0
210
0.0
220
0.0
230
1.0
  2
SOLID
 70
     1
 71
     0
 91
        1
 92
        1
 93
        3
 72
     1
 10
86.68628923224937
 20
203.4670619189572
 11
86.68628923224937
 21
201.4670619015725
 72
     1
 10
86.68628923224937
 20
201.4670619015725
 11
92.68628928440343
 21
202.4670619102649
 72
     1
 10
92.68628928440343
 20
202.4670619102649
 11
86.68628923224937
 21
203.4670619189572
 97
        0
 75
     0
 76
     1
 98
        0
  0
LWPOLYLINE
  5
37E
330
37B
100
AcDbEntity
  8
Layer03
  6
Continuous
 62
   136
 48
25.4
370
    20
100
AcDbPolyline
 90
        4
 70
     1
 43
0.00025
 10
86.6862892322
 20
203.467061919
 10
92.6862892844
 20
202.4670619103
 10
86.6862892322
 20
201.4670619016
 10
86.6862892322
 20
203.467061919
  0
HATCH
  5
37F
330
37B
100
AcDbEntity
  8
Layer03
  6
Continuous
 62
   136
 48
25.4
100
AcDbHatch
 10
0.0
 20
0.0
 30
0.0
210
0.0
220
0.0
230
1.0
  2
SOLID
 70
     1
 71
     0
 91
        1
 92
        1
 93
        3
 72
     1
 10
112.1862893365898
 20
203.4670619189572
 11
106.1862892844357
 21
202.4670619102649
 72
     1
 10
106.1862892844357
 20
202.4670619102649
 11
112.1862893365898
 21
201.4670619015725
 72
     1
 10
112.1862893365898
 20
201.4670619015725
 11
112.1862893365898
 21
203.4670619189572
 97
        0
 75
     0
 76
     1
 98
        0
  0
LWPOLYLINE
  5
380
330
37B
100
AcDbEntity
  8
Layer03
  6
Continuous
 62
   136
 48
25.4
370
    20
100
AcDbPolyline
 90
        4
 70
     1
 43
0.00025
 10
112.1862893366
 20
203.467061919
 10
106.1862892844
 20
202.4670619103
 10
112.1862893366
 20
201.4670619016
 10
112.1862893366
 20
203.467061919
  0
LINE
  5
381
330
37B
100
AcDbEntity
  8
Layer03
  6
Continuous
 62
     7
 48
25.4
100
AcDbLine
 10
92.6862892844
 20
195.9922773349
 30
0.0
 11
92.6862892844
 21
205.4670619363
 31
0.0
  0
LINE
  5
382
330
37B
100
AcDbEntity
  8
Layer03
  6
Continuous
 62
     7
 48
25.4
100
AcDbLine
 10
106.1862892844
 20
195.9922773349
 30
0.0
 11
106.1862892844
 21
205.4670619363
 31
0.0
  0
LINE
  5
383
330
37B
100
AcDbEntity
  8
Layer03
  6
Continuous
 62
     7
 48
25.4
100
AcDbLine
 10
64.5111625232
 20
202.4670619103
 30
0.0
 11
92.6862892844
 21
202.4670619103
 31
0.0
  0
LINE
  5
384
330
37B
100
AcDbEntity
  8
Layer03
  6
Continuous
 62
     7
 48
25.4
100
AcDbLine
 10
106.1862892844
 20
202.4670619103
 30
0.0
 11
118.1862893887
 21
202.4670619103
 31
0.0
  0
TEXT
  5
385
330
37B
100
AcDbEntity
  8
Layer03
  6
Continuous
 62
     7
 48
25.4
100
AcDbText
 10
74.6532676047
 20
203.9670619103
 30
0.0
 40
6.0
  1
54
  7
SEACAD_arial_ttf
 11
74.6532676047
 21
209.9670619103
 31
0.0
100
AcDbText
 73
     3
  0
TEXT
  5
386
330
37B
100
AcDbEntity
  8
Layer03
  6
Continuous
 62
     7
 48
25.4
100
AcDbText
 10
66.6111623416
 20
203.9670619103
 30
0.0
 40
6.0
  1
O
  7
SEACAD_semeca1_ttf
 11
66.6111623416
 21
209.9670619103
 31
0.0
100
AcDbText
 73
     3
  0
ENDBLK
  5
388
330
37B
100
AcDbEntity
  8
0
100
AcDbBlockEnd
  0
BLOCK
  5
394
330
389
100
AcDbEntity
  8
0
100
AcDbBlockBegin
  2
GDimGGroup4
 70
     0
 71
     0
 10
0.0
 20
0.0
 30
0.0
  3
GDimGGroup4
  1

  0
HATCH
  5
38B
330
389
100
AcDbEntity
  8
Layer03
  6
Continuous
 62
   136
 48
25.4
100
AcDbHatch
 10
0.0
 20
0.0
 30
0.0
210
0.0
220
0.0
230
1.0
  2
SOLID
 70
     1
 71
     0
 91
        1
 92
        1
 93
        3
 72
     1
 10
176.4072793258229
 20
201.6321500655855
 11
174.4072793084382
 21
201.6321500655855
 72
     1
 10
174.4072793084382
 20
201.6321500655855
 11
175.4072793171306
 21
195.6321500134314
 72
     1
 10
175.4072793171306
 20
195.6321500134314
 11
176.4072793258229
 21
201.6321500655855
 97
        0
 75
     0
 76
     1
 98
        0
  0
LWPOLYLINE
  5
38C
330
389
100
AcDbEntity
  8
Layer03
  6
Continuous
 62
   136
 48
25.4
370
    20
100
AcDbPolyline
 90
        4
 70
     1
 43
0.00025
 10
176.4072793258
 20
201.6321500656
 10
175.4072793171
 20
195.6321500134
 10
174.4072793084
 20
201.6321500656
 10
176.4072793258
 20
201.6321500656
  0
HATCH
  5
38D
330
389
100
AcDbEntity
  8
Layer03
  6
Continuous
 62
   136
 48
25.4
100
AcDbHatch
 10
0.0
 20
0.0
 30
0.0
210
0.0
220
0.0
230
1.0
  2
SOLID
 70
     1
 71
     0
 91
        1
 92
        1
 93
        3
 72
     1
 10
176.4072793258229
 20
266.8071499612773
 11
175.4072793171306
 21
272.8071500134313
 72
     1
 10
175.4072793171306
 20
272.8071500134313
 11
174.4072793084382
 21
266.8071499612773
 72
     1
 10
174.4072793084382
 20
266.8071499612773
 11
176.4072793258229
 21
266.8071499612773
 97
        0
 75
     0
 76
     1
 98
        0
  0
LWPOLYLINE
  5
38E
330
389
100
AcDbEntity
  8
Layer03
  6
Continuous
 62
   136
 48
25.4
370
    20
100
AcDbPolyline
 90
        4
 70
     1
 43
0.00025
 10
176.4072793258
 20
266.8071499613
 10
175.4072793171
 20
272.8071500134
 10
174.4072793084
 20
266.8071499613
 10
176.4072793258
 20
266.8071499613
  0
LINE
  5
38F
330
389
100
AcDbEntity
  8
Layer03
  6
Continuous
 62
     7
 48
25.4
100
AcDbLine
 10
116.313774173
 20
195.6321500134
 30
0.0
 11
178.4072793432
 21
195.6321500134
 31
0.0
  0
LINE
  5
390
330
389
100
AcDbEntity
  8
Layer03
  6
Continuous
 62
     7
 48
25.4
100
AcDbLine
 10
145.1862892844
 20
272.8071500134
 30
0.0
 11
178.4072793432
 21
272.8071500134
 31
0.0
  0
LINE
  5
391
330
389
100
AcDbEntity
  8
Layer03
  6
Continuous
 62
     7
 48
25.4
100
AcDbLine
 10
175.4072793171
 20
195.6321500134
 30
0.0
 11
175.4072793171
 21
229.1196487737
 31
0.0
  0
LINE
  5
392
330
389
100
AcDbEntity
  8
Layer03
  6
Continuous
 62
     7
 48
25.4
100
AcDbLine
 10
175.4072793171
 20
239.3196512532
 30
0.0
 11
175.4072793171
 21
272.8071500134
 31
0.0
  0
TEXT
  5
393
330
389
100
AcDbEntity
  8
Layer03
  6
Continuous
 62
     7
 48
25.4
100
AcDbText
 10
168.3638010563
 20
231.2196494233
 30
0.0
 40
6.0
  1
309
  7
SEACAD_arial_ttf
 11
168.3638010563
 21
237.2196494233
 31
0.0
100
AcDbText
 73
     3
  0
ENDBLK
  5
395
330
389
100
AcDbEntity
  8
0
100
AcDbBlockEnd
  0
BLOCK
  5
3A1
330
396
100
AcDbEntity
  8
0
100
AcDbBlockBegin
  2
GDimGGroup5
 70
     0
 71
     0
 10
0.0
 20
0.0
 30
0.0
  3
GDimGGroup5
  1

  0
HATCH
  5
398
330
396
100
AcDbEntity
  8
Layer03
  6
Continuous
 62
   136
 48
25.4
100
AcDbHatch
 10
0.0
 20
0.0
 30
0.0
210
0.0
220
0.0
230
1.0
  2
SOLID
 70
     1
 71
     0
 91
        1
 92
        1
 93
        3
 72
     1
 10
145.599588270014
 20
245.0571499612773
 11
147.5995882873987
 21
245.0571499612773
 72
     1
 10
147.5995882873987
 20
245.0571499612773
 11
146.5995882787063
 21
251.0571500134313
 72
     1
 10
146.5995882787063
 20
251.0571500134313
 11
145.599588270014
 21
245.0571499612773
 97
        0
 75
     0
 76
     1
 98
        0
  0
LWPOLYLINE
  5
399
330
396
100
AcDbEntity
  8
Layer03
  6
Continuous
 62
   136
 48
25.4
370
    20
100
AcDbPolyline
 90
        4
 70
     1
 43
0.00025
 10
145.59958827
 20
245.0571499613
 10
146.5995882787
 20
251.0571500134
 10
147.5995882874
 20
245.0571499613
 10
145.59958827
 20
245.0571499613
  0
HATCH
  5
39A
330
396
100
AcDbEntity
  8
Layer03
  6
Continuous
 62
   136
 48
25.4
100
AcDbHatch
 10
0.0
 20
0.0
 30
0.0
210
0.0
220
0.0
230
1.0
  2
SOLID
 70
     1
 71
     0
 91
        1
 92
        1
 93
        3
 72
     1
 10
145.599588270014
 20
201.6321500655855
 11
146.5995882787063
 21
195.6321500134314
 72
     1
 10
146.5995882787063
 20
195.6321500134314
 11
147.5995882873987
 21
201.6321500655855
 72
     1
 10
147.5995882873987
 20
201.6321500655855
 11
145.599588270014
 21
201.6321500655855
 97
        0
 75
     0
 76
     1
 98
        0
  0
LWPOLYLINE
  5
39B
330
396
100
AcDbEntity
  8
Layer03
  6
Continuous
 62
   136
 48
25.4
370
    20
100
AcDbPolyline
 90
        4
 70
     1
 43
0.00025
 10
145.59958827
 20
201.6321500656
 10
146.5995882787
 20
195.6321500134
 10
147.5995882874
 20
201.6321500656
 10
145.59958827
 20
201.6321500656
  0
LINE
  5
39C
330
396
100
AcDbEntity
  8
Layer03
  6
Continuous
 62
     7
 48
25.4
100
AcDbLine
 10
152.5612893198
 20
251.0571500134
 30
0.0
 11
143.5995882526
 21
251.0571500134
 31
0.0
  0
LINE
  5
39D
330
396
100
AcDbEntity
  8
Layer03
  6
Continuous
 62
     7
 48
25.4
100
AcDbLine
 10
116.313774173
 20
195.6321500134
 30
0.0
 11
149.5995883048
 21
195.6321500134
 31
0.0
  0
LINE
  5
39E
330
396
100
AcDbEntity
  8
Layer03
  6
Continuous
 62
     7
 48
25.4
100
AcDbLine
 10
146.5995882787
 20
251.0571500134
 30
0.0
 11
146.5995882787
 21
228.4446509403
 31
0.0
  0
LINE
  5
39F
330
396
100
AcDbEntity
  8
Layer03
  6
Continuous
 62
     7
 48
25.4
100
AcDbLine
 10
146.5995882787
 20
218.2446509492
 30
0.0
 11
146.5995882787
 21
195.6321500134
 31
0.0
  0
TEXT
  5
3A0
330
396
100
AcDbEntity
  8
Layer03
  6
Continuous
 62
     7
 48
25.4
100
AcDbText
 10
139.5561100178
 20
220.3446502906
 30
0.0
 40
6.0
  1
222
  7
SEACAD_arial_ttf
 11
139.5561100178
 21
226.3446502906
 31
0.0
100
AcDbText
 73
     3
  0
ENDBLK
  5
3A2
330
396
100
AcDbEntity
  8
0
100
AcDbBlockEnd
  0
BLOCK
  5
3AD
330
3A3
100
AcDbEntity
  8
0
100
AcDbBlockBegin
  2
GDimGGroup6
 70
     0
 71
     0
 10
0.0
 20
0.0
 30
0.0
  3
GDimGGroup6
  1

  0
HATCH
  5
3A5
330
3A3
100
AcDbEntity
  8
Layer03
  6
Continuous
 62
   136
 48
25.4
100
AcDbHatch
 10
0.0
 20
0.0
 30
0.0
210
0.0
220
0.0
230
1.0
  2
SOLID
 70
     1
 71
     0
 91
        1
 92
        1
 93
        3
 72
     1
 10
105.4362893365576
 20
250.6774254500215
 11
105.4362893365576
 21
252.6774254674062
 72
     1
 10
105.4362893365576
 20
252.6774254674062
 11
99.43628928440354
 21
251.6774254587139
 72
     1
 10
99.43628928440354
 20
251.6774254587139
 11
105.4362893365576
 21
250.6774254500215
 97
        0
 75
     0
 76
     1
 98
        0
  0
LWPOLYLINE
  5
3A6
330
3A3
100
AcDbEntity
  8
Layer03
  6
Continuous
 62
   136
 48
25.4
370
    20
100
AcDbPolyline
 90
        4
 70
     1
 43
0.00025
 10
105.4362893366
 20
250.67742545
 10
99.4362892844
 20
251.6774254587
 10
105.4362893366
 20
252.6774254674
 10
105.4362893366
 20
250.67742545
  0
HATCH
  5
3A7
330
3A3
100
AcDbEntity
  8
Layer03
  6
Continuous
 62
   136
 48
25.4
100
AcDbHatch
 10
0.0
 20
0.0
 30
0.0
210
0.0
220
0.0
230
1.0
  2
SOLID
 70
     1
 71
     0
 91
        1
 92
        1
 93
        3
 72
     1
 10
130.272762135203
 20
250.6774254500215
 11
136.2727621873571
 21
251.6774254587139
 72
     1
 10
136.2727621873571
 20
251.6774254587139
 11
130.272762135203
 21
252.6774254674062
 72
     1
 10
130.272762135203
 20
252.6774254674062
 11
130.272762135203
 21
250.6774254500215
 97
        0
 75
     0
 76
     1
 98
        0
  0
LWPOLYLINE
  5
3A8
330
3A3
100
AcDbEntity
  8
Layer03
  6
Continuous
 62
   136
 48
25.4
370
    20
100
AcDbPolyline
 90
        4
 70
     1
 43
0.00025
 10
130.2727621352
 20
250.67742545
 10
136.2727621874
 20
251.6774254587
 10
130.2727621352
 20
252.6774254674
 10
130.2727621352
 20
250.67742545
  0
LINE
  5
3A9
330
3A3
100
AcDbEntity
  8
Layer03
  6
Continuous
 62
     7
 48
25.4
100
AcDbLine
 10
136.2727621874
 20
234.0789617391
 30
0.0
 11
136.2727621874
 21
254.6774254848
 31
0.0
  0
LINE
  5
3AA
330
3A3
100
AcDbEntity
  8
Layer03
  6
Continuous
 62
     7
 48
25.4
100
AcDbLine
 10
99.4362892844
 20
251.6774254587
 30
0.0
 11
108.7110467516
 21
251.6774254587
 31
0.0
  0
LINE
  5
3AB
330
3A3
100
AcDbEntity
  8
Layer03
  6
Continuous
 62
     7
 48
25.4
100
AcDbLine
 10
126.9980028575
 20
251.6774254587
 30
0.0
 11
136.2727621874
 21
251.6774254587
 31
0.0
  0
TEXT
  5
3AC
330
3A3
100
AcDbEntity
  8
Layer03
  6
Continuous
 62
     7
 48
25.4
100
AcDbText
 10
110.8110467278
 20
248.6774254587
 30
0.0
 40
6.0
  1
147
  7
SEACAD_arial_ttf
 11
110.8110467278
 21
254.6774254587
 31
0.0
100
AcDbText
 73
     3
  0
ENDBLK
  5
3AE
330
3A3
100
AcDbEntity
  8
0
100
AcDbBlockEnd
  0
BLOCK
  5
3C9
330
3AF
100
AcDbEntity
  8
0
100
AcDbBlockBegin
  2
SE2
 70
     0
 71
     0
 10
0.0
 20
0.0
 30
0.0
  3
SE2
  1

  0
LINE
  5
3B2
330
3AF
100
AcDbEntity
  8
DV1_Hebel
  6
Continuous
 62
     7
 48
25.4
100
AcDbLine
 10
48.2862892844
 20
240.3645225362
 30
0.0
 11
50.5362892844
 21
240.3645225362
 31
0.0
  0
ARC
  5
3B3
330
3AF
100
AcDbEntity
  8
DV1_Hebel
  6
Continuous
 62
     7
 48
25.4
100
AcDbCircle
 10
50.5362892844
 20
240.2395225362
 30
0.0
 40
0.125
100
AcDbArc
 50
0.0
 51
90.0
  0
LINE
  5
3B4
330
3AF
100
AcDbEntity
  8
DV1_Hebel
  6
Continuous
 62
     7
 48
25.4
100
AcDbLine
 10
50.6612892844
 20
240.2395225362
 30
0.0
 11
50.6612892844
 21
224.0592240833
 31
0.0
  0
ARC
  5
3B5
330
3AF
100
AcDbEntity
  8
DV1_Hebel
  6
Continuous
 62
     7
 48
25.4
100
AcDbCircle
 10
48.2862892844
 20
240.2395225362
 30
0.0
 40
0.125
100
AcDbArc
 50
90.0
 51
180.0
  0
LINE
  5
3B6
330
3AF
100
AcDbEntity
  8
DV1_Hebel
  6
Continuous
 62
     7
 48
25.4
100
AcDbLine
 10
48.1612892844
 20
240.2395225362
 30
0.0
 11
48.1612892844
 21
224.0592240833
 31
0.0
  0
LINE
  5
3B7
330
3AF
100
AcDbEntity
  8
DV1_Hebel
  6
Continuous
 62
     7
 48
25.4
100
AcDbLine
 10
48.2862892844
 20
240.3645225362
 30
0.0
 11
50.5362892844
 21
240.3645225362
 31
0.0
  0
LINE
  5
3B8
330
3AF
100
AcDbEntity
  8
DV1_Hebel
  6
Continuous
 62
     7
 48
25.4
100
AcDbLine
 10
48.2862892844
 20
240.3645225362
 30
0.0
 11
50.5362892844
 21
240.3645225362
 31
0.0
  0
CIRCLE
  5
3BA
330
3AF
100
AcDbEntity
  8
DV1_Default
  6
Continuous
 62
     7
 48
25.4
100
AcDbCircle
 10
49.4112892844
 20
217.6805486722
 30
0.0
 40
6.500000000000001
  0
LINE
  5
3BB
330
3AF
100
AcDbEntity
  8
DV1_Hebel
  6
HIDDEN2
 62
     7
 48
25.4
100
AcDbLine
 10
66.0650853499
 20
233.1233260089
 30
0.0
 11
67.5113574717
 21
231.3997260119
 31
0.0
  0
ARC
  5
3BC
330
3AF
100
AcDbEntity
  8
DV1_Hebel
  6
HIDDEN2
 62
     7
 48
25.4
100
AcDbCircle
 10
67.4156019163
 20
231.3193775607
 30
0.0
 40
0.125
100
AcDbArc
 50
310.0
 51
40.0
  0
LINE
  5
3BD
330
3AF
100
AcDbEntity
  8
DV1_Hebel
  6
HIDDEN2
 62
     7
 48
25.4
100
AcDbLine
 10
67.4959503675
 20
231.2236220053
 30
0.0
 11
55.1011226496
 21
220.8231266387
 31
0.0
  0
ARC
  5
3BE
330
3AF
100
AcDbEntity
  8
DV1_Hebel
  6
HIDDEN2
 62
     7
 48
25.4
100
AcDbCircle
 10
65.9693297945
 20
233.0429775577
 30
0.0
 40
0.125
100
AcDbArc
 50
40.0
 51
130.0
  0
LINE
  5
3BF
330
3AF
100
AcDbEntity
  8
DV1_Hebel
  6
HIDDEN2
 62
     7
 48
25.4
100
AcDbLine
 10
65.8889813433
 20
233.1387331131
 30
0.0
 11
53.4941536254
 21
222.7382377465
 31
0.0
  0
LINE
  5
3C0
330
3AF
100
AcDbEntity
  8
DV1_Hebel
  6
HIDDEN2
 62
     7
 48
25.4
100
AcDbLine
 10
66.0650853499
 20
233.1233260089
 30
0.0
 11
67.5113574717
 21
231.3997260119
 31
0.0
  0
LINE
  5
3C1
330
3AF
100
AcDbEntity
  8
DV1_Hebel
  6
HIDDEN2
 62
     7
 48
25.4
100
AcDbLine
 10
66.0650853499
 20
233.1233260089
 30
0.0
 11
67.5113574717
 21
231.3997260119
 31
0.0
  0
LINE
  5
3C2
330
3AF
100
AcDbEntity
  8
DV1_Hebel
  6
HIDDEN2
 62
     7
 48
25.4
100
AcDbLine
 10
31.3112210971
 20
231.3997260119
 30
0.0
 11
32.7574932189
 21
233.1233260089
 31
0.0
  0
ARC
  5
3C3
330
3AF
100
AcDbEntity
  8
DV1_Hebel
  6
HIDDEN2
 62
     7
 48
25.4
100
AcDbCircle
 10
32.8532487743
 20
233.0429775577
 30
0.0
 40
0.125
100
AcDbArc
 50
50.0
 51
140.0
  0
LINE
  5
3C4
330
3AF
100
AcDbEntity
  8
DV1_Hebel
  6
HIDDEN2
 62
     7
 48
25.4
100
AcDbLine
 10
32.9335972255
 20
233.1387331131
 30
0.0
 11
45.3284249434
 21
222.7382377465
 31
0.0
  0
ARC
  5
3C5
330
3AF
100
AcDbEntity
  8
DV1_Hebel
  6
HIDDEN2
 62
     7
 48
25.4
100
AcDbCircle
 10
31.4069766525
 20
231.3193775607
 30
0.0
 40
0.125
100
AcDbArc
 50
140.0
 51
230.0
  0
LINE
  5
3C6
330
3AF
100
AcDbEntity
  8
DV1_Hebel
  6
HIDDEN2
 62
     7
 48
25.4
100
AcDbLine
 10
31.3266282013
 20
231.2236220053
 30
0.0
 11
43.7214559192
 21
220.8231266387
 31
0.0
  0
LINE
  5
3C7
330
3AF
100
AcDbEntity
  8
DV1_Hebel
  6
HIDDEN2
 62
     7
 48
25.4
100
AcDbLine
 10
31.3112210971
 20
231.3997260119
 30
0.0
 11
32.7574932189
 21
233.1233260089
 31
0.0
  0
LINE
  5
3C8
330
3AF
100
AcDbEntity
  8
DV1_Hebel
  6
HIDDEN2
 62
     7
 48
25.4
100
AcDbLine
 10
31.3112210971
 20
231.3997260119
 30
0.0
 11
32.7574932189
 21
233.1233260089
 31
0.0
  0
ENDBLK
  5
3CA
330
3AF
100
AcDbEntity
  8
0
100
AcDbBlockEnd
  0
BLOCK
  5
3D6
330
3CB
100
AcDbEntity
  8
0
100
AcDbBlockBegin
  2
GDimGGroup7
 70
     0
 71
     0
 10
0.0
 20
0.0
 30
0.0
  3
GDimGGroup7
  1

  0
HATCH
  5
3CD
330
3CB
100
AcDbEntity
  8
Default
  6
Continuous
 62
   136
 48
25.4
100
AcDbHatch
 10
0.0
 20
0.0
 30
0.0
210
0.0
220
0.0
230
1.0
  2
SOLID
 70
     1
 71
     0
 91
        1
 92
        1
 93
        3
 72
     1
 10
43.41128923224937
 20
262.88083302813
 11
43.41128923224937
 21
260.8808330107453
 72
     1
 10
43.41128923224937
 20
260.8808330107453
 11
49.41128928440344
 21
261.8808330194377
 72
     1
 10
49.41128928440344
 20
261.8808330194377
 11
43.41128923224937
 21
262.88083302813
 97
        0
 75
     0
 76
     1
 98
        0
  0
LWPOLYLINE
  5
3CE
330
3CB
100
AcDbEntity
  8
Default
  6
Continuous
 62
   136
 48
25.4
370
    30
100
AcDbPolyline
 90
        4
 70
     1
 43
0.00035
 10
43.4112892322
 20
262.8808330281
 10
49.4112892844
 20
261.8808330194
 10
43.4112892322
 20
260.8808330107
 10
43.4112892322
 20
262.8808330281
  0
HATCH
  5
3CF
330
3CB
100
AcDbEntity
  8
Default
  6
Continuous
 62
   136
 48
25.4
100
AcDbHatch
 10
0.0
 20
0.0
 30
0.0
210
0.0
220
0.0
230
1.0
  2
SOLID
 70
     1
 71
     0
 91
        1
 92
        1
 93
        3
 72
     1
 10
73.5401263057375
 20
262.88083302813
 11
67.54012625358344
 21
261.8808330194377
 72
     1
 10
67.54012625358344
 20
261.8808330194377
 11
73.5401263057375
 21
260.8808330107453
 72
     1
 10
73.5401263057375
 20
260.8808330107453
 11
73.5401263057375
 21
262.88083302813
 97
        0
 75
     0
 76
     1
 98
        0
  0
LWPOLYLINE
  5
3D0
330
3CB
100
AcDbEntity
  8
Default
  6
Continuous
 62
   136
 48
25.4
370
    30
100
AcDbPolyline
 90
        4
 70
     1
 43
0.00035
 10
73.5401263057
 20
262.8808330281
 10
67.5401262536
 20
261.8808330194
 10
73.5401263057
 20
260.8808330107
 10
73.5401263057
 20
262.8808330281
  0
LINE
  5
3D1
330
3CB
100
AcDbEntity
  8
Default
  6
Continuous
 62
     7
 48
25.4
100
AcDbLine
 10
49.4112892844
 20
241.9895225362
 30
0.0
 11
49.4112892844
 21
264.8808330455
 31
0.0
  0
LINE
  5
3D2
330
3CB
100
AcDbEntity
  8
Default
  6
Continuous
 62
     7
 48
25.4
100
AcDbLine
 10
67.5401262536
 20
231.3084830929
 30
0.0
 11
67.5401262536
 21
264.8808330455
 31
0.0
  0
LINE
  5
3D3
330
3CB
100
AcDbEntity
  8
Default
  6
Continuous
 62
     7
 48
25.4
100
AcDbLine
 10
37.4112891801
 20
261.8808330194
 30
0.0
 11
49.4112892844
 21
261.8808330194
 31
0.0
  0
LINE
  5
3D4
330
3CB
100
AcDbEntity
  8
Default
  6
Continuous
 62
     7
 48
25.4
100
AcDbLine
 10
67.5401262536
 20
261.8808330194
 30
0.0
 11
79.5401263579
 21
261.8808330194
 31
0.0
  0
TEXT
  5
3D5
330
3CB
100
AcDbEntity
  8
Default
  6
Continuous
 62
     7
 48
25.4
100
AcDbText
 10
53.7800553742
 20
258.8808330194
 30
0.0
 40
6.0
  1
73
  7
SEACAD_arial_ttf
 11
53.7800553742
 21
264.8808330194
 31
0.0
100
AcDbText
 73
     3
  0
ENDBLK
  5
3D7
330
3CB
100
AcDbEntity
  8
0
100
AcDbBlockEnd
  0
BLOCK
  5
3E3
330
3D8
100
AcDbEntity
  8
0
100
AcDbBlockBegin
  2
GDimGGroup8
 70
     0
 71
     0
 10
0.0
 20
0.0
 30
0.0
  3
GDimGGroup8
  1

  0
HATCH
  5
3DA
330
3D8
100
AcDbEntity
  8
Default
  6
Continuous
 62
   136
 48
25.4
100
AcDbHatch
 10
0.0
 20
0.0
 30
0.0
210
0.0
220
0.0
230
1.0
  2
SOLID
 70
     1
 71
     0
 91
        1
 92
        1
 93
        3
 72
     1
 10
70.43892383148021
 20
243.0113370212641
 11
75.39286091379515
 21
239.4816758437998
 72
     1
 10
75.39286091379515
 20
239.4816758437998
 11
71.85145919078293
 21
244.4272268221519
 72
     1
 10
71.85145919078292
 20
244.4272268221519
 11
70.4389238314802
 21
243.0113370212641
 97
        0
 75
     0
 76
     1
 98
        0
  0
LWPOLYLINE
  5
3DB
330
3D8
100
AcDbEntity
  8
Default
  6
Continuous
 62
   136
 48
25.4
370
    30
100
AcDbPolyline
 90
        4
 70
     1
 43
0.00035
 10
70.4389238315
 20
243.0113370213
 10
75.3928609138
 20
239.4816758438
 10
71.8514591908
 20
244.4272268222
 10
70.4389238315
 20
243.0113370213
  0
HATCH
  5
3DC
330
3D8
100
AcDbEntity
  8
Default
  6
Continuous
 62
   136
 48
25.4
100
AcDbHatch
 10
0.0
 20
0.0
 30
0.0
210
0.0
220
0.0
230
1.0
  2
SOLID
 70
     1
 71
     0
 91
        1
 92
        1
 93
        3
 72
     1
 10
55.47617027836485
 20
252.0631494420172
 11
49.41128928440343
 21
251.5970816654879
 72
     1
 10
49.41128928440344
 20
251.5970816654878
 11
55.29949598999809
 21
250.0709681587578
 72
     1
 10
55.29949598999808
 20
250.0709681587578
 11
55.47617027836485
 21
252.0631494420172
 97
        0
 75
     0
 76
     1
 98
        0
  0
LWPOLYLINE
  5
3DD
330
3D8
100
AcDbEntity
  8
Default
  6
Continuous
 62
   136
 48
25.4
370
    30
100
AcDbPolyline
 90
        4
 70
     1
 43
0.00035
 10
55.4761702784
 20
252.063149442
 10
49.4112892844
 20
251.5970816655
 10
55.29949599
 20
250.0709681588
 10
55.4761702784
 20
252.063149442
  0
LINE
  5
3DE
330
3D8
100
AcDbEntity
  8
Default
  6
Continuous
 62
     7
 48
25.4
100
AcDbLine
 10
68.0330436763
 20
233.3060559143
 30
0.0
 11
77.690993193
 21
241.4100377917
 31
0.0
  0
LINE
  5
3DF
330
3D8
100
AcDbEntity
  8
Default
  6
Continuous
 62
     7
 48
25.4
100
AcDbLine
 10
49.4112892844
 20
241.9895225955
 30
0.0
 11
49.4112892844
 21
254.5970802946
 31
0.0
  0
ARC
  5
3E0
330
3D8
100
AcDbEntity
  8
Default
  6
Continuous
 62
     7
 48
25.4
100
AcDbCircle
 10
49.4112892844
 20
217.6805486722
 30
0.0
 40
33.91653299331443
100
AcDbArc
 50
40.0
 51
49.107454494
  0
ARC
  5
3E1
330
3D8
100
AcDbEntity
  8
Default
  6
Continuous
 62
     7
 48
25.4
100
AcDbCircle
 10
49.4112892844
 20
217.6805486722
 30
0.0
 40
33.91653299331562
100
AcDbArc
 50
80.0807877684
 51
90.0
  0
TEXT
  5
3E2
330
3D8
100
AcDbEntity
  8
Default
  6
Continuous
 62
     7
 48
25.4
100
AcDbText
 10
57.3537311545
 20
245.4193666333
 30
0.0
 40
6.0
  1
50°
  7
SEACAD_arial_ttf
 11
57.3537311545
 21
251.4193666333
 31
0.0
100
AcDbText
 73
     3
  0
ENDBLK
  5
3E4
330
3D8
100
AcDbEntity
  8
0
100
AcDbBlockEnd
  0
BLOCK
  5
3F0
330
3E5
100
AcDbEntity
  8
0
100
AcDbBlockBegin
  2
GDimGGroup9
 70
     0
 71
     0
 10
0.0
 20
0.0
 30
0.0
  3
GDimGGroup9
  1

  0
HATCH
  5
3E7
330
3E5
100
AcDbEntity
  8
Default
  6
Continuous
 62
   136
 48
25.4
100
AcDbHatch
 10
0.0
 20
0.0
 30
0.0
210
0.0
220
0.0
230
1.0
  2
SOLID
 70
     1
 71
     0
 91
        1
 92
        1
 93
        3
 72
     1
 10
43.52308257763541
 20
250.070968163285
 11
49.41128928440344
 21
251.5970816654878
 72
     1
 10
49.41128928440344
 20
251.5970816654878
 11
43.34640829080036
 21
252.0631494466802
 72
     1
 10
43.34640829080036
 20
252.0631494466802
 11
43.52308257763542
 21
250.070968163285
 97
        0
 75
     0
 76
     1
 98
        0
  0
LWPOLYLINE
  5
3E8
330
3E5
100
AcDbEntity
  8
Default
  6
Continuous
 62
   136
 48
25.4
370
    30
100
AcDbPolyline
 90
        4
 70
     1
 43
0.00035
 10
43.5230825776
 20
250.0709681633
 10
49.4112892844
 20
251.5970816655
 10
43.3464082908
 20
252.0631494467
 10
43.5230825776
 20
250.0709681633
  0
HATCH
  5
3E9
330
3E5
100
AcDbEntity
  8
Default
  6
Continuous
 62
   136
 48
25.4
100
AcDbHatch
 10
0.0
 20
0.0
 30
0.0
210
0.0
220
0.0
230
1.0
  2
SOLID
 70
     1
 71
     0
 91
        1
 92
        1
 93
        3
 72
     1
 10
26.97111938182639
 20
244.4272268194291
 11
23.42971765501174
 21
239.4816758437999
 72
     1
 10
23.42971765501174
 20
239.4816758437999
 11
28.3836547400405
 21
243.0113370174553
 72
     1
 10
28.3836547400405
 20
243.0113370174552
 11
26.97111938182639
 21
244.4272268194291
 97
        0
 75
     0
 76
     1
 98
        0
  0
LWPOLYLINE
  5
3EA
330
3E5
100
AcDbEntity
  8
Default
  6
Continuous
 62
   136
 48
25.4
370
    30
100
AcDbPolyline
 90
        4
 70
     1
 43
0.00035
 10
26.9711193818
 20
244.4272268194
 10
23.429717655
 20
239.4816758438
 10
28.38365474
 20
243.0113370175
 10
26.9711193818
 20
244.4272268194
  0
LINE
  5
3EB
330
3E5
100
AcDbEntity
  8
Default
  6
Continuous
 62
     7
 48
25.4
100
AcDbLine
 10
49.4112892844
 20
241.9895225955
 30
0.0
 11
49.4112892844
 21
254.5970802946
 31
0.0
  0
LINE
  5
3EC
330
3E5
100
AcDbEntity
  8
Default
  6
Continuous
 62
     7
 48
25.4
100
AcDbLine
 10
30.7895348925
 20
233.3060559143
 30
0.0
 11
21.1315853758
 21
241.4100377917
 31
0.0
  0
ARC
  5
3ED
330
3E5
100
AcDbEntity
  8
Default
  6
Continuous
 62
     7
 48
25.4
100
AcDbCircle
 10
49.4112892844
 20
217.6805486722
 30
0.0
 40
33.91653299331562
100
AcDbArc
 50
90.0
 51
99.9192122316
  0
ARC
  5
3EE
330
3E5
100
AcDbEntity
  8
Default
  6
Continuous
 62
     7
 48
25.4
100
AcDbCircle
 10
49.4112892844
 20
217.6805486722
 30
0.0
 40
33.91653299331799
100
AcDbArc
 50
130.892545506
 51
140.0
  0
TEXT
  5
3EF
330
3E5
100
AcDbEntity
  8
Default
  6
Continuous
 62
     7
 48
25.4
100
AcDbText
 10
28.6862387187
 20
245.4193666333
 30
0.0
 40
6.0
  1
50°
  7
SEACAD_arial_ttf
 11
28.6862387187
 21
251.4193666333
 31
0.0
100
AcDbText
 73
     3
  0
ENDBLK
  5
3F1
330
3E5
100
AcDbEntity
  8
0
100
AcDbBlockEnd
  0
BLOCK
  5
42A
330
3F2
100
AcDbEntity
  8
0
100
AcDbBlockBegin
  2
SE3
 70
     0
 71
     0
 10
0.0
 20
0.0
 30
0.0
  3
SE3
  1

  0
LINE
  5
3F5
330
3F2
100
AcDbEntity
  8
DV2_ﾃﾞﾌｫﾙﾄ
  6
Continuous
 62
     7
 48
25.4
100
AcDbLine
 10
119.2236309183
 20
118.2840575866
 30
0.0
 11
119.4787860998
 21
118.5392127681
 31
0.0
  0
LINE
  5
3F6
330
3F2
100
AcDbEntity
  8
DV2_ﾃﾞﾌｫﾙﾄ
  6
Continuous
 62
     7
 48
25.4
100
AcDbLine
 10
115.9433178055
 20
126.9814050059
 30
0.0
 11
115.4386206675
 21
128.8649603672
 31
0.0
  0
LINE
  5
3F7
330
3F2
100
AcDbEntity
  8
DV2_ﾃﾞﾌｫﾙﾄ
  6
Continuous
 62
     7
 48
25.4
100
AcDbLine
 10
115.4386206675
 20
128.8649603672
 30
0.0
 11
115.4256797153
 21
128.9132566585
 31
0.0
  0
LINE
  5
3F8
330
3F2
100
AcDbEntity
  8
DV2_ﾃﾞﾌｫﾙﾄ
  6
Continuous
 62
     7
 48
25.4
100
AcDbLine
 10
111.4025986488
 20
127.8352753356
 30
0.0
 11
111.920236739
 21
125.903423683
 31
0.0
  0
LINE
  5
3F9
330
3F2
100
AcDbEntity
  8
DV2_ﾃﾞﾌｫﾙﾄ
  6
Continuous
 62
     7
 48
25.4
100
AcDbLine
 10
118.8354023506
 20
118.1800320554
 30
0.0
 11
119.2236309183
 21
118.2840575866
 31
0.0
  0
LINE
  5
3FA
330
3F2
100
AcDbEntity
  8
DV2_ﾃﾞﾌｫﾙﾄ
  6
Continuous
 62
     7
 48
25.4
100
AcDbLine
 10
119.4670333126
 20
118.5360636183
 30
0.0
 11
119.4787860998
 21
118.5392127681
 31
0.0
  0
LINE
  5
3FB
330
3F2
100
AcDbEntity
  8
DV2_ﾃﾞﾌｫﾙﾄ
  6
Continuous
 62
     7
 48
25.4
100
AcDbLine
 10
118.1103781103
 20
118.1725489525
 30
0.0
 11
117.6358120025
 21
118.0453893471
 31
0.0
  0
LINE
  5
3FC
330
3F2
100
AcDbEntity
  8
DV2_ﾃﾞﾌｫﾙﾄ
  6
Continuous
 62
     7
 48
25.4
100
AcDbLine
 10
111.6250196578
 20
125.3920926992
 30
0.0
 11
112.4228293643
 21
122.4146263397
 31
0.0
  0
LINE
  5
3FD
330
3F2
100
AcDbEntity
  8
DV2_ﾃﾞﾌｫﾙﾄ
  6
Continuous
 62
     7
 48
25.4
100
AcDbLine
 10
114.922501598
 20
117.3183600154
 30
0.0
 11
113.527685367
 21
122.5238850567
 31
0.0
  0
LINE
  5
3FE
330
3F2
100
AcDbEntity
  8
DV2_ﾃﾞﾌｫﾙﾄ
  6
Continuous
 62
     7
 48
25.4
100
AcDbLine
 10
114.8376439301
 20
123.0616739525
 30
0.0
 11
112.3280950189
 21
122.3892423483
 31
0.0
  0
LINE
  5
3FF
330
3F2
100
AcDbEntity
  8
DV2_ﾃﾞﾌｫﾙﾄ
  6
Continuous
 62
     7
 48
25.4
100
AcDbLine
 10
117.3471928413
 20
123.7341055566
 30
0.0
 11
117.7354214089
 21
123.8381310878
 31
0.0
  0
LINE
  5
400
330
3F2
100
AcDbEntity
  8
DV2_ﾃﾞﾌｫﾙﾄ
  6
Continuous
 62
     7
 48
25.4
100
AcDbLine
 10
117.3471928413
 20
123.7341055566
 30
0.0
 11
114.8376439301
 21
123.0616739525
 31
0.0
  0
LINE
  5
401
330
3F2
100
AcDbEntity
  8
DV2_ﾃﾞﾌｫﾙﾄ
  6
Continuous
 62
     7
 48
25.4
100
AcDbLine
 10
118.0722170816
 20
123.7415886596
 30
0.0
 11
119.4670333126
 21
118.5360636183
 31
0.0
  0
LINE
  5
402
330
3F2
100
AcDbEntity
  8
DV2_ﾃﾞﾌｫﾙﾄ
  6
Continuous
 62
     7
 48
25.4
100
AcDbLine
 10
116.2409957715
 20
123.2509143884
 30
0.0
 11
117.6358120025
 21
118.0453893471
 31
0.0
  0
ARC
  5
403
330
3F2
100
AcDbEntity
  8
DV2_ﾃﾞﾌｫﾙﾄ
  6
Continuous
 62
     7
 48
25.4
100
AcDbCircle
 10
114.8203244989
 20
123.0391105244
 30
0.0
 40
5.732732426951718
100
AcDbArc
 50
285.2255677025
 51
299.4145432705
  0
LINE
  5
404
330
3F2
100
AcDbEntity
  8
DV2_ﾃﾞﾌｫﾙﾄ
  6
Continuous
 62
     7
 48
25.4
100
AcDbLine
 10
111.6847112697
 20
122.0300616356
 30
0.0
 11
113.0795275007
 21
116.8245365943
 31
0.0
  0
LINE
  5
405
330
3F2
100
AcDbEntity
  8
DV2_ﾃﾞﾌｫﾙﾄ
  6
Continuous
 62
     7
 48
25.4
100
AcDbLine
 10
113.0795275007
 20
116.8245365943
 30
0.0
 11
113.4280759605
 21
116.731143316
 31
0.0
  0
LINE
  5
406
330
3F2
100
AcDbEntity
  8
DV2_ﾃﾞﾌｫﾙﾄ
  6
Continuous
 62
     7
 48
25.4
100
AcDbLine
 10
119.4787860998
 20
118.5392127681
 30
0.0
 11
118.0839698688
 21
123.7447378094
 31
0.0
  0
LINE
  5
407
330
3F2
100
AcDbEntity
  8
DV2_ﾃﾞﾌｫﾙﾄ
  6
Continuous
 62
     7
 48
25.4
100
AcDbLine
 10
111.9398664512
 20
122.2852168172
 30
0.0
 11
111.6847112697
 21
122.0300616356
 31
0.0
  0
LINE
  5
408
330
3F2
100
AcDbEntity
  8
DV2_ﾃﾞﾌｫﾙﾄ
  6
Continuous
 62
     7
 48
25.4
100
AcDbLine
 10
116.4546487893
 20
126.6861879248
 30
0.0
 11
115.9433178055
 21
126.9814050059
 31
0.0
  0
LINE
  5
409
330
3F2
100
AcDbEntity
  8
DV2_ﾃﾞﾌｫﾙﾄ
  6
Continuous
 62
     7
 48
25.4
100
AcDbLine
 10
111.920236739
 20
125.903423683
 30
0.0
 11
111.6250196578
 21
125.3920926992
 31
0.0
  0
ARC
  5
40A
330
3F2
100
AcDbEntity
  8
DV2_ﾃﾞﾌｫﾙﾄ
  6
Continuous
 62
     7
 48
25.4
100
AcDbCircle
 10
112.7057892524
 20
120.9220165369
 30
0.0
 40
1.515059244984744
100
AcDbArc
 50
76.7469759335
 51
104.4357017506
  0
ARC
  5
40B
330
3F2
100
AcDbEntity
  8
DV2_ﾃﾞﾌｫﾙﾄ
  6
Continuous
 62
     7
 48
25.4
100
AcDbCircle
 10
116.299572658
 20
117.5184812376
 30
0.0
 40
5.732732426951498
100
AcDbArc
 50
90.5854567295
 51
104.7744322975
  0
LINE
  5
40C
330
3F2
100
AcDbEntity
  8
DV2_ﾃﾞﾌｫﾙﾄ
  6
Continuous
 62
     7
 48
25.4
100
AcDbLine
 10
118.0839698688
 20
123.7447378094
 30
0.0
 11
117.7354214089
 21
123.8381310878
 31
0.0
  0
LINE
  5
40D
330
3F2
100
AcDbEntity
  8
DV2_ﾃﾞﾌｫﾙﾄ
  6
Continuous
 62
     7
 48
25.4
100
AcDbLine
 10
113.8163045282
 20
116.8351688472
 30
0.0
 11
113.4280759605
 21
116.731143316
 31
0.0
  0
LINE
  5
40E
330
3F2
100
AcDbEntity
  8
DV2_ﾃﾞﾌｫﾙﾄ
  6
Continuous
 62
     7
 48
25.4
100
AcDbLine
 10
113.0912802879
 20
116.8276857442
 30
0.0
 11
113.0795275007
 21
116.8245365943
 31
0.0
  0
LINE
  5
40F
330
3F2
100
AcDbEntity
  8
DV2_ﾃﾞﾌｫﾙﾄ
  6
Continuous
 62
     7
 48
25.4
100
AcDbLine
 10
116.3258534394
 20
117.5076004513
 30
0.0
 11
113.8163045282
 21
116.8351688472
 31
0.0
  0
LINE
  5
410
330
3F2
100
AcDbEntity
  8
DV2_ﾃﾞﾌｫﾙﾄ
  6
Continuous
 62
     7
 48
25.4
100
AcDbLine
 10
114.922501598
 20
117.3183600154
 30
0.0
 11
114.4479354901
 21
117.19120041
 31
0.0
  0
LINE
  5
411
330
3F2
100
AcDbEntity
  8
DV2_ﾃﾞﾌｫﾙﾄ
  6
Continuous
 62
     7
 48
25.4
100
AcDbLine
 10
118.8354023506
 20
118.1800320554
 30
0.0
 11
116.3258534394
 21
117.5076004513
 31
0.0
  0
LINE
  5
412
330
3F2
100
AcDbEntity
  8
DV2_ﾃﾞﾌｫﾙﾄ
  6
Continuous
 62
     7
 48
25.4
100
AcDbLine
 10
111.920236739
 20
125.903423683
 30
0.0
 11
115.9433178055
 21
126.9814050059
 31
0.0
  0
LINE
  5
413
330
3F2
100
AcDbEntity
  8
DV2_ﾃﾞﾌｫﾙﾄ
  6
Continuous
 62
     7
 48
25.4
100
AcDbLine
 10
111.6250196578
 20
125.3920926992
 30
0.0
 11
116.4546487893
 21
126.6861879248
 31
0.0
  0
ARC
  5
414
330
3F2
100
AcDbEntity
  8
DV2_ﾃﾞﾌｫﾙﾄ
  6
Continuous
 62
     7
 48
25.4
100
AcDbCircle
 10
117.7248870749
 20
122.2668797452
 30
0.0
 40
1.515059244985238
100
AcDbArc
 50
76.7469759335
 51
104.4357017506
  0
ARC
  5
415
330
3F2
100
AcDbEntity
  8
DV2_ﾃﾞﾌｫﾙﾄ
  6
Continuous
 62
     7
 48
25.4
100
AcDbCircle
 10
113.4386102946
 20
118.3023946586
 30
0.0
 40
1.515059244984832
100
AcDbArc
 50
256.7469759335
 51
284.4357017506
  0
SPLINE
  5
416
330
3F2
100
AcDbEntity
  8
DV2_ﾃﾞﾌｫﾙﾄ
  6
Continuous
 62
     7
 48
25.4
100
AcDbSpline
210
0.0
220
0.0
230
1.0
 70
     8
 71
     3
 72
    10
 73
     6
 74
     0
 42
0.0000000001
 43
0.0000000001
 40
0.0
 40
0.0
 40
0.0
 40
0.0
 40
0.331050674891237
 40
0.6643343268119648
 40
1.0
 40
1.0
 40
1.0
 40
1.0
 10
116.7155618793491
 20
123.3780739937229
 30
0.0
 10
116.7862445184674
 20
123.4381251183855
 30
0.0
 10
116.9037003461867
 20
123.5321532468494
 30
0.0
 10
117.128920812036
 20
123.6628193304886
 30
0.0
 10
117.2633818825182
 20
123.709507693981
 30
0.0
 10
117.3471928412848
 20
123.7341055565898
 30
0.0
  0
SPLINE
  5
417
330
3F2
100
AcDbEntity
  8
DV2_ﾃﾞﾌｫﾙﾄ
  6
Continuous
 62
     7
 48
25.4
100
AcDbSpline
210
0.0
220
0.0
230
1.0
 70
     8
 71
     3
 72
    10
 73
     6
 74
     0
 42
0.0000000001
 43
0.0000000001
 40
0.0
 40
0.0
 40
0.0
 40
0.0
 40
0.3310506748912376
 40
0.6643343268119656
 40
1.0
 40
1.0
 40
1.0
 40
1.0
 10
119.4670333125602
 20
118.5360636182945
 30
0.0
 10
119.3963506734418
 20
118.4760124936319
 30
0.0
 10
119.2788948457225
 20
118.381984365168
 30
0.0
 10
119.0536743798732
 20
118.2513182815288
 30
0.0
 10
118.919213309391
 20
118.2046299180364
 30
0.0
 10
118.8354023506244
 20
118.1800320554276
 30
0.0
  0
ARC
  5
418
330
3F2
100
AcDbEntity
  8
DV2_ﾃﾞﾌｫﾙﾄ
  6
Continuous
 62
     7
 48
25.4
100
AcDbCircle
 10
114.7976649422
 20
123.5421562773
 30
0.0
 40
6.225048120265308
100
AcDbArc
 50
271.1490823642
 51
284.2108066628
  0
ARC
  5
419
330
3F2
100
AcDbEntity
  8
DV2_ﾃﾞﾌｫﾙﾄ
  6
Continuous
 62
     7
 48
25.4
100
AcDbCircle
 10
116.5314717827
 20
117.071501058
 30
0.0
 40
6.225048120265103
100
AcDbArc
 50
105.7891933372
 51
118.8509176358
  0
LINE
  5
41A
330
3F2
100
AcDbEntity
  8
DV2_ﾃﾞﾌｫﾙﾄ
  6
Continuous
 62
     7
 48
25.4
100
AcDbLine
 10
118.1103781103
 20
118.1725489525
 30
0.0
 11
116.7155618793
 21
123.3780739937
 31
0.0
  0
ARC
  5
41B
330
3F2
100
AcDbEntity
  8
DV2_ﾃﾞﾌｫﾙﾄ
  6
Continuous
 62
     7
 48
25.4
100
AcDbCircle
 10
118.4577081171
 20
119.6472578669
 30
0.0
 40
1.515059244985342
100
AcDbArc
 50
256.7469759335
 51
284.4357017506
  0
LINE
  5
41C
330
3F2
100
AcDbEntity
  8
DV2_ﾃﾞﾌｫﾙﾄ
  6
Continuous
 62
     7
 48
25.4
100
AcDbLine
 10
113.0912802879
 20
116.8276857442
 30
0.0
 11
111.6964640569
 21
122.0332107855
 31
0.0
  0
SPLINE
  5
41D
330
3F2
100
AcDbEntity
  8
DV2_ﾃﾞﾌｫﾙﾄ
  6
Continuous
 62
     7
 48
25.4
100
AcDbSpline
210
0.0
220
0.0
230
1.0
 70
     8
 71
     3
 72
    10
 73
     6
 74
     0
 42
0.0000000001
 43
0.0000000001
 40
0.0
 40
0.0
 40
0.0
 40
0.0
 40
0.3310506748912369
 40
0.664334326811964
 40
1.0
 40
1.0
 40
1.0
 40
1.0
 10
111.6964640569222
 20
122.0332107854708
 30
0.0
 10
111.7671466960406
 20
122.0932619101333
 30
0.0
 10
111.8846025237598
 20
122.1872900385973
 30
0.0
 10
112.1098229896092
 20
122.3179561222365
 30
0.0
 10
112.2442840600914
 20
122.3646444857289
 30
0.0
 10
112.328095018858
 20
122.3892423483377
 30
0.0
  0
LINE
  5
41E
330
3F2
100
AcDbEntity
  8
DV2_ﾃﾞﾌｫﾙﾄ
  6
Continuous
 62
     7
 48
25.4
100
AcDbLine
 10
113.0531192591
 20
122.3967254513
 30
0.0
 11
114.4479354901
 21
117.19120041
 31
0.0
  0
SPLINE
  5
41F
330
3F2
100
AcDbEntity
  8
DV2_ﾃﾞﾌｫﾙﾄ
  6
Continuous
 62
     7
 48
25.4
100
AcDbSpline
210
0.0
220
0.0
230
1.0
 70
     8
 71
     3
 72
    10
 73
     6
 74
     0
 42
0.0000000001
 43
0.0000000001
 40
0.0
 40
0.0
 40
0.0
 40
0.0
 40
0.3310506748912349
 40
0.6643343268119639
 40
1.0
 40
1.0
 40
1.0
 40
1.0
 10
114.4479354901334
 20
117.1912004100424
 30
0.0
 10
114.377252851015
 20
117.1311492853798
 30
0.0
 10
114.2597970232958
 20
117.0371211569158
 30
0.0
 10
114.0345765574464
 20
116.9064550732767
 30
0.0
 10
113.9001154869642
 20
116.8597667097843
 30
0.0
 10
113.8163045281976
 20
116.8351688471755
 30
0.0
  0
LINE
  5
420
330
3F2
100
AcDbEntity
  8
DV2_ﾃﾞﾌｫﾙﾄ
  6
Continuous
 62
     7
 48
25.4
100
AcDbLine
 10
112.3280950189
 20
122.3892423483
 30
0.0
 11
111.9398664512
 21
122.2852168172
 31
0.0
  0
LINE
  5
421
330
3F2
100
AcDbEntity
  8
DV2_ﾃﾞﾌｫﾙﾄ
  6
Continuous
 62
     7
 48
25.4
100
AcDbLine
 10
111.6964640569
 20
122.0332107855
 30
0.0
 11
111.6847112697
 21
122.0300616356
 31
0.0
  0
LINE
  5
422
330
3F2
100
AcDbEntity
  8
DV2_ﾃﾞﾌｫﾙﾄ
  6
Continuous
 62
     7
 48
25.4
100
AcDbLine
 10
118.0722170816
 20
123.7415886596
 30
0.0
 11
118.0839698688
 21
123.7447378094
 31
0.0
  0
LINE
  5
423
330
3F2
100
AcDbEntity
  8
DV2_ﾃﾞﾌｫﾙﾄ
  6
Continuous
 62
     7
 48
25.4
100
AcDbLine
 10
117.2524584958
 20
123.7087215652
 30
0.0
 11
116.4546487893
 21
126.6861879248
 31
0.0
  0
LINE
  5
424
330
3F2
100
AcDbEntity
  8
DV2_ﾃﾞﾌｫﾙﾄ
  6
Continuous
 62
     7
 48
25.4
100
AcDbLine
 10
116.7155618793
 20
123.3780739937
 30
0.0
 11
116.2409957715
 21
123.2509143884
 31
0.0
  0
LINE
  5
425
330
3F2
100
AcDbEntity
  8
DV2_ﾃﾞﾌｫﾙﾄ
  6
Continuous
 62
     7
 48
25.4
100
AcDbLine
 10
113.527685367
 20
122.5238850567
 30
0.0
 11
113.0531192591
 21
122.3967254513
 31
0.0
  0
LINE
  5
426
330
3F2
100
AcDbEntity
  8
DV2_ﾃﾞﾌｫﾙﾄ
  6
HIDDEN2
 62
     7
 48
25.4
100
AcDbLine
 10
113.7200702515
 20
117.1096130428
 30
0.0
 11
113.2774896843
 21
118.7613462057
 31
0.0
  0
LINE
  5
427
330
3F2
100
AcDbEntity
  8
DV2_ﾃﾞﾌｫﾙﾄ
  6
HIDDEN2
 62
     7
 48
25.4
100
AcDbLine
 10
118.7815215812
 20
118.4658248391
 30
0.0
 11
118.3389410141
 21
120.117558002
 31
0.0
  0
LINE
  5
428
330
3F2
100
AcDbEntity
  8
DV2_ﾃﾞﾌｫﾙﾄ
  6
Continuous
 62
     7
 48
25.4
100
AcDbLine
 10
115.6197939991
 20
128.1888122888
 30
0.0
 11
111.5967129326
 21
127.1108309659
 31
0.0
  0
LINE
  5
429
330
3F2
100
AcDbEntity
  8
DV2_ﾃﾞﾌｫﾙﾄ
  6
Continuous
 62
     7
 48
25.4
100
AcDbLine
 10
111.4025986488
 20
127.8352753356
 30
0.0
 11
115.4256797153
 21
128.9132566585
 31
0.0
  0
ENDBLK
  5
42B
330
3F2
100
AcDbEntity
  8
0
100
AcDbBlockEnd
  0
BLOCK
  5
466
330
42C
100
AcDbEntity
  8
0
100
AcDbBlockBegin
  2
SE4
 70
     0
 71
     0
 10
0.0
 20
0.0
 30
0.0
  3
SE4
  1

  0
LINE
  5
42F
330
42C
100
AcDbEntity
  8
DV3_Standard
  6
CENTER2
 62
     7
 48
25.4
100
AcDbLine
 10
104.4362892844
 20
76.7724474221
 30
0.0
 11
104.5374587832
 21
76.7726521283
 31
0.0
  0
ARC
  5
431
330
42C
100
AcDbEntity
  8
DV3_Layer4
  6
Continuous
 62
     7
 48
25.4
100
AcDbCircle
 10
98.0612892844
 20
98.4822320129
 30
0.0
 40
0.1250000000000001
100
AcDbArc
 50
90.0
 51
180.0
  0
LINE
  5
433
330
42C
100
AcDbEntity
  8
DV3_Layer5
  6
Continuous
 62
     7
 48
25.4
100
AcDbLine
 10
98.4987892844
 20
98.6072320129
 30
0.0
 11
98.0612892844
 21
98.6072320129
 31
0.0
  0
ARC
  5
434
330
42C
100
AcDbEntity
  8
DV3_Layer4
  6
Continuous
 62
     7
 48
25.4
100
AcDbCircle
 10
98.0612892844
 20
77.728217345
 30
0.0
 40
0.1249999999999949
100
AcDbArc
 50
180.0
 51
255.1504721945
  0
ARC
  5
435
330
42C
100
AcDbEntity
  8
DV3_Layer4
  6
Continuous
 62
     7
 48
25.4
100
AcDbCircle
 10
110.8112892844
 20
77.728217345
 30
0.0
 40
0.1250000000000001
100
AcDbArc
 50
284.8495278055
 51
360.0
  0
LINE
  5
436
330
42C
100
AcDbEntity
  8
DV3_Layer5
  6
Continuous
 62
     7
 48
25.4
100
AcDbLine
 10
110.8112892844
 20
98.6072320129
 30
0.0
 11
110.3737892844
 21
98.6072320129
 31
0.0
  0
LINE
  5
437
330
42C
100
AcDbEntity
  8
DV3_Layer4
  6
Continuous
 62
     7
 48
25.4
100
AcDbLine
 10
110.9362892844
 20
88.5071500134
 30
0.0
 11
110.9362892844
 21
98.4822320129
 31
0.0
  0
ARC
  5
438
330
42C
100
AcDbEntity
  8
DV3_Layer4
  6
Continuous
 62
     7
 48
25.4
100
AcDbCircle
 10
110.8112892844
 20
98.4822320129
 30
0.0
 40
0.1250000000000001
100
AcDbArc
 50
0.0
 51
90.0
  0
LINE
  5
439
330
42C
100
AcDbEntity
  8
DV3_Layer4
  6
Continuous
 62
     7
 48
25.4
100
AcDbLine
 10
97.9362892844
 20
98.4822320129
 30
0.0
 11
97.9362892844
 21
85.6321500134
 31
0.0
  0
LINE
  5
43A
330
42C
100
AcDbEntity
  8
DV3_Layer4
  6
Continuous
 62
     7
 48
25.4
100
AcDbLine
 10
97.9362892844
 20
85.6321500134
 30
0.0
 11
97.9362892844
 21
77.728217345
 31
0.0
  0
ARC
  5
43B
330
42C
100
AcDbEntity
  8
DV3_Layer4
  6
Continuous
 62
     7
 48
25.4
100
AcDbCircle
 10
104.4362892844
 20
101.7724474221
 30
0.0
 40
24.99999999999999
100
AcDbArc
 50
255.1504721945
 51
284.8495278055
  0
LINE
  5
43C
330
42C
100
AcDbEntity
  8
DV3_Layer4
  6
Continuous
 62
     7
 48
25.4
100
AcDbLine
 10
110.9362892844
 20
77.728217345
 30
0.0
 11
110.9362892844
 21
82.7571500134
 31
0.0
  0
ARC
  5
43D
330
42C
100
AcDbEntity
  8
DV3_Layer5
  6
Continuous
 62
     7
 48
25.4
100
AcDbCircle
 10
104.324171838
 20
102.8447048902
 30
0.0
 40
6.25
100
AcDbArc
 50
14.7231957461
 51
18.4971262286
  0
LINE
  5
43E
330
42C
100
AcDbEntity
  8
DV3_Layer5
  6
Continuous
 62
     7
 48
25.4
100
AcDbLine
 10
98.0596879432
 20
98.6072320129
 30
0.0
 11
97.9357693642
 21
98.7311505919
 31
0.0
  0
LINE
  5
43F
330
42C
100
AcDbEntity
  8
DV3_Layer5
  6
Continuous
 62
     7
 48
25.4
100
AcDbLine
 10
110.7599321187
 20
104.433139356
 30
0.0
 11
104.4362892844
 21
104.433139356
 31
0.0
  0
LINE
  5
441
330
42C
100
AcDbEntity
  8
DV3_Layer6
  6
Continuous
 62
     7
 48
25.4
100
AcDbLine
 10
98.0023154204
 20
104.8275617099
 30
0.0
 11
104.4362892844
 21
104.8275617099
 31
0.0
  0
ARC
  5
442
330
42C
100
AcDbEntity
  8
DV3_Layer6
  6
Continuous
 62
     7
 48
25.4
100
AcDbCircle
 10
104.5023154204
 20
88.4274221449
 30
0.0
 40
25.0
100
AcDbArc
 50
75.6800770734
 51
104.3199229266
  0
LINE
  5
443
330
42C
100
AcDbEntity
  8
DV3_Layer5
  6
Continuous
 62
     7
 48
25.4
100
AcDbLine
 10
110.8128906257
 20
98.6072320129
 30
0.0
 11
110.9335971262
 21
98.7322272533
 31
0.0
  0
LINE
  5
444
330
42C
100
AcDbEntity
  8
DV3_Layer5
  6
Continuous
 62
     7
 48
25.4
100
AcDbLine
 10
104.4362892844
 20
104.433139356
 30
0.0
 11
98.1094437676
 21
104.433139356
 31
0.0
  0
ARC
  5
445
330
42C
100
AcDbEntity
  8
DV3_Layer6
  6
Continuous
 62
     7
 48
25.4
100
AcDbCircle
 10
110.6238800487
 20
112.4084343525
 30
0.0
 40
0.2499999999999895
100
AcDbArc
 50
1.0000004286
 51
75.6800770734
  0
LINE
  5
446
330
42C
100
AcDbEntity
  8
DV3_Layer6
  6
Continuous
 62
     7
 48
25.4
100
AcDbLine
 10
98.1354853412
 20
112.4568580926
 30
0.0
 11
98.0023154204
 21
104.8275617099
 31
0.0
  0
ARC
  5
447
330
42C
100
AcDbEntity
  8
DV3_Layer5
  6
Continuous
 62
     7
 48
25.4
100
AcDbCircle
 10
104.5452040483
 20
102.8447048902
 30
0.0
 40
6.250000000000003
100
AcDbArc
 50
161.5028737714
 51
165.2768042539
  0
LINE
  5
448
330
42C
100
AcDbEntity
  8
DV3_Layer4
  6
Continuous
 62
     7
 48
25.4
100
AcDbLine
 10
98.0596879432
 20
98.6072320129
 30
0.0
 11
110.8128906257
 21
98.6072320129
 31
0.0
  0
LINE
  5
449
330
42C
100
AcDbEntity
  8
DV3_Layer5
  6
Continuous
 62
     7
 48
25.4
100
AcDbLine
 10
97.9357693642
 20
98.7311505919
 30
0.0
 11
110.9325574064
 21
98.7311505919
 31
0.0
  0
ARC
  5
44A
330
42C
100
AcDbEntity
  8
DV3_Layer5
  6
Continuous
 62
     7
 48
25.4
100
AcDbCircle
 10
110.7599321187
 20
104.308139356
 30
0.0
 40
0.125
100
AcDbArc
 50
0.5
 51
90.0
  0
ARC
  5
44B
330
42C
100
AcDbEntity
  8
DV3_Layer5
  6
Continuous
 62
     7
 48
25.4
100
AcDbCircle
 10
98.1094437676
 20
104.308139356
 30
0.0
 40
0.125
100
AcDbArc
 50
90.0
 51
179.5
  0
LINE
  5
44C
330
42C
100
AcDbEntity
  8
DV3_Layer5
  6
Continuous
 62
     7
 48
25.4
100
AcDbLine
 10
97.9357693642
 20
98.7311505919
 30
0.0
 11
97.9844485272
 21
104.3092301729
 31
0.0
  0
LINE
  5
44D
330
42C
100
AcDbEntity
  8
DV3_Layer6
  6
Continuous
 62
     7
 48
25.4
100
AcDbLine
 10
111.0062428117
 20
104.8275617099
 30
0.0
 11
110.8738419725
 21
112.4127974559
 31
0.0
  0
ARC
  5
44E
330
42C
100
AcDbEntity
  8
DV3_Layer6
  6
Continuous
 62
     7
 48
25.4
100
AcDbCircle
 10
98.380750792
 20
112.4084343525
 30
0.0
 40
0.2499999999999986
100
AcDbArc
 50
104.3199229266
 51
178.9999995714
  0
LINE
  5
44F
330
42C
100
AcDbEntity
  8
DV3_Layer5
  6
Continuous
 62
     7
 48
25.4
100
AcDbLine
 10
110.9335971262
 20
98.7322272533
 30
0.0
 11
110.8849273591
 21
104.3092301729
 31
0.0
  0
CIRCLE
  5
450
330
42C
100
AcDbEntity
  8
DV3_Layer6
  6
Continuous
 62
     7
 48
25.4
100
AcDbCircle
 10
104.4362892844
 20
110.6775617099
 30
0.0
 40
1.249999999999973
  0
LINE
  5
451
330
42C
100
AcDbEntity
  8
DV3_Layer6
  6
Continuous
 62
     7
 48
25.4
100
AcDbLine
 10
111.0062428117
 20
104.8275617099
 30
0.0
 11
104.4362892844
 21
104.8275617099
 31
0.0
  0
ARC
  5
453
330
42C
100
AcDbEntity
  8
DV3_Layer9
  6
Continuous
 62
     7
 48
25.4
100
AcDbCircle
 10
104.4362892844
 20
85.6321500134
 30
0.0
 40
6.750000000032327
100
AcDbArc
 50
164.357528986
 51
195.642471014
  0
LINE
  5
455
330
42C
100
AcDbEntity
  8
DV3_Layer1
  6
Continuous
 62
     7
 48
25.4
100
AcDbLine
 10
104.4362892844
 20
88.5071500134
 30
0.0
 11
160.0942725507
 21
88.5071500134
 31
0.0
  0
LINE
  5
456
330
42C
100
AcDbEntity
  8
DV3_Layer1
  6
Continuous
 62
     7
 48
25.4
100
AcDbLine
 10
104.4362892844
 20
82.7571500134
 30
0.0
 11
160.0942725507
 21
82.7571500134
 31
0.0
  0
ARC
  5
457
330
42C
100
AcDbEntity
  8
DV3_Layer4
  6
Continuous
 62
     7
 48
25.4
100
AcDbCircle
 10
104.4362892844
 20
85.6321500134
 30
0.0
 40
3.375000000000017
100
AcDbArc
 50
58.4136619035
 51
301.5863380965
  0
ARC
  5
458
330
42C
100
AcDbEntity
  8
DV3_Layer1
  6
Continuous
 62
     7
 48
25.4
100
AcDbCircle
 10
104.4362892844
 20
85.6321500134
 30
0.0
 40
2.875000000000003
100
AcDbArc
 50
90.0
 51
270.0
  0
ELLIPSE
  5
459
330
42C
100
AcDbEntity
  8
DV3_Layer1
  6
Continuous
 62
     7
 48
25.4
100
AcDbEllipse
 10
159.5559014946
 20
85.6321500134
 30
0.0
 11
0.0
 21
-2.875000000000016
 31
0.0
210
0.0
220
0.0
230
1.0
 40
0.9846715871
 41
0.0
 42
3.141592653589793
  0
ELLIPSE
  5
45A
330
42C
100
AcDbEntity
  8
DV3_Layer1
  6
Continuous
 62
     7
 48
25.4
100
AcDbEllipse
 10
160.0942725507
 20
85.6321500134
 30
0.0
 11
0.0
 21
-2.875000000000016
 31
0.0
210
0.0
220
0.0
230
1.0
 40
0.9846715871
 41
0.0
 42
3.141592653589793
  0
LINE
  5
45B
330
42C
100
AcDbEntity
  8
DV3_Layer1
  6
HIDDEN2
 62
     7
 48
25.4
100
AcDbLine
 10
139.9084561579
 20
109.4317791544
 30
0.0
 11
151.2000167164
 21
115.9509646824
 31
0.0
  0
LINE
  5
45C
330
42C
100
AcDbEntity
  8
DV3_Layer1
  6
HIDDEN2
 62
     7
 48
25.4
100
AcDbLine
 10
142.7834561579
 20
104.4521330826
 30
0.0
 11
154.0750167164
 21
110.9713186107
 31
0.0
  0
ELLIPSE
  5
45D
330
42C
100
AcDbEntity
  8
DV3_Layer1
  6
HIDDEN2
 62
     7
 48
25.4
100
AcDbEllipse
 10
152.1712737052
 20
113.1919561185
 30
0.0
 11
1.437500000000008
 21
-2.489823035880276
 31
0.0
210
0.0
220
0.0
230
0.9999999999999998
 40
0.9846715871
 41
6.283185307179584
 42
9.424777960769387
  0
ELLIPSE
  5
45E
330
42C
100
AcDbEntity
  8
DV3_Layer1
  6
HIDDEN2
 62
     7
 48
25.4
100
AcDbEllipse
 10
152.6375167164
 20
113.4611416466
 30
0.0
 11
1.437500000000008
 21
-2.489823035880276
 31
0.0
210
0.0
220
0.0
230
0.9999999999999998
 40
0.9846715871
 41
6.283185307179584
 42
9.424777960769387
  0
LINE
  5
460
330
42C
100
AcDbEntity
  8
DV3_Default
  6
CENTER2
 62
     7
 48
25.4
100
AcDbLine
 10
157.5839324788
 20
116.3169561185
 30
0.0
 11
146.7586149315
 21
110.0669561185
 31
0.0
  0
LINE
  5
461
330
42C
100
AcDbEntity
  8
DV3_Layer1
  6
HIDDEN2
 62
     7
 48
25.4
100
AcDbLine
 10
142.7834561579
 20
66.8121669442
 30
0.0
 11
154.0750167164
 21
60.2929814162
 31
0.0
  0
LINE
  5
462
330
42C
100
AcDbEntity
  8
DV3_Layer1
  6
HIDDEN2
 62
     7
 48
25.4
100
AcDbLine
 10
139.9084561579
 20
61.8325208725
 30
0.0
 11
151.2000167164
 21
55.3133353444
 31
0.0
  0
ELLIPSE
  5
463
330
42C
100
AcDbEntity
  8
DV3_Layer1
  6
HIDDEN2
 62
     7
 48
25.4
100
AcDbEllipse
 10
152.1712737052
 20
58.0723439083
 30
0.0
 11
-1.437500000000008
 21
-2.489823035880275
 31
0.0
210
0.0
220
0.0
230
1.0
 40
0.9846715871
 41
6.283185307179579
 42
9.424777960769369
  0
ELLIPSE
  5
464
330
42C
100
AcDbEntity
  8
DV3_Layer1
  6
HIDDEN2
 62
     7
 48
25.4
100
AcDbEllipse
 10
152.6375167164
 20
57.8031583803
 30
0.0
 11
-1.437500000000008
 21
-2.489823035880275
 31
0.0
210
0.0
220
0.0
230
1.0
 40
0.9846715871
 41
6.283185307179569
 42
9.424777960769381
  0
LINE
  5
465
330
42C
100
AcDbEntity
  8
DV3_Default
  6
CENTER2
 62
     7
 48
25.4
100
AcDbLine
 10
157.5839324788
 20
54.9473439083
 30
0.0
 11
146.7586149315
 21
61.1973439083
 31
0.0
  0
ENDBLK
  5
467
330
42C
100
AcDbEntity
  8
0
100
AcDbBlockEnd
  0
BLOCK
  5
478
330
468
100
AcDbEntity
  8
0
100
AcDbBlockBegin
  2
GDimGGroup10
 70
     0
 71
     0
 10
0.0
 20
0.0
 30
0.0
  3
GDimGGroup10
  1

  0
HATCH
  5
46A
330
468
100
AcDbEntity
  8
Default
  6
Continuous
 62
   136
 48
25.4
100
AcDbHatch
 10
0.0
 20
0.0
 30
0.0
210
0.0
220
0.0
230
1.0
  2
SOLID
 70
     1
 71
     0
 91
        1
 92
        1
 93
        3
 72
     1
 10
171.8677306704736
 20
53.57757503733313
 11
169.9612276365432
 21
47.8013092171992
 72
     1
 10
169.9612276365432
 20
47.8013092171992
 11
173.638059961656
 21
52.64701914415927
 72
     1
 10
173.638059961656
 20
52.64701914415927
 11
171.8677306704736
 21
53.57757503733313
 97
        0
 75
     0
 76
     1
 98
        0
  0
LWPOLYLINE
  5
46B
330
468
100
AcDbEntity
  8
Default
  6
Continuous
 62
   136
 48
25.4
370
    30
100
AcDbPolyline
 90
        4
 70
     1
 43
0.00035
 10
171.8677306705
 20
53.5775750373
 10
169.9612276365
 20
47.8013092172
 10
173.6380599617
 20
52.6470191442
 10
171.8677306705
 20
53.5775750373
  0
HATCH
  5
46C
330
468
100
AcDbEntity
  8
Default
  6
Continuous
 62
   136
 48
25.4
100
AcDbHatch
 10
0.0
 20
0.0
 30
0.0
210
0.0
220
0.0
230
1.0
  2
SOLID
 70
     1
 71
     0
 91
        1
 92
        1
 93
        3
 72
     1
 10
173.6380599599859
 20
118.6172808814363
 11
169.9612276365432
 21
123.4629908096637
 72
     1
 10
169.9612276365432
 20
123.4629908096637
 11
171.8677306684828
 21
117.6867249888726
 72
     1
 10
171.8677306684828
 20
117.6867249888726
 11
173.6380599599859
 21
118.6172808814363
 97
        0
 75
     0
 76
     1
 98
        0
  0
LWPOLYLINE
  5
46D
330
468
100
AcDbEntity
  8
Default
  6
Continuous
 62
   136
 48
25.4
370
    30
100
AcDbPolyline
 90
        4
 70
     1
 43
0.00035
 10
173.63805996
 20
118.6172808814
 10
169.9612276365
 20
123.4629908097
 10
171.8677306685
 20
117.6867249889
 10
173.63805996
 20
118.6172808814
  0
LINE
  5
46E
330
468
100
AcDbEntity
  8
Default
  6
Continuous
 62
     7
 48
25.4
100
AcDbLine
 10
157.5839330009
 20
54.9473436069
 30
0.0
 11
172.5593026607
 21
46.3013099027
 31
0.0
  0
LINE
  5
46F
330
468
100
AcDbEntity
  8
Default
  6
Continuous
 62
     7
 48
25.4
100
AcDbLine
 10
157.5839330009
 20
116.3169564199
 30
0.0
 11
172.5593026607
 21
124.9629901242
 31
0.0
  0
ARC
  5
470
330
468
100
AcDbEntity
  8
Default
  6
Continuous
 62
     7
 48
25.4
100
AcDbCircle
 10
104.4362892844
 20
85.6321500134
 30
0.0
 40
75.66168159246379
100
AcDbArc
 50
330.0
 51
349.2598066952
  0
ARC
  5
471
330
468
100
AcDbEntity
  8
Default
  6
Continuous
 62
     7
 48
25.4
100
AcDbCircle
 10
104.4362892844
 20
85.6321500134
 30
0.0
 40
75.66168159246614
100
AcDbArc
 50
10.7401933048
 51
30.0
  0
TEXT
  5
472
330
468
100
AcDbEntity
  8
Default
  6
Continuous
 62
     7
 48
25.4
100
AcDbText
 10
169.704492616
 20
82.6321500134
 30
0.0
 40
6.0
  1
150
  7
SEACAD_arial_ttf
 11
169.704492616
 21
88.6321500134
 31
0.0
100
AcDbText
 73
     3
  0
TEXT
  5
473
330
468
100
AcDbEntity
  8
Default
  6
Continuous
 62
     7
 48
25.4
100
AcDbText
 10
183.7914491378
 20
82.6321500134
 30
0.0
 40
6.0
  1
°
  7
SEACAD_arial_ttf
 11
183.7914491378
 21
88.6321500134
 31
0.0
100
AcDbText
 73
     3
  0
TEXT
  5
474
330
468
100
AcDbEntity
  8
Default
  6
Continuous
 62
     7
 48
25.4
100
AcDbText
 10
186.8936230508
 20
91.6321500134
 30
0.0
 40
6.0
  1
0
  7
SEACAD_arial_ttf
 11
186.8936230508
 21
97.6321500134
 31
0.0
100
AcDbText
 73
     3
  0
TEXT
  5
475
330
468
100
AcDbEntity
  8
Default
  6
Continuous
 62
     7
 48
25.4
100
AcDbText
 10
191.5892752247
 20
91.6321500134
 30
0.0
 40
6.0
  1
°
  7
SEACAD_arial_ttf
 11
191.5892752247
 21
97.6321500134
 31
0.0
100
AcDbText
 73
     3
  0
TEXT
  5
476
330
468
100
AcDbEntity
  8
Default
  6
Continuous
 62
     7
 48
25.4
100
AcDbText
 10
169.704492616
 20
73.6321500134
 30
0.0
 40
6.0
  1
360
  7
SEACAD_arial_ttf
 11
169.704492616
 21
79.6321500134
 31
0.0
100
AcDbText
 73
     3
  0
TEXT
  5
477
330
468
100
AcDbEntity
  8
Default
  6
Continuous
 62
     7
 48
25.4
100
AcDbText
 10
183.7914491378
 20
73.6321500134
 30
0.0
 40
6.0
  1
°
  7
SEACAD_arial_ttf
 11
183.7914491378
 21
79.6321500134
 31
0.0
100
AcDbText
 73
     3
  0
ENDBLK
  5
479
330
468
100
AcDbEntity
  8
0
100
AcDbBlockEnd
  0
BLOCK
  5
4B2
330
47A
100
AcDbEntity
  8
0
100
AcDbBlockBegin
  2
SE5
 70
     0
 71
     0
 10
0.0
 20
0.0
 30
0.0
  3
SE5
  1

  0
LINE
  5
47D
330
47A
100
AcDbEntity
  8
DV4_ﾃﾞﾌｫﾙﾄ
  6
Continuous
 62
     7
 48
25.4
100
AcDbLine
 10
86.4445026083
 20
116.731143316
 30
0.0
 11
86.7930510682
 21
116.8245365943
 31
0.0
  0
LINE
  5
47E
330
47A
100
AcDbEntity
  8
DV4_ﾃﾞﾌｫﾙﾄ
  6
Continuous
 62
     7
 48
25.4
100
AcDbLine
 10
87.9523418299
 20
125.903423683
 30
0.0
 11
88.4570389678
 21
127.7869790443
 31
0.0
  0
LINE
  5
47F
330
47A
100
AcDbEntity
  8
DV4_ﾃﾞﾌｫﾙﾄ
  6
Continuous
 62
     7
 48
25.4
100
AcDbLine
 10
88.4570389678
 20
127.7869790443
 30
0.0
 11
88.4699799201
 21
127.8352753356
 31
0.0
  0
LINE
  5
480
330
47A
100
AcDbEntity
  8
DV4_ﾃﾞﾌｫﾙﾄ
  6
Continuous
 62
     7
 48
25.4
100
AcDbLine
 10
84.4468988536
 20
128.9132566585
 30
0.0
 11
83.9292607634
 21
126.9814050059
 31
0.0
  0
LINE
  5
481
330
47A
100
AcDbEntity
  8
DV4_ﾃﾞﾌｫﾙﾄ
  6
Continuous
 62
     7
 48
25.4
100
AcDbLine
 10
86.0562740406
 20
116.8351688472
 30
0.0
 11
86.4445026083
 21
116.731143316
 31
0.0
  0
LINE
  5
482
330
47A
100
AcDbEntity
  8
DV4_ﾃﾞﾌｫﾙﾄ
  6
Continuous
 62
     7
 48
25.4
100
AcDbLine
 10
86.7812982809
 20
116.8276857442
 30
0.0
 11
86.7930510682
 21
116.8245365943
 31
0.0
  0
LINE
  5
483
330
47A
100
AcDbEntity
  8
DV4_ﾃﾞﾌｫﾙﾄ
  6
Continuous
 62
     7
 48
25.4
100
AcDbLine
 10
85.4246430787
 20
117.19120041
 30
0.0
 11
84.9500769708
 21
117.3183600154
 31
0.0
  0
LINE
  5
484
330
47A
100
AcDbEntity
  8
DV4_ﾃﾞﾌｫﾙﾄ
  6
Continuous
 62
     7
 48
25.4
100
AcDbLine
 10
83.4179297796
 20
126.6861879248
 30
0.0
 11
82.620120073
 21
123.7087215652
 31
0.0
  0
LINE
  5
485
330
47A
100
AcDbEntity
  8
DV4_ﾃﾞﾌｫﾙﾄ
  6
Continuous
 62
     7
 48
25.4
100
AcDbLine
 10
82.2367665664
 20
118.0453893471
 30
0.0
 11
83.6315827974
 21
123.2509143884
 31
0.0
  0
LINE
  5
486
330
47A
100
AcDbEntity
  8
DV4_ﾃﾞﾌｫﾙﾄ
  6
Continuous
 62
     7
 48
25.4
100
AcDbLine
 10
85.0349346388
 20
123.0616739525
 30
0.0
 11
82.5253857275
 21
123.7341055566
 31
0.0
  0
LINE
  5
487
330
47A
100
AcDbEntity
  8
DV4_ﾃﾞﾌｫﾙﾄ
  6
Continuous
 62
     7
 48
25.4
100
AcDbLine
 10
87.54448355
 20
122.3892423483
 30
0.0
 11
87.9327121176
 21
122.2852168172
 31
0.0
  0
LINE
  5
488
330
47A
100
AcDbEntity
  8
DV4_ﾃﾞﾌｫﾙﾄ
  6
Continuous
 62
     7
 48
25.4
100
AcDbLine
 10
87.54448355
 20
122.3892423483
 30
0.0
 11
85.0349346388
 21
123.0616739525
 31
0.0
  0
LINE
  5
489
330
47A
100
AcDbEntity
  8
DV4_ﾃﾞﾌｫﾙﾄ
  6
Continuous
 62
     7
 48
25.4
100
AcDbLine
 10
88.1761145119
 20
122.0332107855
 30
0.0
 11
86.7812982809
 21
116.8276857442
 31
0.0
  0
LINE
  5
48A
330
47A
100
AcDbEntity
  8
DV4_ﾃﾞﾌｫﾙﾄ
  6
Continuous
 62
     7
 48
25.4
100
AcDbLine
 10
86.3448932018
 20
122.5238850567
 30
0.0
 11
84.9500769708
 21
117.3183600154
 31
0.0
  0
ARC
  5
48B
330
47A
100
AcDbEntity
  8
DV4_ﾃﾞﾌｫﾙﾄ
  6
Continuous
 62
     7
 48
25.4
100
AcDbCircle
 10
85.0086538573
 20
123.0507931661
 30
0.0
 40
5.732732426951718
100
AcDbArc
 50
255.2255677025
 51
269.4145432705
  0
LINE
  5
48C
330
47A
100
AcDbEntity
  8
DV4_ﾃﾞﾌｫﾙﾄ
  6
Continuous
 62
     7
 48
25.4
100
AcDbLine
 10
81.7886087
 20
123.7447378094
 30
0.0
 11
80.393792469
 21
118.5392127681
 31
0.0
  0
LINE
  5
48D
330
47A
100
AcDbEntity
  8
DV4_ﾃﾞﾌｫﾙﾄ
  6
Continuous
 62
     7
 48
25.4
100
AcDbLine
 10
80.393792469
 20
118.5392127681
 30
0.0
 11
80.6489476505
 21
118.2840575866
 31
0.0
  0
LINE
  5
48E
330
47A
100
AcDbEntity
  8
DV4_ﾃﾞﾌｫﾙﾄ
  6
Continuous
 62
     7
 48
25.4
100
AcDbLine
 10
86.7930510682
 20
116.8245365943
 30
0.0
 11
88.1878672992
 21
122.0300616356
 31
0.0
  0
LINE
  5
48F
330
47A
100
AcDbEntity
  8
DV4_ﾃﾞﾌｫﾙﾄ
  6
Continuous
 62
     7
 48
25.4
100
AcDbLine
 10
82.1371571599
 20
123.8381310878
 30
0.0
 11
81.7886087
 21
123.7447378094
 31
0.0
  0
LINE
  5
490
330
47A
100
AcDbEntity
  8
DV4_ﾃﾞﾌｫﾙﾄ
  6
Continuous
 62
     7
 48
25.4
100
AcDbLine
 10
88.247558911
 20
125.3920926992
 30
0.0
 11
87.9523418299
 21
125.903423683
 31
0.0
  0
LINE
  5
491
330
47A
100
AcDbEntity
  8
DV4_ﾃﾞﾌｫﾙﾄ
  6
Continuous
 62
     7
 48
25.4
100
AcDbLine
 10
83.9292607634
 20
126.9814050059
 30
0.0
 11
83.4179297796
 21
126.6861879248
 31
0.0
  0
ARC
  5
492
330
47A
100
AcDbEntity
  8
DV4_ﾃﾞﾌｫﾙﾄ
  6
Continuous
 62
     7
 48
25.4
100
AcDbCircle
 10
82.118865623
 20
122.274603614
 30
0.0
 40
1.515059244984744
100
AcDbArc
 50
46.7469759335
 51
74.4357017506
  0
ARC
  5
493
330
47A
100
AcDbEntity
  8
DV4_ﾃﾞﾌｫﾙﾄ
  6
Continuous
 62
     7
 48
25.4
100
AcDbCircle
 10
83.5294056982
 20
117.5301638794
 30
0.0
 40
5.732732426951498
100
AcDbArc
 50
60.5854567295
 51
74.7744322975
  0
LINE
  5
494
330
47A
100
AcDbEntity
  8
DV4_ﾃﾞﾌｫﾙﾄ
  6
Continuous
 62
     7
 48
25.4
100
AcDbLine
 10
88.1878672992
 20
122.0300616356
 30
0.0
 11
87.9327121176
 21
122.2852168172
 31
0.0
  0
LINE
  5
495
330
47A
100
AcDbEntity
  8
DV4_ﾃﾞﾌｫﾙﾄ
  6
Continuous
 62
     7
 48
25.4
100
AcDbLine
 10
81.0371762182
 20
118.1800320554
 30
0.0
 11
80.6489476505
 21
118.2840575866
 31
0.0
  0
LINE
  5
496
330
47A
100
AcDbEntity
  8
DV4_ﾃﾞﾌｫﾙﾄ
  6
Continuous
 62
     7
 48
25.4
100
AcDbLine
 10
80.4055452563
 20
118.5360636183
 30
0.0
 11
80.393792469
 21
118.5392127681
 31
0.0
  0
LINE
  5
497
330
47A
100
AcDbEntity
  8
DV4_ﾃﾞﾌｫﾙﾄ
  6
Continuous
 62
     7
 48
25.4
100
AcDbLine
 10
83.5467251294
 20
117.5076004513
 30
0.0
 11
81.0371762182
 21
118.1800320554
 31
0.0
  0
LINE
  5
498
330
47A
100
AcDbEntity
  8
DV4_ﾃﾞﾌｫﾙﾄ
  6
Continuous
 62
     7
 48
25.4
100
AcDbLine
 10
82.2367665664
 20
118.0453893471
 30
0.0
 11
81.7622004585
 21
118.1725489525
 31
0.0
  0
LINE
  5
499
330
47A
100
AcDbEntity
  8
DV4_ﾃﾞﾌｫﾙﾄ
  6
Continuous
 62
     7
 48
25.4
100
AcDbLine
 10
86.0562740406
 20
116.8351688472
 30
0.0
 11
83.5467251294
 21
117.5076004513
 31
0.0
  0
LINE
  5
49A
330
47A
100
AcDbEntity
  8
DV4_ﾃﾞﾌｫﾙﾄ
  6
Continuous
 62
     7
 48
25.4
100
AcDbLine
 10
83.9292607634
 20
126.9814050059
 30
0.0
 11
87.9523418299
 21
125.903423683
 31
0.0
  0
LINE
  5
49B
330
47A
100
AcDbEntity
  8
DV4_ﾃﾞﾌｫﾙﾄ
  6
Continuous
 62
     7
 48
25.4
100
AcDbLine
 10
83.4179297796
 20
126.6861879248
 30
0.0
 11
88.247558911
 21
125.3920926992
 31
0.0
  0
ARC
  5
49C
330
47A
100
AcDbEntity
  8
DV4_ﾃﾞﾌｫﾙﾄ
  6
Continuous
 62
     7
 48
25.4
100
AcDbCircle
 10
87.1379634454
 20
120.9297404058
 30
0.0
 40
1.515059244985238
100
AcDbArc
 50
46.7469759335
 51
74.4357017506
  0
ARC
  5
49D
330
47A
100
AcDbEntity
  8
DV4_ﾃﾞﾌｫﾙﾄ
  6
Continuous
 62
     7
 48
25.4
100
AcDbCircle
 10
81.4436963228
 20
119.639533998
 30
0.0
 40
1.515059244984832
100
AcDbArc
 50
226.7469759335
 51
254.4357017506
  0
SPLINE
  5
49E
330
47A
100
AcDbEntity
  8
DV4_ﾃﾞﾌｫﾙﾄ
  6
Continuous
 62
     7
 48
25.4
100
AcDbSpline
210
0.0
220
0.0
230
1.0
 70
     8
 71
     3
 72
    10
 73
     6
 74
     0
 42
0.0000000001
 43
0.0000000001
 40
0.0
 40
0.0
 40
0.0
 40
0.0
 40
0.331050674891237
 40
0.6643343268119648
 40
1.0
 40
1.0
 40
1.0
 40
1.0
 10
86.81945930967827
 20
122.3967254513138
 30
0.0
 10
86.91069783309258
 20
122.4133899312382
 30
0.0
 10
87.05943162795197
 20
122.4360927652987
 30
0.0
 10
87.31981131464926
 20
122.4366426802185
 30
0.0
 10
87.45960219925306
 20
122.409845453823
 30
0.0
 10
87.54448354996488
 20
122.3892423483377
 30
0.0
  0
SPLINE
  5
49F
330
47A
100
AcDbEntity
  8
DV4_ﾃﾞﾌｫﾙﾄ
  6
Continuous
 62
     7
 48
25.4
100
AcDbSpline
210
0.0
220
0.0
230
1.0
 70
     8
 71
     3
 72
    10
 73
     6
 74
     0
 42
0.0000000001
 43
0.0000000001
 40
0.0
 40
0.0
 40
0.0
 40
0.0
 40
0.3310506748912376
 40
0.6643343268119656
 40
1.0
 40
1.0
 40
1.0
 40
1.0
 10
86.78129828091204
 20
116.8276857441994
 30
0.0
 10
86.69005975749774
 20
116.811021264275
 30
0.0
 10
86.54132596263834
 20
116.7883184302145
 30
0.0
 10
86.28094627594105
 20
116.7877685152947
 30
0.0
 10
86.14115539133725
 20
116.8145657416902
 30
0.0
 10
86.05627404062543
 20
116.8351688471755
 30
0.0
  0
ARC
  5
4A0
330
47A
100
AcDbEntity
  8
DV4_ﾃﾞﾌｫﾙﾄ
  6
Continuous
 62
     7
 48
25.4
100
AcDbCircle
 10
85.240552982
 20
123.4977733458
 30
0.0
 40
6.225048120265308
100
AcDbArc
 50
241.1490823642
 51
254.2108066628
  0
ARC
  5
4A1
330
47A
100
AcDbEntity
  8
DV4_ﾃﾞﾌｫﾙﾄ
  6
Continuous
 62
     7
 48
25.4
100
AcDbCircle
 10
83.5067461415
 20
117.0271181265
 30
0.0
 40
6.225048120265103
100
AcDbArc
 50
75.7891933372
 51
88.8509176358
  0
LINE
  5
4A2
330
47A
100
AcDbEntity
  8
DV4_ﾃﾞﾌｫﾙﾄ
  6
Continuous
 62
     7
 48
25.4
100
AcDbLine
 10
85.4246430787
 20
117.19120041
 30
0.0
 11
86.8194593097
 21
122.3967254513
 31
0.0
  0
ARC
  5
4A3
330
47A
100
AcDbEntity
  8
DV4_ﾃﾞﾌｫﾙﾄ
  6
Continuous
 62
     7
 48
25.4
100
AcDbCircle
 10
86.4627941452
 20
118.2946707898
 30
0.0
 40
1.515059244985342
100
AcDbArc
 50
226.7469759335
 51
254.4357017506
  0
LINE
  5
4A4
330
47A
100
AcDbEntity
  8
DV4_ﾃﾞﾌｫﾙﾄ
  6
Continuous
 62
     7
 48
25.4
100
AcDbLine
 10
80.4055452563
 20
118.5360636183
 30
0.0
 11
81.8003614873
 21
123.7415886596
 31
0.0
  0
SPLINE
  5
4A5
330
47A
100
AcDbEntity
  8
DV4_ﾃﾞﾌｫﾙﾄ
  6
Continuous
 62
     7
 48
25.4
100
AcDbSpline
210
0.0
220
0.0
230
1.0
 70
     8
 71
     3
 72
    10
 73
     6
 74
     0
 42
0.0000000001
 43
0.0000000001
 40
0.0
 40
0.0
 40
0.0
 40
0.0
 40
0.3310506748912369
 40
0.664334326811964
 40
1.0
 40
1.0
 40
1.0
 40
1.0
 10
81.80036148725142
 20
123.7415886595658
 30
0.0
 10
81.89160001066574
 20
123.7582531394903
 30
0.0
 10
82.04033380552511
 20
123.7809559735507
 30
0.0
 10
82.30071349222243
 20
123.7815058884706
 30
0.0
 10
82.44050437682624
 20
123.7547086620751
 30
0.0
 10
82.52538572753807
 20
123.7341055565897
 30
0.0
  0
LINE
  5
4A6
330
47A
100
AcDbEntity
  8
DV4_ﾃﾞﾌｫﾙﾄ
  6
Continuous
 62
     7
 48
25.4
100
AcDbLine
 10
83.1570166895
 20
123.3780739937
 30
0.0
 11
81.7622004585
 21
118.1725489525
 31
0.0
  0
SPLINE
  5
4A7
330
47A
100
AcDbEntity
  8
DV4_ﾃﾞﾌｫﾙﾄ
  6
Continuous
 62
     7
 48
25.4
100
AcDbSpline
210
0.0
220
0.0
230
1.0
 70
     8
 71
     3
 72
    10
 73
     6
 74
     0
 42
0.0000000001
 43
0.0000000001
 40
0.0
 40
0.0
 40
0.0
 40
0.0
 40
0.3310506748912349
 40
0.6643343268119639
 40
1.0
 40
1.0
 40
1.0
 40
1.0
 10
81.76220045848524
 20
118.1725489524515
 30
0.0
 10
81.67096193507092
 20
118.155884472527
 30
0.0
 10
81.52222814021155
 20
118.1331816384666
 30
0.0
 10
81.26184845351423
 20
118.1326317235467
 30
0.0
 10
81.12205756891044
 20
118.1594289499422
 30
0.0
 10
81.0371762181986
 20
118.1800320554276
 30
0.0
  0
LINE
  5
4A8
330
47A
100
AcDbEntity
  8
DV4_ﾃﾞﾌｫﾙﾄ
  6
Continuous
 62
     7
 48
25.4
100
AcDbLine
 10
82.5253857275
 20
123.7341055566
 30
0.0
 11
82.1371571599
 21
123.8381310878
 31
0.0
  0
LINE
  5
4A9
330
47A
100
AcDbEntity
  8
DV4_ﾃﾞﾌｫﾙﾄ
  6
Continuous
 62
     7
 48
25.4
100
AcDbLine
 10
81.8003614873
 20
123.7415886596
 30
0.0
 11
81.7886087
 21
123.7447378094
 31
0.0
  0
LINE
  5
4AA
330
47A
100
AcDbEntity
  8
DV4_ﾃﾞﾌｫﾙﾄ
  6
Continuous
 62
     7
 48
25.4
100
AcDbLine
 10
88.1761145119
 20
122.0332107855
 30
0.0
 11
88.1878672992
 21
122.0300616356
 31
0.0
  0
LINE
  5
4AB
330
47A
100
AcDbEntity
  8
DV4_ﾃﾞﾌｫﾙﾄ
  6
Continuous
 62
     7
 48
25.4
100
AcDbLine
 10
87.4497492045
 20
122.4146263397
 30
0.0
 11
88.247558911
 21
125.3920926992
 31
0.0
  0
LINE
  5
4AC
330
47A
100
AcDbEntity
  8
DV4_ﾃﾞﾌｫﾙﾄ
  6
Continuous
 62
     7
 48
25.4
100
AcDbLine
 10
86.8194593097
 20
122.3967254513
 30
0.0
 11
86.3448932018
 21
122.5238850567
 31
0.0
  0
LINE
  5
4AD
330
47A
100
AcDbEntity
  8
DV4_ﾃﾞﾌｫﾙﾄ
  6
Continuous
 62
     7
 48
25.4
100
AcDbLine
 10
83.6315827974
 20
123.2509143884
 30
0.0
 11
83.1570166895
 21
123.3780739937
 31
0.0
  0
LINE
  5
4AE
330
47A
100
AcDbEntity
  8
DV4_ﾃﾞﾌｫﾙﾄ
  6
HIDDEN2
 62
     7
 48
25.4
100
AcDbLine
 10
81.0910569876
 20
118.4658248391
 30
0.0
 11
81.5336375547
 21
120.117558002
 31
0.0
  0
LINE
  5
4AF
330
47A
100
AcDbEntity
  8
DV4_ﾃﾞﾌｫﾙﾄ
  6
HIDDEN2
 62
     7
 48
25.4
100
AcDbLine
 10
86.1525083174
 20
117.1096130428
 30
0.0
 11
86.5950888845
 21
118.7613462057
 31
0.0
  0
LINE
  5
4B0
330
47A
100
AcDbEntity
  8
DV4_ﾃﾞﾌｫﾙﾄ
  6
Continuous
 62
     7
 48
25.4
100
AcDbLine
 10
88.2758656362
 20
127.1108309659
 30
0.0
 11
84.2527845697
 21
128.1888122888
 31
0.0
  0
LINE
  5
4B1
330
47A
100
AcDbEntity
  8
DV4_ﾃﾞﾌｫﾙﾄ
  6
Continuous
 62
     7
 48
25.4
100
AcDbLine
 10
84.4468988536
 20
128.9132566585
 30
0.0
 11
88.4699799201
 21
127.8352753356
 31
0.0
  0
ENDBLK
  5
4B3
330
47A
100
AcDbEntity
  8
0
100
AcDbBlockEnd
  0
BLOCK
  5
4BF
330
4B4
100
AcDbEntity
  8
0
100
AcDbBlockBegin
  2
GDimGGroup11
 70
     0
 71
     0
 10
0.0
 20
0.0
 30
0.0
  3
GDimGGroup11
  1

  0
HATCH
  5
4B6
330
4B4
100
AcDbEntity
  8
Default
  6
Continuous
 62
   136
 48
25.4
100
AcDbHatch
 10
0.0
 20
0.0
 30
0.0
210
0.0
220
0.0
230
1.0
  2
SOLID
 70
     1
 71
     0
 91
        1
 92
        1
 93
        3
 72
     1
 10
73.00207809073643
 20
111.4595646470384
 11
79.05645214620007
 21
110.8725761976101
 72
     1
 10
79.05645214620006
 20
110.8725761976101
 11
73.51971618544093
 21
113.3914163164089
 72
     1
 10
73.51971618544094
 20
113.3914163164089
 11
73.00207809073643
 21
111.4595646470384
 97
        0
 75
     0
 76
     1
 98
        0
  0
LWPOLYLINE
  5
4B7
330
4B4
100
AcDbEntity
  8
Default
  6
Continuous
 62
   136
 48
25.4
370
    30
100
AcDbPolyline
 90
        4
 70
     1
 43
0.00035
 10
73.0020780907
 20
111.459564647
 10
79.0564521462
 20
110.8725761976
 10
73.5197161854
 20
113.3914163164
 10
73.0020780907
 20
111.459564647
  0
HATCH
  5
4B8
330
4B4
100
AcDbEntity
  8
Default
  6
Continuous
 62
   136
 48
25.4
100
AcDbHatch
 10
0.0
 20
0.0
 30
0.0
210
0.0
220
0.0
230
1.0
  2
SOLID
 70
     1
 71
     0
 91
        1
 92
        1
 93
        3
 72
     1
 10
89.65463943671392
 20
106.9975242824741
 11
90.17227753141843
 21
108.9293759518446
 72
     1
 10
90.17227753141843
 20
108.9293759518446
 11
84.11790347595479
 21
109.5163644012729
 72
     1
 10
84.11790347595479
 20
109.5163644012729
 11
89.65463943671392
 21
106.9975242824741
 97
        0
 75
     0
 76
     1
 98
        0
  0
LWPOLYLINE
  5
4B9
330
4B4
100
AcDbEntity
  8
Default
  6
Continuous
 62
   136
 48
25.4
370
    30
100
AcDbPolyline
 90
        4
 70
     1
 43
0.00035
 10
89.6546394367
 20
106.9975242825
 10
84.117903476
 20
109.5163644013
 10
90.1722775314
 20
108.9293759518
 10
89.6546394367
 20
106.9975242825
  0
LINE
  5
4BA
330
4B4
100
AcDbEntity
  8
Default
  6
Continuous
 62
     7
 48
25.4
100
AcDbLine
 10
81.0910569876
 20
118.4658248391
 30
0.0
 11
78.2799950041
 21
107.9747986936
 31
0.0
  0
LINE
  5
4BB
330
4B4
100
AcDbEntity
  8
Default
  6
Continuous
 62
     7
 48
25.4
100
AcDbLine
 10
86.1525083174
 20
117.1096130428
 30
0.0
 11
83.3414463339
 21
106.6185868972
 31
0.0
  0
LINE
  5
4BC
330
4B4
100
AcDbEntity
  8
Default
  6
Continuous
 62
     7
 48
25.4
100
AcDbLine
 10
51.5249320874
 20
118.2496247638
 30
0.0
 11
79.0564521462
 21
110.8725761976
 31
0.0
  0
LINE
  5
4BD
330
4B4
100
AcDbEntity
  8
Default
  6
Continuous
 62
     7
 48
25.4
100
AcDbLine
 10
84.117903476
 20
109.5163644013
 30
0.0
 11
95.7090134922
 21
106.410535833
 31
0.0
  0
TEXT
  5
4BE
330
4B4
100
AcDbEntity
  8
Default
  6
Continuous
 62
     7
 48
25.4
100
AcDbText
 10
53.9416045831
 20
119.1549935908
 30
0.0
 40
6.0
  1
G1/2
 50
345.0
  7
SEACAD_arial_ttf
 11
55.4945188537
 21
124.9505485485
 31
0.0
100
AcDbText
 73
     3
  0
ENDBLK
  5
4C0
330
4B4
100
AcDbEntity
  8
0
100
AcDbBlockEnd
  0
BLOCK
  5
4CF
330
4C1
100
AcDbEntity
  8
0
100
AcDbBlockBegin
  2
GDimGGroup12
 70
     0
 71
     0
 10
0.0
 20
0.0
 30
0.0
  3
GDimGGroup12
  1

  0
LINE
  5
4C3
330
4C1
100
AcDbEntity
  8
Default
  6
Continuous
 62
     7
 48
25.4
100
AcDbLine
 10
88.5302689065
 20
76.691779409
 30
0.0
 11
71.1459130416
 21
88.0207986533
 31
0.0
  0
LINE
  5
4C4
330
4C1
100
AcDbEntity
  8
Default
  6
Continuous
 62
     7
 48
25.4
100
AcDbLine
 10
71.1459130728
 20
88.020798633
 30
0.0
 11
8.8224859564
 21
128.6356658543
 31
0.0
  0
HATCH
  5
4C5
330
4C1
100
AcDbEntity
  8
Default
  6
Continuous
 62
   136
 48
25.4
100
AcDbHatch
 10
0.0
 20
0.0
 30
0.0
210
0.0
220
0.0
230
1.0
  2
SOLID
 70
     1
 71
     0
 91
        1
 92
        1
 93
        3
 72
     1
 10
82.95749036914314
 20
79.12984011720479
 11
84.0494440332935
 21
80.80544068562419
 72
     1
 10
84.0494440332935
 20
80.80544068562419
 11
78.47666549596013
 21
83.24350139386553
 72
     1
 10
78.47666549596013
 20
83.24350139386552
 11
82.95749036914314
 21
79.12984011720479
 97
        0
 75
     0
 76
     1
 98
        0
  0
LWPOLYLINE
  5
4C6
330
4C1
100
AcDbEntity
  8
Default
  6
Continuous
 62
   136
 48
25.4
370
    30
100
AcDbPolyline
 90
        4
 70
     1
 43
0.00035
 10
82.9574903691
 20
79.1298401172
 10
78.476665496
 20
83.2435013939
 10
84.0494440333
 20
80.8054406856
 10
82.9574903691
 20
79.1298401172
  0
HATCH
  5
4C7
330
4C1
100
AcDbEntity
  8
Default
  6
Continuous
 62
   136
 48
25.4
100
AcDbHatch
 10
0.0
 20
0.0
 30
0.0
210
0.0
220
0.0
230
1.0
  2
SOLID
 70
     1
 71
     0
 91
        1
 92
        1
 93
        3
 72
     1
 10
65.57313453551335
 20
90.45885934123869
 11
71.14591307284671
 21
88.02079863299736
 72
     1
 10
71.14591307284671
 20
88.02079863299736
 11
66.6650881996637
 21
92.13445990965808
 72
     1
 10
66.6650881996637
 20
92.13445990965809
 11
65.57313453551335
 21
90.45885934123869
 97
        0
 75
     0
 76
     1
 98
        0
  0
LWPOLYLINE
  5
4C8
330
4C1
100
AcDbEntity
  8
Default
  6
Continuous
 62
   136
 48
25.4
370
    30
100
AcDbPolyline
 90
        4
 70
     1
 43
0.00035
 10
65.5731345355
 20
90.4588593412
 10
71.1459130728
 20
88.020798633
 10
66.6650881997
 20
92.1344599097
 10
65.5731345355
 20
90.4588593412
  0
TEXT
  5
4C9
330
4C1
100
AcDbEntity
  8
Default
  6
Continuous
 62
     7
 48
25.4
100
AcDbText
 10
11.4008351921
 20
128.7458127079
 30
0.0
 40
6.0
  1
O
 50
326.9085581029
  7
SEACAD_semeca1_ttf
 11
14.6766961561
 21
133.7726143695
 31
0.0
100
AcDbText
 73
     3
  0
TEXT
  5
4CA
330
4C1
100
AcDbEntity
  8
Default
  6
Continuous
 62
     7
 48
25.4
100
AcDbText
 10
17.1331528764
 20
125.0101817841
 30
0.0
 40
6.0
  1
35(
 50
326.9085581029
  7
SEACAD_arial_ttf
 11
20.4090138404
 21
130.0369834457
 31
0.0
100
AcDbText
 73
     3
  0
TEXT
  5
4CB
330
4C1
100
AcDbEntity
  8
Default
  6
Continuous
 62
     7
 48
25.4
100
AcDbText
 10
27.2960344965
 20
118.3872454874
 30
0.0
 40
6.0
  1
O
 50
326.9085581029
  7
SEACAD_semeca1_ttf
 11
30.5718954605
 21
123.4140471489
 31
0.0
100
AcDbText
 73
     3
  0
TEXT
  5
4CC
330
4C1
100
AcDbEntity
  8
Default
  6
Continuous
 62
     7
 48
25.4
100
AcDbText
 10
33.0283521807
 20
114.6516145635
 30
0.0
 40
6.0
  1
34-
 50
326.9085581029
  7
SEACAD_arial_ttf
 11
36.3042131447
 21
119.6784162251
 31
0.0
100
AcDbText
 73
     3
  0
TEXT
  5
4CD
330
4C1
100
AcDbEntity
  8
Default
  6
Continuous
 62
     7
 48
25.4
100
AcDbText
 10
43.1912338009
 20
108.0286782668
 30
0.0
 40
6.0
  1
O
 50
326.9085581029
  7
SEACAD_semeca1_ttf
 11
46.4670947648
 21
113.0554799284
 31
0.0
100
AcDbText
 73
     3
  0
TEXT
  5
4CE
330
4C1
100
AcDbEntity
  8
Default
  6
Continuous
 62
     7
 48
25.4
100
AcDbText
 10
48.9235514851
 20
104.293047343
 30
0.0
 40
6.0
  1
37)
 50
326.9085581029
  7
SEACAD_arial_ttf
 11
52.1994124491
 21
109.3198490045
 31
0.0
100
AcDbText
 73
     3
  0
ENDBLK
  5
4D0
330
4C1
100
AcDbEntity
  8
0
100
AcDbBlockEnd
  0
BLOCK
  5
4DC
330
4D1
100
AcDbEntity
  8
0
100
AcDbBlockBegin
  2
GDimGGroup13
 70
     0
 71
     0
 10
0.0
 20
0.0
 30
0.0
  3
GDimGGroup13
  1

  0
HATCH
  5
4D3
330
4D1
100
AcDbEntity
  8
Default
  6
Continuous
 62
   136
 48
25.4
100
AcDbHatch
 10
0.0
 20
0.0
 30
0.0
210
0.0
220
0.0
230
1.0
  2
SOLID
 70
     1
 71
     0
 91
        1
 92
        1
 93
        3
 72
     1
 10
176.4072793258229
 20
189.6321499612774
 11
175.4072793171306
 21
195.6321500134314
 72
     1
 10
175.4072793171306
 20
195.6321500134314
 11
174.4072793084382
 21
189.6321499612774
 72
     1
 10
174.4072793084382
 20
189.6321499612774
 11
176.4072793258229
 21
189.6321499612774
 97
        0
 75
     0
 76
     1
 98
        0
  0
LWPOLYLINE
  5
4D4
330
4D1
100
AcDbEntity
  8
Default
  6
Continuous
 62
   136
 48
25.4
370
    30
100
AcDbPolyline
 90
        4
 70
     1
 43
0.00035
 10
176.4072793258
 20
189.6321499613
 10
175.4072793171
 20
195.6321500134
 10
174.4072793084
 20
189.6321499613
 10
176.4072793258
 20
189.6321499613
  0
HATCH
  5
4D5
330
4D1
100
AcDbEntity
  8
Default
  6
Continuous
 62
   136
 48
25.4
100
AcDbHatch
 10
0.0
 20
0.0
 30
0.0
210
0.0
220
0.0
230
1.0
  2
SOLID
 70
     1
 71
     0
 91
        1
 92
        1
 93
        3
 72
     1
 10
176.4072793258229
 20
134.3742660492077
 11
174.4072793084382
 21
134.3742660492077
 72
     1
 10
174.4072793084382
 20
134.3742660492077
 11
175.4072793171306
 21
128.3742659970536
 72
     1
 10
175.4072793171306
 20
128.3742659970536
 11
176.4072793258229
 21
134.3742660492077
 97
        0
 75
     0
 76
     1
 98
        0
  0
LWPOLYLINE
  5
4D6
330
4D1
100
AcDbEntity
  8
Default
  6
Continuous
 62
   136
 48
25.4
370
    30
100
AcDbPolyline
 90
        4
 70
     1
 43
0.00035
 10
176.4072793258
 20
134.3742660492
 10
175.4072793171
 20
128.3742659971
 10
174.4072793084
 20
134.3742660492
 10
176.4072793258
 20
134.3742660492
  0
LINE
  5
4D7
330
4D1
100
AcDbEntity
  8
Default
  6
Continuous
 62
     7
 48
25.4
100
AcDbLine
 10
116.313774173
 20
195.6321500134
 30
0.0
 11
178.4072793432
 21
195.6321500134
 31
0.0
  0
LINE
  5
4D8
330
4D1
100
AcDbEntity
  8
Default
  6
Continuous
 62
     7
 48
25.4
100
AcDbLine
 10
113.414139182
 20
128.3742659971
 30
0.0
 11
178.4072793432
 21
128.3742659971
 31
0.0
  0
LINE
  5
4D9
330
4D1
100
AcDbEntity
  8
Default
  6
Continuous
 62
     7
 48
25.4
100
AcDbLine
 10
175.4072793171
 20
195.6321500134
 30
0.0
 11
175.4072793171
 21
167.1032100808
 31
0.0
  0
LINE
  5
4DA
330
4D1
100
AcDbEntity
  8
Default
  6
Continuous
 62
     7
 48
25.4
100
AcDbLine
 10
175.4072793171
 20
156.9032096549
 30
0.0
 11
175.4072793171
 21
128.3742659971
 31
0.0
  0
TEXT
  5
4DB
330
4D1
100
AcDbEntity
  8
Default
  6
Continuous
 62
     7
 48
25.4
100
AcDbText
 10
166.2638010563
 20
159.0032094312
 30
0.0
 40
6.0
  1
350
  7
SEACAD_arial_ttf
 11
166.2638010563
 21
165.0032094312
 31
0.0
100
AcDbText
 73
     3
  0
ENDBLK
  5
4DD
330
4D1
100
AcDbEntity
  8
0
100
AcDbBlockEnd
  0
BLOCK
  5
4E9
330
4DE
100
AcDbEntity
  8
0
100
AcDbBlockBegin
  2
GDimGGroup14
 70
     0
 71
     0
 10
0.0
 20
0.0
 30
0.0
  3
GDimGGroup14
  1

  0
HATCH
  5
4E0
330
4DE
100
AcDbEntity
  8
Default
  6
Continuous
 62
   136
 48
25.4
100
AcDbHatch
 10
0.0
 20
0.0
 30
0.0
210
0.0
220
0.0
230
1.0
  2
SOLID
 70
     1
 71
     0
 91
        1
 92
        1
 93
        3
 72
     1
 10
47.75705503846253
 20
189.6321499612774
 11
49.75705505584722
 21
189.6321499612774
 72
     1
 10
49.75705505584722
 20
189.6321499612774
 11
48.75705504715487
 21
195.6321500134314
 72
     1
 10
48.75705504715487
 20
195.6321500134314
 11
47.75705503846253
 21
189.6321499612774
 97
        0
 75
     0
 76
     1
 98
        0
  0
LWPOLYLINE
  5
4E1
330
4DE
100
AcDbEntity
  8
Default
  6
Continuous
 62
   136
 48
25.4
370
    30
100
AcDbPolyline
 90
        4
 70
     1
 43
0.00035
 10
47.7570550385
 20
189.6321499613
 10
48.7570550472
 20
195.6321500134
 10
49.7570550558
 20
189.6321499613
 10
47.7570550385
 20
189.6321499613
  0
HATCH
  5
4E2
330
4DE
100
AcDbEntity
  8
Default
  6
Continuous
 62
   136
 48
25.4
100
AcDbHatch
 10
0.0
 20
0.0
 30
0.0
210
0.0
220
0.0
230
1.0
  2
SOLID
 70
     1
 71
     0
 91
        1
 92
        1
 93
        3
 72
     1
 10
47.75705503846253
 20
134.3742660492077
 11
48.75705504715487
 21
128.3742659970536
 72
     1
 10
48.75705504715487
 20
128.3742659970536
 11
49.75705505584722
 21
134.3742660492077
 72
     1
 10
49.75705505584722
 20
134.3742660492077
 11
47.75705503846253
 21
134.3742660492077
 97
        0
 75
     0
 76
     1
 98
        0
  0
LWPOLYLINE
  5
4E3
330
4DE
100
AcDbEntity
  8
Default
  6
Continuous
 62
   136
 48
25.4
370
    30
100
AcDbPolyline
 90
        4
 70
     1
 43
0.00035
 10
47.7570550385
 20
134.3742660492
 10
48.7570550472
 20
128.3742659971
 10
49.7570550558
 20
134.3742660492
 10
47.7570550385
 20
134.3742660492
  0
LINE
  5
4E4
330
4DE
100
AcDbEntity
  8
Default
  6
Continuous
 62
     7
 48
25.4
100
AcDbLine
 10
82.5588043958
 20
195.6321500134
 30
0.0
 11
45.7570550211
 21
195.6321500134
 31
0.0
  0
LINE
  5
4E5
330
4DE
100
AcDbEntity
  8
Default
  6
Continuous
 62
     7
 48
25.4
100
AcDbLine
 10
86.4584393868
 20
128.3742659971
 30
0.0
 11
45.7570550211
 21
128.3742659971
 31
0.0
  0
LINE
  5
4E6
330
4DE
100
AcDbEntity
  8
Default
  6
Continuous
 62
     7
 48
25.4
100
AcDbLine
 10
48.7570550472
 20
195.6321500134
 30
0.0
 11
48.7570550472
 21
167.1032100808
 31
0.0
  0
LINE
  5
4E7
330
4DE
100
AcDbEntity
  8
Default
  6
Continuous
 62
     7
 48
25.4
100
AcDbLine
 10
48.7570550472
 20
156.9032096549
 30
0.0
 11
48.7570550472
 21
128.3742659971
 31
0.0
  0
TEXT
  5
4E8
330
4DE
100
AcDbEntity
  8
Default
  6
Continuous
 62
     7
 48
25.4
100
AcDbText
 10
39.6135767863
 20
159.0032094312
 30
0.0
 40
6.0
  1
350
  7
SEACAD_arial_ttf
 11
39.6135767863
 21
165.0032094312
 31
0.0
100
AcDbText
 73
     3
  0
ENDBLK
  5
4EA
330
4DE
100
AcDbEntity
  8
0
100
AcDbBlockEnd
  0
BLOCK
  5
4F5
330
4EB
100
AcDbEntity
  8
0
100
AcDbBlockBegin
  2
GDimGGroup15
 70
     0
 71
     0
 10
0.0
 20
0.0
 30
0.0
  3
GDimGGroup15
  1

  0
HATCH
  5
4ED
330
4EB
100
AcDbEntity
  8
Default
  6
Continuous
 62
   136
 48
25.4
100
AcDbHatch
 10
0.0
 20
0.0
 30
0.0
210
0.0
220
0.0
230
1.0
  2
SOLID
 70
     1
 71
     0
 91
        1
 92
        1
 93
        3
 72
     1
 10
108.3112893365576
 20
230.6205644262925
 11
102.3112892844036
 21
229.6205644176001
 72
     1
 10
102.3112892844036
 20
229.6205644176001
 11
108.3112893365576
 21
228.6205644089077
 72
     1
 10
108.3112893365576
 20
228.6205644089077
 11
108.3112893365576
 21
230.6205644262925
 97
        0
 75
     0
 76
     1
 98
        0
  0
LWPOLYLINE
  5
4EE
330
4EB
100
AcDbEntity
  8
Default
  6
Continuous
 62
   136
 48
25.4
370
    30
100
AcDbPolyline
 90
        4
 70
     1
 43
0.00035
 10
108.3112893366
 20
230.6205644263
 10
102.3112892844
 20
229.6205644176
 10
108.3112893366
 20
228.6205644089
 10
108.3112893366
 20
230.6205644263
  0
HATCH
  5
4EF
330
4EB
100
AcDbEntity
  8
Default
  6
Continuous
 62
   136
 48
25.4
100
AcDbHatch
 10
0.0
 20
0.0
 30
0.0
210
0.0
220
0.0
230
1.0
  2
SOLID
 70
     1
 71
     0
 91
        1
 92
        1
 93
        3
 72
     1
 10
90.56128923224949
 20
230.6205644262925
 11
90.56128923224949
 21
228.6205644089077
 72
     1
 10
90.56128923224949
 20
228.6205644089077
 11
96.56128928440356
 21
229.6205644176001
 72
     1
 10
96.56128928440356
 20
229.6205644176001
 11
90.56128923224949
 21
230.6205644262925
 97
        0
 75
     0
 76
     1
 98
        0
  0
LWPOLYLINE
  5
4F0
330
4EB
100
AcDbEntity
  8
Default
  6
Continuous
 62
   136
 48
25.4
370
    30
100
AcDbPolyline
 90
        4
 70
     1
 43
0.00035
 10
90.5612892322
 20
230.6205644263
 10
96.5612892844
 20
229.6205644176
 10
90.5612892322
 20
228.6205644089
 10
90.5612892322
 20
230.6205644263
  0
LINE
  5
4F1
330
4EB
100
AcDbEntity
  8
Default
  6
Continuous
 62
     7
 48
25.4
100
AcDbLine
 10
114.3112893887
 20
229.6205644176
 30
0.0
 11
102.3112892844
 21
229.6205644176
 31
0.0
  0
LINE
  5
4F2
330
4EB
100
AcDbEntity
  8
Default
  6
Continuous
 62
     7
 48
25.4
100
AcDbLine
 10
96.5612892844
 20
229.6205644176
 30
0.0
 11
68.6961867698
 21
229.6205644176
 31
0.0
  0
TEXT
  5
4F3
330
4EB
100
AcDbEntity
  8
Default
  6
Continuous
 62
     7
 48
25.4
100
AcDbText
 10
81.8382923319
 20
231.1205644176
 30
0.0
 40
6.0
  1
23
  7
SEACAD_arial_ttf
 11
81.8382923319
 21
237.1205644176
 31
0.0
100
AcDbText
 73
     3
  0
TEXT
  5
4F4
330
4EB
100
AcDbEntity
  8
Default
  6
Continuous
 62
     7
 48
25.4
100
AcDbText
 10
70.7961870687
 20
231.1205644176
 30
0.0
 40
6.0
  1
O
  7
SEACAD_semeca1_ttf
 11
70.7961870687
 21
237.1205644176
 31
0.0
100
AcDbText
 73
     3
  0
ENDBLK
  5
4F6
330
4EB
100
AcDbEntity
  8
0
100
AcDbBlockEnd
  0
ENDSEC
  0
SECTION
  2
ENTITIES
  0
LINE
  5
2B
330
1F
100
AcDbEntity
  8
Layer17
  6
Continuous
 62
     7
 48
25.4
100
AcDbLine
 10
101.9362892844
 20
177.0486757455
 30
0.0
 11
101.9362892844
 21
179.3821500134
 31
0.0
  0
LINE
  5
2D
330
1F
100
AcDbEntity
  8
Layer12
  6
Continuous
 62
     7
 48
25.4
100
AcDbLine
 10
100.1487892844
 20
183.1321500134
 30
0.0
 11
100.1487892844
 21
180.6321500134
 31
0.0
  0
LINE
  5
2E
330
1F
100
AcDbEntity
  8
Layer12
  6
Continuous
 62
     7
 48
25.4
100
AcDbLine
 10
106.1862892844
 20
180.6321500134
 30
0.0
 11
106.1862892844
 21
183.1321500134
 31
0.0
  0
LINE
  5
2F
330
1F
100
AcDbEntity
  8
Layer12
  6
Continuous
 62
     7
 48
25.4
100
AcDbLine
 10
106.1862892844
 20
181.0355250134
 30
0.0
 11
111.8972392844
 21
183.1321500134
 31
0.0
  0
LINE
  5
30
330
1F
100
AcDbEntity
  8
Layer12
  6
Continuous
 62
     7
 48
25.4
100
AcDbLine
 10
112.8112892844
 20
184.3821500134
 30
0.0
 11
112.4763392844
 21
183.1321500134
 31
0.0
  0
LINE
  5
31
330
1F
100
AcDbEntity
  8
Layer12
  6
Continuous
 62
     7
 48
25.4
100
AcDbLine
 10
101.2237892844
 20
183.1321500134
 30
0.0
 11
101.2237892844
 21
180.6321500134
 31
0.0
  0
LINE
  5
32
330
1F
100
AcDbEntity
  8
Layer12
  6
Continuous
 62
     7
 48
25.4
100
AcDbLine
 10
95.1862892844
 20
180.6321500134
 30
0.0
 11
95.1862892844
 21
183.1321500134
 31
0.0
  0
LINE
  5
33
330
1F
100
AcDbEntity
  8
Layer12
  6
Continuous
 62
     7
 48
25.4
100
AcDbLine
 10
95.1862892844
 20
180.6321500134
 30
0.0
 11
106.1862892844
 21
180.6321500134
 31
0.0
  0
LINE
  5
35
330
1F
100
AcDbEntity
  8
Layer13
  6
Continuous
 62
     7
 48
25.4
100
AcDbLine
 10
94.6865530495
 20
180.1321500134
 30
0.0
 11
94.6865530495
 21
180.6321500134
 31
0.0
  0
LINE
  5
36
330
1F
100
AcDbEntity
  8
Layer13
  6
Continuous
 62
     7
 48
25.4
100
AcDbLine
 10
106.6865530495
 20
180.6321500134
 30
0.0
 11
94.6865530495
 21
180.6321500134
 31
0.0
  0
LINE
  5
37
330
1F
100
AcDbEntity
  8
Layer13
  6
Continuous
 62
     7
 48
25.4
100
AcDbLine
 10
106.6865530495
 20
180.1321500134
 30
0.0
 11
106.6865530495
 21
180.6321500134
 31
0.0
  0
LINE
  5
38
330
1F
100
AcDbEntity
  8
Layer13
  6
Continuous
 62
     7
 48
25.4
100
AcDbLine
 10
106.6865530495
 20
180.1321500134
 30
0.0
 11
94.6865530495
 21
180.1321500134
 31
0.0
  0
LINE
  5
39
330
1F
100
AcDbEntity
  8
Layer12
  6
Continuous
 62
     7
 48
25.4
100
AcDbLine
 10
112.4763392844
 20
183.1321500134
 30
0.0
 11
88.8962392844
 21
183.1321500134
 31
0.0
  0
LINE
  5
3A
330
1F
100
AcDbEntity
  8
Layer12
  6
Continuous
 62
     7
 48
25.4
100
AcDbLine
 10
88.5612892844
 20
184.3821500134
 30
0.0
 11
88.8962392844
 21
183.1321500134
 31
0.0
  0
LINE
  5
3B
330
1F
100
AcDbEntity
  8
Layer12
  6
Continuous
 62
     7
 48
25.4
100
AcDbLine
 10
95.1862892844
 20
181.0355250134
 30
0.0
 11
89.4753392844
 21
183.1321500134
 31
0.0
  0
LINE
  5
3D
330
1F
100
AcDbEntity
  8
Layer14
  6
Continuous
 62
     7
 48
25.4
100
AcDbLine
 10
104.1862892844
 20
179.3821500134
 30
0.0
 11
104.1862892844
 21
180.1321500134
 31
0.0
  0
ARC
  5
3E
330
1F
100
AcDbEntity
  8
Layer14
  6
Continuous
 62
     7
 48
25.4
100
AcDbCircle
 10
101.1134674475
 20
179.3821500134
 30
0.0
 40
0.3750000000000405
100
AcDbArc
 50
270.0
 51
336.4218234746
  0
ARC
  5
3F
330
1F
100
AcDbEntity
  8
Layer14
  6
Continuous
 62
     7
 48
25.4
100
AcDbCircle
 10
101.6862893512
 20
179.1321500232
 30
0.0
 40
0.2499999902383662
100
AcDbArc
 50
90.0000153003
 51
156.4218153041
  0
LINE
  5
40
330
1F
100
AcDbEntity
  8
Layer14
  6
Continuous
 62
     7
 48
25.4
100
AcDbLine
 10
96.4362892844
 20
179.0071500134
 30
0.0
 11
101.1134674475
 21
179.0071500134
 31
0.0
  0
LINE
  5
41
330
1F
100
AcDbEntity
  8
Layer14
  6
Continuous
 62
     7
 48
25.4
100
AcDbLine
 10
97.009111188
 20
179.3821500134
 30
0.0
 11
104.1862892844
 21
179.3821500134
 31
0.0
  0
LINE
  5
42
330
1F
100
AcDbEntity
  8
Layer14
  6
Continuous
 62
     7
 48
25.4
100
AcDbLine
 10
95.3112892844
 20
180.1321500134
 30
0.0
 11
104.1862892844
 21
180.1321500134
 31
0.0
  0
ARC
  5
43
330
1F
100
AcDbEntity
  8
Layer14
  6
Continuous
 62
     7
 48
25.4
100
AcDbCircle
 10
97.009111188
 20
179.1321500232
 30
0.0
 40
0.2499999902383609
100
AcDbArc
 50
90.0000153003
 51
156.421815304
  0
ARC
  5
44
330
1F
100
AcDbEntity
  8
Layer14
  6
Continuous
 62
     7
 48
25.4
100
AcDbCircle
 10
96.4362892844
 20
179.3821500134
 30
0.0
 40
0.3750000000000212
100
AcDbArc
 50
270.0
 51
336.4218234746
  0
LINE
  5
45
330
1F
100
AcDbEntity
  8
Layer14
  6
Continuous
 62
     7
 48
25.4
100
AcDbLine
 10
96.1862892844
 20
179.0071500134
 30
0.0
 11
96.4362892844
 21
179.0071500134
 31
0.0
  0
ARC
  5
46
330
1F
100
AcDbEntity
  8
Layer14
  6
Continuous
 62
     7
 48
25.4
100
AcDbCircle
 10
96.1862892844
 20
179.3821500134
 30
0.0
 40
0.3750000000000462
100
AcDbArc
 50
203.5781804506
 51
270.0
  0
ARC
  5
47
330
1F
100
AcDbEntity
  8
Layer14
  6
Continuous
 62
     7
 48
25.4
100
AcDbCircle
 10
95.6134673893
 20
179.1321500036
 30
0.0
 40
0.2499999427177586
100
AcDbArc
 50
23.5781837147
 51
89.9999866623
  0
LINE
  5
48
330
1F
100
AcDbEntity
  8
Layer14
  6
Continuous
 62
     7
 48
25.4
100
AcDbLine
 10
95.3112892844
 20
179.3821500134
 30
0.0
 11
95.6134674475
 21
179.3821500134
 31
0.0
  0
LINE
  5
49
330
1F
100
AcDbEntity
  8
Layer14
  6
Continuous
 62
     7
 48
25.4
100
AcDbLine
 10
95.3112892844
 20
180.1321500134
 30
0.0
 11
95.3112892844
 21
179.3821500134
 31
0.0
  0
LINE
  5
4B
330
1F
100
AcDbEntity
  8
Layer15
  6
Continuous
 62
     7
 48
25.4
100
AcDbLine
 10
98.8112892844
 20
176.7571500134
 30
0.0
 11
100.4362892844
 21
176.7571500134
 31
0.0
  0
LINE
  5
4C
330
1F
100
AcDbEntity
  8
Layer15
  6
Continuous
 62
     7
 48
25.4
100
AcDbLine
 10
97.1862892844
 20
176.7571500134
 30
0.0
 11
98.8112892844
 21
176.7571500134
 31
0.0
  0
LINE
  5
4D
330
1F
100
AcDbEntity
  8
Layer15
  6
Continuous
 62
     7
 48
25.4
100
AcDbLine
 10
100.4362892844
 20
176.7571500134
 30
0.0
 11
100.5362892844
 21
176.8571500134
 31
0.0
  0
LINE
  5
4E
330
1F
100
AcDbEntity
  8
Layer15
  6
Continuous
 62
     7
 48
25.4
100
AcDbLine
 10
100.4362892844
 20
176.7571500134
 30
0.0
 11
100.5362892844
 21
176.6571500134
 31
0.0
  0
LINE
  5
4F
330
1F
100
AcDbEntity
  8
Layer15
  6
Continuous
 62
     7
 48
25.4
100
AcDbLine
 10
100.5362892844
 20
169.9912735283
 30
0.0
 11
100.5362892844
 21
176.6571500134
 31
0.0
  0
LINE
  5
50
330
1F
100
AcDbEntity
  8
Layer15
  6
Continuous
 62
     7
 48
25.4
100
AcDbLine
 10
100.5362892844
 20
176.8571500134
 30
0.0
 11
100.5362892844
 21
178.9494173402
 31
0.0
  0
LINE
  5
51
330
1F
100
AcDbEntity
  8
Layer15
  6
Continuous
 62
     7
 48
25.4
100
AcDbLine
 10
97.1862892844
 20
176.7571500134
 30
0.0
 11
97.0862892844
 21
176.6571500134
 31
0.0
  0
LINE
  5
52
330
1F
100
AcDbEntity
  8
Layer15
  6
Continuous
 62
     7
 48
25.4
100
AcDbLine
 10
97.1862892844
 20
176.7571500134
 30
0.0
 11
97.0862892844
 21
176.8571500134
 31
0.0
  0
LINE
  5
53
330
1F
100
AcDbEntity
  8
Layer15
  6
Continuous
 62
     7
 48
25.4
100
AcDbLine
 10
97.0862892844
 20
169.9912735283
 30
0.0
 11
97.0862892844
 21
176.6571500134
 31
0.0
  0
LINE
  5
54
330
1F
100
AcDbEntity
  8
Layer15
  6
Continuous
 62
     7
 48
25.4
100
AcDbLine
 10
97.0862892844
 20
176.8571500134
 30
0.0
 11
97.0862892844
 21
178.9494173402
 31
0.0
  0
LINE
  5
55
330
1F
100
AcDbEntity
  8
Layer15
  6
Continuous
 62
     7
 48
25.4
100
AcDbLine
 10
97.0862892844
 20
176.8571500134
 30
0.0
 11
98.8112892844
 21
176.8571500134
 31
0.0
  0
LINE
  5
56
330
1F
100
AcDbEntity
  8
Layer15
  6
Continuous
 62
     7
 48
25.4
100
AcDbLine
 10
100.5362892844
 20
176.8571500134
 30
0.0
 11
98.8112892844
 21
176.8571500134
 31
0.0
  0
LINE
  5
57
330
1F
100
AcDbEntity
  8
Layer15
  6
Continuous
 62
     7
 48
25.4
100
AcDbLine
 10
97.0862892844
 20
176.6571500134
 30
0.0
 11
98.8112892844
 21
176.6571500134
 31
0.0
  0
LINE
  5
58
330
1F
100
AcDbEntity
  8
Layer15
  6
Continuous
 62
     7
 48
25.4
100
AcDbLine
 10
100.5362892844
 20
176.6571500134
 30
0.0
 11
98.8112892844
 21
176.6571500134
 31
0.0
  0
LINE
  5
59
330
1F
100
AcDbEntity
  8
Layer15
  6
Continuous
 62
     7
 48
25.4
100
AcDbLine
 10
97.8461072395
 20
169.9191076867
 30
0.0
 11
97.6934294536
 21
169.9912735283
 31
0.0
  0
LINE
  5
5A
330
1F
100
AcDbEntity
  8
Layer15
  6
Continuous
 62
     7
 48
25.4
100
AcDbLine
 10
96.9612892844
 20
169.9191076867
 30
0.0
 11
97.114595334
 21
169.9912735283
 31
0.0
  0
LINE
  5
5B
330
1F
100
AcDbEntity
  8
Layer15
  6
Continuous
 62
     7
 48
25.4
100
AcDbLine
 10
99.6955262436
 20
169.9191076867
 30
0.0
 11
99.3900811295
 21
169.9912735283
 31
0.0
  0
LINE
  5
5C
330
1F
100
AcDbEntity
  8
Layer15
  6
Continuous
 62
     7
 48
25.4
100
AcDbLine
 10
100.6612892844
 20
169.9191076867
 30
0.0
 11
100.5079832348
 21
169.9912735283
 31
0.0
  0
LINE
  5
5D
330
1F
100
AcDbEntity
  8
Layer15
  6
Continuous
 62
     7
 48
25.4
100
AcDbLine
 10
99.6955262436
 20
169.9191076867
 30
0.0
 11
99.7764713293
 21
169.9191076867
 31
0.0
  0
LINE
  5
5E
330
1F
100
AcDbEntity
  8
Layer15
  6
Continuous
 62
     7
 48
25.4
100
AcDbLine
 10
97.9270523252
 20
169.9191076867
 30
0.0
 11
98.2324974393
 21
169.9912735283
 31
0.0
  0
ARC
  5
5F
330
1F
100
AcDbEntity
  8
Layer15
  6
Continuous
 62
     7
 48
25.4
100
AcDbCircle
 10
97.4036970341
 20
167.0685563331
 30
0.0
 40
0.8114061983873935
100
AcDbArc
 50
240.0010114176
 51
299.9989885824
  0
ARC
  5
60
330
1F
100
AcDbEntity
  8
Layer15
  6
Continuous
 62
     7
 48
25.4
100
AcDbCircle
 10
98.8112892844
 20
169.3316602381
 30
0.0
 40
3.074510224670591
100
AcDbArc
 50
277.0058478695
 51
286.714478082
  0
LINE
  5
61
330
1F
100
AcDbEntity
  8
Layer15
  6
Continuous
 62
     7
 48
25.4
100
AcDbLine
 10
97.1862892844
 20
179.0071500134
 30
0.0
 11
98.8112892844
 21
179.0071500134
 31
0.0
  0
LINE
  5
62
330
1F
100
AcDbEntity
  8
Layer15
  6
Continuous
 62
     7
 48
25.4
100
AcDbLine
 10
100.4362892844
 20
179.0071500134
 30
0.0
 11
100.5362892844
 21
178.9494173402
 31
0.0
  0
LINE
  5
63
330
1F
100
AcDbEntity
  8
Layer15
  6
Continuous
 62
     7
 48
25.4
100
AcDbLine
 10
97.8093883427
 20
166.3658497275
 30
0.0
 11
97.8461072395
 21
166.3870485283
 31
0.0
  0
LINE
  5
64
330
1F
100
AcDbEntity
  8
Layer15
  6
Continuous
 62
     7
 48
25.4
100
AcDbLine
 10
98.8112892844
 20
178.9494173402
 30
0.0
 11
100.5362892844
 21
178.9494173402
 31
0.0
  0
LINE
  5
65
330
1F
100
AcDbEntity
  8
Layer15
  6
Continuous
 62
     7
 48
25.4
100
AcDbLine
 10
97.1862892844
 20
166.2571500134
 30
0.0
 11
96.9612892844
 21
166.3870485283
 31
0.0
  0
LINE
  5
66
330
1F
100
AcDbEntity
  8
Layer15
  6
Continuous
 62
     7
 48
25.4
100
AcDbLine
 10
98.4362892844
 20
166.2571500134
 30
0.0
 11
98.4362892844
 21
167.2571500134
 31
0.0
  0
LINE
  5
67
330
1F
100
AcDbEntity
  8
Layer15
  6
Continuous
 62
     7
 48
25.4
100
AcDbLine
 10
97.1862892844
 20
179.0071500134
 30
0.0
 11
97.0862892844
 21
178.9494173402
 31
0.0
  0
LINE
  5
68
330
1F
100
AcDbEntity
  8
Layer15
  6
Continuous
 62
     7
 48
25.4
100
AcDbLine
 10
97.0862892844
 20
169.9912735283
 30
0.0
 11
96.9612892844
 21
169.9191076867
 31
0.0
  0
LINE
  5
69
330
1F
100
AcDbEntity
  8
Layer15
  6
Continuous
 62
     7
 48
25.4
100
AcDbLine
 10
99.6955262436
 20
166.3870485283
 30
0.0
 11
99.6955262436
 21
169.9191076867
 31
0.0
  0
ARC
  5
6A
330
1F
100
AcDbEntity
  8
Layer15
  6
Continuous
 62
     7
 48
25.4
100
AcDbCircle
 10
100.2188815347
 20
167.0685563331
 30
0.0
 40
0.8114061983873809
100
AcDbArc
 50
240.0010114176
 51
299.9989885824
  0
ARC
  5
6B
330
1F
100
AcDbEntity
  8
Layer15
  6
Continuous
 62
     7
 48
25.4
100
AcDbCircle
 10
98.8112892844
 20
169.3316602381
 30
0.0
 40
3.074510224672976
100
AcDbArc
 50
253.285521918
 51
262.9941521305
  0
LINE
  5
6C
330
1F
100
AcDbEntity
  8
Layer15
  6
Continuous
 62
     7
 48
25.4
100
AcDbLine
 10
97.0862892844
 20
169.9912735283
 30
0.0
 11
100.5362892844
 21
169.9912735283
 31
0.0
  0
LINE
  5
6D
330
1F
100
AcDbEntity
  8
Layer15
  6
Continuous
 62
     7
 48
25.4
100
AcDbLine
 10
97.8461072395
 20
166.3870485283
 30
0.0
 11
97.9270523252
 21
166.3870485283
 31
0.0
  0
LINE
  5
6E
330
1F
100
AcDbEntity
  8
Layer15
  6
Continuous
 62
     7
 48
25.4
100
AcDbLine
 10
97.1862892844
 20
166.2571500134
 30
0.0
 11
98.4362892844
 21
166.2571500134
 31
0.0
  0
LINE
  5
6F
330
1F
100
AcDbEntity
  8
Layer15
  6
Continuous
 62
     7
 48
25.4
100
AcDbLine
 10
96.9612892844
 20
166.3870485283
 30
0.0
 11
96.9612892844
 21
169.9191076867
 31
0.0
  0
LINE
  5
70
330
1F
100
AcDbEntity
  8
Layer15
  6
Continuous
 62
     7
 48
25.4
100
AcDbLine
 10
99.8131902261
 20
166.3658497275
 30
0.0
 11
99.7764713293
 21
166.3870485283
 31
0.0
  0
LINE
  5
71
330
1F
100
AcDbEntity
  8
Layer15
  6
Continuous
 62
     7
 48
25.4
100
AcDbLine
 10
98.8112892844
 20
179.0071500134
 30
0.0
 11
100.4362892844
 21
179.0071500134
 31
0.0
  0
LINE
  5
72
330
1F
100
AcDbEntity
  8
Layer15
  6
Continuous
 62
     7
 48
25.4
100
AcDbLine
 10
99.1862892844
 20
166.2571500134
 30
0.0
 11
99.1862892844
 21
167.2571500134
 31
0.0
  0
LINE
  5
73
330
1F
100
AcDbEntity
  8
Layer15
  6
Continuous
 62
     7
 48
25.4
100
AcDbLine
 10
98.4362892844
 20
167.2571500134
 30
0.0
 11
98.8112892844
 21
167.2571500134
 31
0.0
  0
LINE
  5
74
330
1F
100
AcDbEntity
  8
Layer15
  6
Continuous
 62
     7
 48
25.4
100
AcDbLine
 10
98.8112892844
 20
167.2571500134
 30
0.0
 11
99.1862892844
 21
167.2571500134
 31
0.0
  0
LINE
  5
75
330
1F
100
AcDbEntity
  8
Layer15
  6
Continuous
 62
     7
 48
25.4
100
AcDbLine
 10
97.8461072395
 20
166.3870485283
 30
0.0
 11
97.8461072395
 21
169.9191076867
 31
0.0
  0
LINE
  5
76
330
1F
100
AcDbEntity
  8
Layer15
  6
Continuous
 62
     7
 48
25.4
100
AcDbLine
 10
97.9270523252
 20
166.3870485283
 30
0.0
 11
97.9270523252
 21
169.9191076867
 31
0.0
  0
LINE
  5
77
330
1F
100
AcDbEntity
  8
Layer15
  6
Continuous
 62
     7
 48
25.4
100
AcDbLine
 10
100.5362892844
 20
169.9912735283
 30
0.0
 11
100.6612892844
 21
169.9191076867
 31
0.0
  0
LINE
  5
78
330
1F
100
AcDbEntity
  8
Layer15
  6
Continuous
 62
     7
 48
25.4
100
AcDbLine
 10
99.1862892844
 20
166.2571500134
 30
0.0
 11
100.4362892844
 21
166.2571500134
 31
0.0
  0
LINE
  5
79
330
1F
100
AcDbEntity
  8
Layer15
  6
Continuous
 62
     7
 48
25.4
100
AcDbLine
 10
100.4362892844
 20
166.2571500134
 30
0.0
 11
100.6612892844
 21
166.3870485283
 31
0.0
  0
LINE
  5
7A
330
1F
100
AcDbEntity
  8
Layer15
  6
Continuous
 62
     7
 48
25.4
100
AcDbLine
 10
97.8461072395
 20
169.9191076867
 30
0.0
 11
97.9270523252
 21
169.9191076867
 31
0.0
  0
LINE
  5
7B
330
1F
100
AcDbEntity
  8
Layer15
  6
Continuous
 62
     7
 48
25.4
100
AcDbLine
 10
100.6612892844
 20
166.3870485283
 30
0.0
 11
100.6612892844
 21
169.9191076867
 31
0.0
  0
LINE
  5
7C
330
1F
100
AcDbEntity
  8
Layer15
  6
Continuous
 62
     7
 48
25.4
100
AcDbLine
 10
99.7764713293
 20
166.3870485283
 30
0.0
 11
99.7764713293
 21
169.9191076867
 31
0.0
  0
LINE
  5
7D
330
1F
100
AcDbEntity
  8
Layer15
  6
Continuous
 62
     7
 48
25.4
100
AcDbLine
 10
99.7764713293
 20
169.9191076867
 30
0.0
 11
99.9291491152
 21
169.9912735283
 31
0.0
  0
LINE
  5
7E
330
1F
100
AcDbEntity
  8
Layer15
  6
Continuous
 62
     7
 48
25.4
100
AcDbLine
 10
97.0862892844
 20
178.9494173402
 30
0.0
 11
98.8112892844
 21
178.9494173402
 31
0.0
  0
LINE
  5
7F
330
1F
100
AcDbEntity
  8
Layer15
  6
Continuous
 62
     7
 48
25.4
100
AcDbLine
 10
99.6955262436
 20
166.3870485283
 30
0.0
 11
99.7764713293
 21
166.3870485283
 31
0.0
  0
LINE
  5
82
330
1F
100
AcDbEntity
  8
Layer18
  6
CENTER2
 62
     7
 48
25.4
100
AcDbLine
 10
113.0584874076
 20
129.701576489
 30
0.0
 11
114.6450278104
 21
123.7805270973
 31
0.0
  0
LINE
  5
83
330
1F
100
AcDbEntity
  8
Layer18
  6
Continuous
 62
     7
 48
25.4
100
AcDbLine
 10
104.4683082806
 20
155.4442002268
 30
0.0
 11
104.5653654226
 21
155.0819780419
 31
0.0
  0
LINE
  5
84
330
1F
100
AcDbEntity
  8
Layer18
  6
Continuous
 62
     7
 48
25.4
100
AcDbLine
 10
104.4540855291
 20
155.0521606843
 30
0.0
 11
104.5653654226
 21
155.0819780419
 31
0.0
  0
LINE
  5
85
330
1F
100
AcDbEntity
  8
Layer18
  6
Continuous
 62
     7
 48
25.4
100
AcDbLine
 10
104.9717236193
 20
153.1203090318
 30
0.0
 11
104.4540855291
 21
155.0521606843
 31
0.0
  0
LINE
  5
86
330
1F
100
AcDbEntity
  8
Layer18
  6
Continuous
 62
     7
 48
25.4
100
AcDbLine
 10
104.5653654226
 20
155.0819780419
 30
0.0
 11
104.5144558932
 21
155.0683368747
 31
0.0
  0
ARC
  5
87
330
1F
100
AcDbEntity
  8
Layer18
  6
Continuous
 62
     7
 48
25.4
100
AcDbCircle
 10
105.2779098371
 20
152.9435323365
 30
0.0
 40
0.2500000000000226
100
AcDbArc
 50
105.0
 51
195.0
  0
LINE
  5
88
330
1F
100
AcDbEntity
  8
Layer18
  6
Continuous
 62
     7
 48
25.4
100
AcDbLine
 10
108.3524640113
 20
154.0261756896
 30
0.0
 11
104.9717236193
 21
153.1203090318
 31
0.0
  0
LINE
  5
89
330
1F
100
AcDbEntity
  8
Layer18
  6
Continuous
 62
     7
 48
25.4
100
AcDbLine
 10
106.1040569416
 20
148.8943835418
 30
0.0
 11
105.0364283805
 21
152.8788275752
 31
0.0
  0
ARC
  5
8A
330
1F
100
AcDbEntity
  8
Layer18
  6
Continuous
 62
     7
 48
25.4
100
AcDbCircle
 10
111.027031404
 20
131.4875185497
 30
0.0
 40
0.2499999999203902
100
AcDbArc
 50
195.0
 51
285.0
  0
LINE
  5
8B
330
1F
100
AcDbEntity
  8
Layer18
  6
Continuous
 62
     7
 48
25.4
100
AcDbLine
 10
110.7855499475
 20
131.4228137884
 30
0.0
 11
109.7179213865
 21
135.4072578219
 31
0.0
  0
LINE
  5
8C
330
1F
100
AcDbEntity
  8
Layer18
  6
Continuous
 62
     7
 48
25.4
100
AcDbLine
 10
111.2408060729
 20
127.7919231456
 30
0.0
 11
115.5874722912
 21
128.9566088485
 31
0.0
  0
ARC
  5
8D
330
1F
100
AcDbEntity
  8
Layer18
  6
Continuous
 62
     7
 48
25.4
100
AcDbCircle
 10
111.9974373421
 20
133.6614692426
 30
0.0
 40
5.367515580080103
100
AcDbArc
 50
274.673400594
 51
295.326599406
  0
LINE
  5
8E
330
1F
100
AcDbEntity
  8
Layer18
  6
Continuous
 62
     7
 48
25.4
100
AcDbLine
 10
113.0986617785
 20
136.3131244797
 30
0.0
 11
109.7179213865
 21
135.4072578219
 31
0.0
  0
LINE
  5
8F
330
1F
100
AcDbEntity
  8
Layer18
  6
Continuous
 62
     7
 48
25.4
100
AcDbLine
 10
114.2935399267
 20
128.809857508
 30
0.0
 11
113.714118329
 21
130.9722883498
 31
0.0
  0
LINE
  5
90
330
1F
100
AcDbEntity
  8
Layer18
  6
Continuous
 62
     7
 48
25.4
100
AcDbLine
 10
114.8847119368
 20
128.9740831255
 30
0.0
 11
114.3082011168
 21
131.125650797
 31
0.0
  0
LINE
  5
91
330
1F
100
AcDbEntity
  8
Layer18
  6
Continuous
 62
     7
 48
25.4
100
AcDbLine
 10
115.9895119135
 20
129.3586640588
 30
0.0
 11
115.4572764292
 21
131.3449939279
 31
0.0
  0
ARC
  5
92
330
1F
100
AcDbEntity
  8
Layer18
  6
Continuous
 62
     7
 48
25.4
100
AcDbCircle
 10
114.9955004941
 20
130.4350072091
 30
0.0
 40
1.465118862881688
100
AcDbArc
 50
265.6632994721
 51
312.7227203024
  0
LINE
  5
93
330
1F
100
AcDbEntity
  8
Layer18
  6
Continuous
 62
     7
 48
25.4
100
AcDbLine
 10
115.5874722912
 20
128.9566088485
 30
0.0
 11
115.9895119135
 21
129.3586640588
 31
0.0
  0
LINE
  5
94
330
1F
100
AcDbEntity
  8
Layer18
  6
Continuous
 62
     7
 48
25.4
100
AcDbLine
 10
104.4173987513
 20
155.4305590595
 30
0.0
 11
107.677398415
 21
156.3040733367
 31
0.0
  0
LINE
  5
95
330
1F
100
AcDbEntity
  8
Layer18
  6
Continuous
 62
     7
 48
25.4
100
AcDbLine
 10
109.4847973336
 20
149.8002501996
 30
0.0
 11
106.1040569416
 21
148.8943835418
 31
0.0
  0
LINE
  5
96
330
1F
100
AcDbEntity
  8
Layer18
  6
Continuous
 62
     7
 48
25.4
100
AcDbLine
 10
104.4173987513
 20
155.4305590595
 30
0.0
 11
104.5144558932
 21
155.0683368747
 31
0.0
  0
LINE
  5
97
330
1F
100
AcDbEntity
  8
Layer18
  6
Continuous
 62
     7
 48
25.4
100
AcDbLine
 10
105.9369702188
 20
150.5428069824
 30
0.0
 11
105.4220497285
 21
152.4645164138
 31
0.0
  0
LINE
  5
98
330
1F
100
AcDbEntity
  8
Layer18
  6
Continuous
 62
     7
 48
25.4
100
AcDbLine
 10
108.3091633074
 20
151.1784342048
 30
0.0
 11
107.7942428172
 21
153.1001436362
 31
0.0
  0
LINE
  5
99
330
1F
100
AcDbEntity
  8
Layer18
  6
Continuous
 62
     7
 48
25.4
100
AcDbLine
 10
107.1869967019
 20
156.1726705937
 30
0.0
 11
107.2840538438
 21
155.8104484089
 31
0.0
  0
LINE
  5
9A
330
1F
100
AcDbEntity
  8
Layer18
  6
Continuous
 62
     7
 48
25.4
100
AcDbLine
 10
104.9078004644
 20
155.5619618025
 30
0.0
 11
105.0048576063
 21
155.1997396177
 31
0.0
  0
LINE
  5
9B
330
1F
100
AcDbEntity
  8
Layer18
  6
Continuous
 62
     7
 48
25.4
100
AcDbLine
 10
105.6164549602
 20
153.2930642739
 30
0.0
 11
105.09881687
 21
155.2249159265
 31
0.0
  0
LINE
  5
9C
330
1F
100
AcDbEntity
  8
Layer18
  6
Continuous
 62
     7
 48
25.4
100
AcDbLine
 10
105.6078956981
 20
155.749551755
 30
0.0
 11
105.7049528401
 21
155.3873295702
 31
0.0
  0
LINE
  5
9D
330
1F
100
AcDbEntity
  8
Layer18
  6
Continuous
 62
     7
 48
25.4
100
AcDbLine
 10
105.7049528401
 20
155.3873295702
 30
0.0
 11
105.0048576063
 21
155.1997396177
 31
0.0
  0
LINE
  5
9E
330
1F
100
AcDbEntity
  8
Layer18
  6
Continuous
 62
     7
 48
25.4
100
AcDbLine
 10
106.4869014682
 20
155.9850806412
 30
0.0
 11
106.5839586101
 21
155.6228584564
 31
0.0
  0
LINE
  5
9F
330
1F
100
AcDbEntity
  8
Layer18
  6
Continuous
 62
     7
 48
25.4
100
AcDbLine
 10
107.2894867876
 20
153.741351801
 30
0.0
 11
106.7718486974
 21
155.6732034535
 31
0.0
  0
ARC
  5
A0
330
1F
100
AcDbEntity
  8
Layer18
  6
Continuous
 62
     7
 48
25.4
100
AcDbCircle
 10
108.550644764
 20
151.243138966
 30
0.0
 40
0.25000000015809
100
AcDbArc
 50
195.0
 51
285.0
  0
LINE
  5
A1
330
1F
100
AcDbEntity
  8
Layer18
  6
Continuous
 62
     7
 48
25.4
100
AcDbLine
 10
108.6153495252
 20
151.0016575095
 30
0.0
 11
108.6285102646
 21
151.0051839189
 31
0.0
  0
LINE
  5
A2
330
1F
100
AcDbEntity
  8
Layer18
  6
Continuous
 62
     7
 48
25.4
100
AcDbLine
 10
106.034700843
 20
153.4051329204
 30
0.0
 11
105.5170627528
 21
155.336984573
 31
0.0
  0
LINE
  5
A3
330
1F
100
AcDbEntity
  8
Layer18
  6
Continuous
 62
     7
 48
25.4
100
AcDbLine
 10
107.7744555569
 20
155.9418511519
 30
0.0
 11
107.8348259211
 21
155.9580273422
 31
0.0
  0
LINE
  5
A4
330
1F
100
AcDbEntity
  8
Layer18
  6
Continuous
 62
     7
 48
25.4
100
AcDbLine
 10
107.8348259211
 20
155.9580273422
 30
0.0
 11
108.3524640113
 21
154.0261756896
 31
0.0
  0
LINE
  5
A5
330
1F
100
AcDbEntity
  8
Layer18
  6
Continuous
 62
     7
 48
25.4
100
AcDbLine
 10
104.4937130261
 20
155.5804169304
 30
0.0
 11
104.5260654068
 21
155.4596762021
 31
0.0
  0
LINE
  5
A6
330
1F
100
AcDbEntity
  8
Layer18
  6
Continuous
 62
     7
 48
25.4
100
AcDbLine
 10
109.4847973336
 20
149.8002501996
 30
0.0
 11
108.4171687726
 21
153.7846942331
 31
0.0
  0
LINE
  5
A7
330
1F
100
AcDbEntity
  8
Layer18
  6
Continuous
 62
     7
 48
25.4
100
AcDbLine
 10
107.677398415
 20
156.3040733367
 30
0.0
 11
107.7744555569
 21
155.9418511519
 31
0.0
  0
ARC
  5
A8
330
1F
100
AcDbEntity
  8
Layer18
  6
Continuous
 62
     7
 48
25.4
100
AcDbCircle
 10
107.0089064045
 20
150.8300314177
 30
0.0
 40
0.2499999999203705
100
AcDbArc
 50
195.0
 51
285.0
  0
ARC
  5
A9
330
1F
100
AcDbEntity
  8
Layer18
  6
Continuous
 62
     7
 48
25.4
100
AcDbCircle
 10
105.6766919245
 20
152.5327475845
 30
0.0
 40
0.2500000001580474
100
AcDbArc
 50
15.0
 51
105.0
  0
LINE
  5
AA
330
1F
100
AcDbEntity
  8
Layer18
  6
Continuous
 62
     7
 48
25.4
100
AcDbLine
 10
106.7915033378
 20
153.0902794476
 30
0.0
 11
107.1537255227
 21
153.1873365895
 31
0.0
  0
ARC
  5
AB
330
1F
100
AcDbEntity
  8
Layer18
  6
Continuous
 62
     7
 48
25.4
100
AcDbCircle
 10
107.218430284
 20
152.9458551329
 30
0.0
 40
0.2499999998805518
100
AcDbArc
 50
15.0
 51
105.0
  0
LINE
  5
AC
330
1F
100
AcDbEntity
  8
Layer18
  6
Continuous
 62
     7
 48
25.4
100
AcDbLine
 10
107.4358333506
 20
150.685607103
 30
0.0
 11
107.7980555355
 21
150.7826642449
 31
0.0
  0
LINE
  5
AD
330
1F
100
AcDbEntity
  8
Layer18
  6
Continuous
 62
     7
 48
25.4
100
AcDbLine
 10
107.6264888857
 20
156.2904321695
 30
0.0
 11
107.7235460276
 21
155.9282099846
 31
0.0
  0
LINE
  5
AE
330
1F
100
AcDbEntity
  8
Layer18
  6
Continuous
 62
     7
 48
25.4
100
AcDbLine
 10
107.2840538438
 20
155.8104484089
 30
0.0
 11
106.5839586101
 21
155.6228584564
 31
0.0
  0
ARC
  5
AF
330
1F
100
AcDbEntity
  8
Layer18
  6
Continuous
 62
     7
 48
25.4
100
AcDbCircle
 10
105.6635311851
 20
152.529221175
 30
0.0
 40
0.249999999880592
100
AcDbArc
 50
105.0
 51
195.0
  0
LINE
  5
B0
330
1F
100
AcDbEntity
  8
Layer18
  6
Continuous
 62
     7
 48
25.4
100
AcDbLine
 10
107.7077447445
 20
153.8534236827
 30
0.0
 11
107.1901066542
 21
155.7852753353
 31
0.0
  0
LINE
  5
B1
330
1F
100
AcDbEntity
  8
Layer18
  6
Continuous
 62
     7
 48
25.4
100
AcDbLine
 10
107.7744555569
 20
155.9418511519
 30
0.0
 11
107.7235460276
 21
155.9282099846
 31
0.0
  0
LINE
  5
B2
330
1F
100
AcDbEntity
  8
Layer18
  6
Continuous
 62
     7
 48
25.4
100
AcDbLine
 10
107.9748322308
 20
151.0888504628
 30
0.0
 11
107.4599117405
 21
153.0105598942
 31
0.0
  0
ARC
  5
B3
330
1F
100
AcDbEntity
  8
Layer18
  6
Continuous
 62
     7
 48
25.4
100
AcDbCircle
 10
114.1514410285
 20
125.6226180455
 30
0.0
 40
5.367515580605579
100
AcDbArc
 50
94.673400595
 51
115.326599405
  0
LINE
  5
B4
330
1F
100
AcDbEntity
  8
Layer18
  6
Continuous
 62
     7
 48
25.4
100
AcDbLine
 10
111.2124768936
 20
131.2783894738
 30
0.0
 11
111.4065911775
 21
130.553945104
 31
0.0
  0
LINE
  5
B5
330
1F
100
AcDbEntity
  8
Layer18
  6
Continuous
 62
     7
 48
25.4
100
AcDbLine
 10
111.3418864162
 20
130.7954265606
 30
0.0
 11
111.2124768936
 21
131.2783894738
 31
0.0
  0
LINE
  5
B6
330
1F
100
AcDbEntity
  8
Layer18
  6
Continuous
 62
     7
 48
25.4
100
AcDbLine
 10
114.9080722978
 20
131.4921641425
 30
0.0
 11
110.5614060795
 21
130.3274784396
 31
0.0
  0
ARC
  5
B7
330
1F
100
AcDbEntity
  8
Layer18
  6
Continuous
 62
     7
 48
25.4
100
AcDbCircle
 10
115.1346088635
 20
129.9158477069
 30
0.0
 40
1.465118862321266
100
AcDbArc
 50
77.2772796976
 51
124.3367005356
  0
LINE
  5
B8
330
1F
100
AcDbEntity
  8
Layer18
  6
Continuous
 62
     7
 48
25.4
100
AcDbLine
 10
115.4572764292
 20
131.3449939279
 30
0.0
 11
114.9080722978
 21
131.4921641425
 31
0.0
  0
LINE
  5
B9
330
1F
100
AcDbEntity
  8
Layer18
  6
Continuous
 62
     7
 48
25.4
100
AcDbLine
 10
114.0628871998
 20
131.2656974781
 30
0.0
 11
113.8687729159
 21
131.9901418478
 31
0.0
  0
LINE
  5
BA
330
1F
100
AcDbEntity
  8
Layer18
  6
Continuous
 62
     7
 48
25.4
100
AcDbLine
 10
111.0917361653
 20
131.2460370931
 30
0.0
 11
112.5406249048
 21
131.6342656608
 31
0.0
  0
LINE
  5
BB
330
1F
100
AcDbEntity
  8
Layer18
  6
Continuous
 62
     7
 48
25.4
100
AcDbLine
 10
111.9852175547
 20
131.4854447098
 30
0.0
 11
111.2124768936
 21
131.2783894738
 31
0.0
  0
LINE
  5
BC
330
1F
100
AcDbEntity
  8
Layer18
  6
Continuous
 62
     7
 48
25.4
100
AcDbLine
 10
112.5406249048
 20
131.6342656608
 30
0.0
 11
113.9895136443
 21
132.0224942285
 31
0.0
  0
ARC
  5
BD
330
1F
100
AcDbEntity
  8
Layer18
  6
Continuous
 62
     7
 48
25.4
100
AcDbCircle
 10
111.1538337069
 20
132.0391332146
 30
0.0
 40
0.2499999999203874
100
AcDbArc
 50
195.0
 51
285.0
  0
LINE
  5
BE
330
1F
100
AcDbEntity
  8
Layer18
  6
Continuous
 62
     7
 48
25.4
100
AcDbLine
 10
111.2316992076
 20
131.8011781675
 30
0.0
 11
111.2185384682
 21
131.797651758
 31
0.0
  0
ARC
  5
BF
330
1F
100
AcDbEntity
  8
Layer18
  6
Continuous
 62
     7
 48
25.4
100
AcDbCircle
 10
111.1669944463
 20
132.042659624
 30
0.0
 40
0.2500000001053639
100
AcDbArc
 50
285.0
 51
15.0
  0
ARC
  5
C0
330
1F
100
AcDbEntity
  8
Layer18
  6
Continuous
 62
     7
 48
25.4
100
AcDbCircle
 10
113.9248088831
 20
132.263975685
 30
0.0
 40
0.2499999998805977
100
AcDbArc
 50
285.0
 51
15.0
  0
ARC
  5
C1
330
1F
100
AcDbEntity
  8
Layer18
  6
Continuous
 62
     7
 48
25.4
100
AcDbCircle
 10
111.9842884361
 20
132.2616528886
 30
0.0
 40
0.2499999999204376
100
AcDbArc
 50
195.0
 51
285.0
  0
LINE
  5
C2
330
1F
100
AcDbEntity
  8
Layer18
  6
Continuous
 62
     7
 48
25.4
100
AcDbLine
 10
112.4112153822
 20
132.1172285739
 30
0.0
 11
112.0489931974
 21
132.020171432
 31
0.0
  0
LINE
  5
C3
330
1F
100
AcDbEntity
  8
Layer18
  6
Continuous
 62
     7
 48
25.4
100
AcDbLine
 10
110.9123522504
 20
131.9744284533
 30
0.0
 11
110.3974317601
 21
133.8961378847
 31
0.0
  0
LINE
  5
C4
330
1F
100
AcDbEntity
  8
Layer18
  6
Continuous
 62
     7
 48
25.4
100
AcDbLine
 10
112.4112153822
 20
132.1172285739
 30
0.0
 11
112.7734375671
 21
132.2142857158
 31
0.0
  0
LINE
  5
C5
330
1F
100
AcDbEntity
  8
Layer18
  6
Continuous
 62
     7
 48
25.4
100
AcDbLine
 10
111.4084759029
 20
132.1073643853
 30
0.0
 11
110.8935554127
 21
134.0290738167
 31
0.0
  0
ARC
  5
C6
330
1F
100
AcDbEntity
  8
Layer18
  6
Continuous
 62
     7
 48
25.4
100
AcDbCircle
 10
112.7087328058
 20
132.4557671724
 30
0.0
 40
0.2499999998805667
100
AcDbArc
 50
285.0
 51
15.0
  0
LINE
  5
C7
330
1F
100
AcDbEntity
  8
Layer18
  6
Continuous
 62
     7
 48
25.4
100
AcDbLine
 10
111.7428069795
 20
132.1969481273
 30
0.0
 11
111.2278864893
 21
134.1186575587
 31
0.0
  0
LINE
  5
C8
330
1F
100
AcDbEntity
  8
Layer18
  6
Continuous
 62
     7
 48
25.4
100
AcDbLine
 10
114.1662903395
 20
132.3286804463
 30
0.0
 11
113.0986617785
 21
136.3131244797
 31
0.0
  0
ARC
  5
C9
330
1F
100
AcDbEntity
  8
Layer18
  6
Continuous
 62
     7
 48
25.4
100
AcDbCircle
 10
113.5260267956
 20
132.6747604369
 30
0.0
 40
0.2500000001580869
100
AcDbArc
 50
195.0
 51
285.0
  0
LINE
  5
CA
330
1F
100
AcDbEntity
  8
Layer18
  6
Continuous
 62
     7
 48
25.4
100
AcDbLine
 10
113.5907315569
 20
132.4332789804
 30
0.0
 11
113.6038922962
 21
132.4368053899
 31
0.0
  0
ARC
  5
CB
330
1F
100
AcDbEntity
  8
Layer18
  6
Continuous
 62
     7
 48
25.4
100
AcDbCircle
 10
113.539187535
 20
132.6782868464
 30
0.0
 40
0.2499999998805952
100
AcDbArc
 50
285.0
 51
15.0
  0
LINE
  5
CC
330
1F
100
AcDbEntity
  8
Layer18
  6
Continuous
 62
     7
 48
25.4
100
AcDbLine
 10
112.9502142624
 20
132.5204719337
 30
0.0
 11
112.4352937722
 21
134.4421813651
 31
0.0
  0
LINE
  5
CD
330
1F
100
AcDbEntity
  8
Layer18
  6
Continuous
 62
     7
 48
25.4
100
AcDbLine
 10
113.284545339
 20
132.6100556757
 30
0.0
 11
112.7696248488
 21
134.5317651071
 31
0.0
  0
LINE
  5
CE
330
1F
100
AcDbEntity
  8
Layer18
  6
Continuous
 62
     7
 48
25.4
100
AcDbLine
 10
113.7806689915
 20
132.7429916077
 30
0.0
 11
113.2657485013
 21
134.6647010391
 31
0.0
  0
ARC
  5
CF
330
1F
100
AcDbEntity
  8
Layer18
  6
Continuous
 62
     7
 48
25.4
100
AcDbCircle
 10
110.6389132167
 20
133.960842646
 30
0.0
 40
0.2499999998805803
100
AcDbArc
 50
105.0
 51
195.0
  0
ARC
  5
D0
330
1F
100
AcDbEntity
  8
Layer18
  6
Continuous
 62
     7
 48
25.4
100
AcDbCircle
 10
110.6520739561
 20
133.9643690554
 30
0.0
 40
0.2500000001580685
100
AcDbArc
 50
15.0
 51
105.0
  0
ARC
  5
D1
330
1F
100
AcDbEntity
  8
Layer18
  6
Continuous
 62
     7
 48
25.4
100
AcDbCircle
 10
111.4693679459
 20
134.18336232
 30
0.0
 40
0.2499999999204141
100
AcDbArc
 50
105.0
 51
195.0
  0
LINE
  5
D2
330
1F
100
AcDbEntity
  8
Layer18
  6
Continuous
 62
     7
 48
25.4
100
AcDbLine
 10
110.5873691948
 20
134.205850512
 30
0.0
 11
110.5742084554
 21
134.2023241025
 31
0.0
  0
ARC
  5
D3
330
1F
100
AcDbEntity
  8
Layer18
  6
Continuous
 62
     7
 48
25.4
100
AcDbCircle
 10
112.1938123156
 20
134.3774766038
 30
0.0
 40
0.2499999998805522
100
AcDbArc
 50
15.0
 51
105.0
  0
LINE
  5
D4
330
1F
100
AcDbEntity
  8
Layer18
  6
Continuous
 62
     7
 48
25.4
100
AcDbLine
 10
111.7668853695
 20
134.5219009185
 30
0.0
 11
111.4046631846
 21
134.4248437766
 31
0.0
  0
ARC
  5
D5
330
1F
100
AcDbEntity
  8
Layer18
  6
Continuous
 62
     7
 48
25.4
100
AcDbCircle
 10
113.0111063054
 20
134.5964698683
 30
0.0
 40
0.2500000002107474
100
AcDbArc
 50
105.0
 51
195.0
  0
LINE
  5
D6
330
1F
100
AcDbEntity
  8
Layer18
  6
Continuous
 62
     7
 48
25.4
100
AcDbLine
 10
111.7668853695
 20
134.5219009185
 30
0.0
 11
112.1291075543
 21
134.6189580604
 31
0.0
  0
ARC
  5
D7
330
1F
100
AcDbEntity
  8
Layer18
  6
Continuous
 62
     7
 48
25.4
100
AcDbCircle
 10
113.0242670447
 20
134.5999962778
 30
0.0
 40
0.2499999998407495
100
AcDbArc
 50
15.0
 51
105.0
  0
LINE
  5
D8
330
1F
100
AcDbEntity
  8
Layer18
  6
Continuous
 62
     7
 48
25.4
100
AcDbLine
 10
112.9464015441
 20
134.8379513249
 30
0.0
 11
112.9595622835
 21
134.8414777344
 31
0.0
  0
LWPOLYLINE
  5
D9
330
1F
100
AcDbEntity
  8
Layer18
  6
Continuous
 62
     7
 48
25.4
100
AcDbPolyline
 90
        2
 70
     0
 43
0.0
 10
110.2538237038
 20
138.2412934459
 10
110.551018732
 20
138.6703375598
  0
LWPOLYLINE
  5
DA
330
1F
100
AcDbEntity
  8
Layer18
  6
Continuous
 62
     7
 48
25.4
100
AcDbPolyline
 90
        2
 70
     0
 43
0.0
 10
110.0671083478
 20
138.191263217
 10
110.364303376
 20
138.620307331
  0
LWPOLYLINE
  5
DB
330
1F
100
AcDbEntity
  8
Layer18
  6
Continuous
 62
     7
 48
25.4
100
AcDbPolyline
 90
        2
 70
     0
 43
0.0
 10
110.179083439
 20
138.5706777984
 10
110.5428645655
 20
138.3187417114
  0
LWPOLYLINE
  5
DC
330
1F
100
AcDbEntity
  8
Layer18
  6
Continuous
 62
     7
 48
25.4
100
AcDbPolyline
 90
        2
 70
     0
 43
0.0
 10
109.8803929918
 20
138.1412329882
 10
110.17758802
 20
138.5702771021
  0
LWPOLYLINE
  5
DD
330
1F
100
AcDbEntity
  8
Layer18
  6
Continuous
 62
     7
 48
25.4
100
AcDbPolyline
 90
        2
 70
     0
 43
0.0
 10
110.020780391
 20
138.5282606246
 10
110.3845615175
 20
138.2763245375
  0
LWPOLYLINE
  5
DE
330
1F
100
AcDbEntity
  8
Layer18
  6
Continuous
 62
     7
 48
25.4
100
AcDbPolyline
 90
        2
 70
     0
 43
0.0
 10
109.862477343
 20
138.4858434507
 10
110.2262584694
 20
138.2339073636
  0
LWPOLYLINE
  5
DF
330
1F
100
AcDbEntity
  8
Layer18
  6
Continuous
 62
     7
 48
25.4
100
AcDbPolyline
 90
        2
 70
     0
 43
0.0
 10
109.8324532104
 20
138.2915454226
 10
109.990872664
 20
138.5202468733
  0
LWPOLYLINE
  5
E0
330
1F
100
AcDbEntity
  8
Layer18
  6
Continuous
 62
     7
 48
25.4
100
AcDbPolyline
 90
        2
 70
     0
 43
0.0
 10
109.7900395006
 20
138.4498355425
 10
109.804157308
 20
138.4702166444
  0
LWPOLYLINE
  5
E1
330
1F
100
AcDbEntity
  8
Layer18
  6
Continuous
 62
     7
 48
25.4
100
AcDbPolyline
 90
        2
 70
     0
 43
0.0
 10
109.811712486
 20
138.3689508599
 10
110.0679554214
 20
138.1914901897
  0
LWPOLYLINE
  5
E2
330
1F
100
AcDbEntity
  8
Layer18
  6
Continuous
 62
     7
 48
25.4
100
AcDbPolyline
 90
        2
 70
     0
 43
0.0
 10
109.861737031
 20
138.1822567161
 10
109.9096523734
 20
138.1490730158
  0
LINE
  5
E3
330
1F
100
AcDbEntity
  8
Layer18
  6
Continuous
 62
     7
 48
25.4
100
AcDbLine
 10
106.7674249479
 20
150.7653266564
 30
0.0
 11
106.2525044577
 21
152.6870360878
 31
0.0
  0
LWPOLYLINE
  5
E4
330
1F
100
AcDbEntity
  8
Layer18
  6
Continuous
 62
     7
 48
25.4
100
AcDbPolyline
 90
        2
 70
     0
 43
0.0
 10
110.7249744664
 20
139.3605088037
 10
110.8324610922
 20
139.5156813327
  0
LWPOLYLINE
  5
E5
330
1F
100
AcDbEntity
  8
Layer18
  6
Continuous
 62
     7
 48
25.4
100
AcDbPolyline
 90
        2
 70
     0
 43
0.0
 10
109.519106602
 20
141.6125890021
 10
109.6150996631
 20
141.5461091481
  0
LWPOLYLINE
  5
E6
330
1F
100
AcDbEntity
  8
Layer18
  6
Continuous
 62
     7
 48
25.4
100
AcDbPolyline
 90
        2
 70
     0
 43
0.0
 10
109.922578351
 20
139.9647177681
 10
110.3658863889
 20
139.6577054348
  0
LWPOLYLINE
  5
E7
330
1F
100
AcDbEntity
  8
Layer18
  6
Continuous
 62
     7
 48
25.4
100
AcDbPolyline
 90
        2
 70
     0
 43
0.0
 10
110.0040153051
 20
139.6042192881
 10
110.2971571294
 20
139.4012043464
  0
LWPOLYLINE
  5
E8
330
1F
100
AcDbEntity
  8
Layer18
  6
Continuous
 62
     7
 48
25.4
100
AcDbPolyline
 90
        2
 70
     0
 43
0.0
 10
110.0540398502
 20
139.4175251443
 10
110.2627924996
 20
139.2729538023
  0
LWPOLYLINE
  5
E9
330
1F
100
AcDbEntity
  8
Layer18
  6
Continuous
 62
     7
 48
25.4
100
AcDbPolyline
 90
        2
 70
     0
 43
0.0
 10
109.5009467865
 20
141.5448156481
 10
109.8741518086
 20
142.0835912088
  0
LWPOLYLINE
  5
EA
330
1F
100
AcDbEntity
  8
Layer18
  6
Continuous
 62
     7
 48
25.4
100
AcDbPolyline
 90
        2
 70
     0
 43
0.0
 10
109.596874029
 20
141.9028209909
 10
109.7843186043
 20
142.1734244131
  0
LWPOLYLINE
  5
EB
330
1F
100
AcDbEntity
  8
Layer18
  6
Continuous
 62
     7
 48
25.4
100
AcDbPolyline
 90
        2
 70
     0
 43
0.0
 10
109.656565121
 20
142.1255911789
 10
110.2276689826
 20
141.7300740348
  0
LWPOLYLINE
  5
EC
330
1F
100
AcDbEntity
  8
Layer18
  6
Continuous
 62
     7
 48
25.4
100
AcDbPolyline
 90
        2
 70
     0
 43
0.0
 10
109.5534712318
 20
141.7408395463
 10
110.0566549107
 20
141.3923604254
  0
LWPOLYLINE
  5
ED
330
1F
100
AcDbEntity
  8
Layer18
  6
Continuous
 62
     7
 48
25.4
100
AcDbPolyline
 90
        2
 70
     0
 43
0.0
 10
109.6627461131
 20
141.5588759759
 10
109.9639850128
 20
141.9937580046
  0
LWPOLYLINE
  5
EE
330
1F
100
AcDbEntity
  8
Layer18
  6
Continuous
 62
     7
 48
25.4
100
AcDbPolyline
 90
        2
 70
     0
 43
0.0
 10
109.6222004913
 20
141.9973406347
 10
110.0900088072
 20
141.6733606697
  0
LWPOLYLINE
  5
EF
330
1F
100
AcDbEntity
  8
Layer18
  6
Continuous
 62
     7
 48
25.4
100
AcDbPolyline
 90
        2
 70
     0
 43
0.0
 10
109.5878358615
 20
141.8690900905
 10
110.0066303657
 20
141.5790545692
  0
LWPOLYLINE
  5
F0
330
1F
100
AcDbEntity
  8
Layer18
  6
Continuous
 62
     7
 48
25.4
100
AcDbPolyline
 90
        2
 70
     0
 43
0.0
 10
109.7703967075
 20
141.4947647576
 10
110.0538182171
 20
141.9039248003
  0
LWPOLYLINE
  5
F1
330
1F
100
AcDbEntity
  8
Layer18
  6
Continuous
 62
     7
 48
25.4
100
AcDbPolyline
 90
        2
 70
     0
 43
0.0
 10
110.2228921812
 20
141.7089666625
 10
110.2334846256
 20
141.7242583918
  0
LWPOLYLINE
  5
F2
330
1F
100
AcDbEntity
  8
Layer18
  6
Continuous
 62
     7
 48
25.4
100
AcDbPolyline
 90
        2
 70
     0
 43
0.0
 10
110.0361768252
 20
141.6589364336
 10
110.1436514214
 20
141.8140915961
  0
ARC
  5
F3
330
1F
100
AcDbEntity
  8
Layer18
  6
Continuous
 62
     7
 48
25.4
100
AcDbCircle
 10
108.175687316
 20
153.7199894718
 30
0.0
 40
0.2499999999999498
100
AcDbArc
 50
15.0
 51
105.0
  0
LINE
  5
F4
330
1F
100
AcDbEntity
  8
Layer18
  6
Continuous
 62
     7
 48
25.4
100
AcDbLine
 10
106.4330938713
 20
150.6757429144
 30
0.0
 11
105.918173381
 21
152.5974523458
 31
0.0
  0
LINE
  5
F5
330
1F
100
AcDbEntity
  8
Layer18
  6
Continuous
 62
     7
 48
25.4
100
AcDbLine
 10
106.256317176
 20
150.3695566966
 30
0.0
 11
106.2431564366
 21
150.3660302871
 31
0.0
  0
ARC
  5
F6
330
1F
100
AcDbEntity
  8
Layer18
  6
Continuous
 62
     7
 48
25.4
100
AcDbCircle
 10
106.1784516753
 20
150.6075117436
 30
0.0
 40
0.2499999999204063
100
AcDbArc
 50
195.0
 51
285.0
  0
ARC
  5
F7
330
1F
100
AcDbEntity
  8
Layer18
  6
Continuous
 62
     7
 48
25.4
100
AcDbCircle
 10
108.0357242737
 20
153.1648483974
 30
0.0
 40
0.2500000002107934
100
AcDbArc
 50
105.0
 51
195.0
  0
ARC
  5
F8
330
1F
100
AcDbEntity
  8
Layer18
  6
Continuous
 62
     7
 48
25.4
100
AcDbCircle
 10
108.0488850131
 20
153.1683748069
 30
0.0
 40
0.2499999998407747
100
AcDbArc
 50
15.0
 51
105.0
  0
LINE
  5
F9
330
1F
100
AcDbEntity
  8
Layer18
  6
Continuous
 62
     7
 48
25.4
100
AcDbLine
 10
107.9710195125
 20
153.406329854
 30
0.0
 11
107.9841802518
 21
153.4098562635
 31
0.0
  0
LINE
  5
FA
330
1F
100
AcDbEntity
  8
Layer18
  6
Continuous
 62
     7
 48
25.4
100
AcDbLine
 10
107.4358333506
 20
150.685607103
 30
0.0
 11
107.0736111658
 21
150.5885499611
 31
0.0
  0
LINE
  5
FB
330
1F
100
AcDbEntity
  8
Layer18
  6
Continuous
 62
     7
 48
25.4
100
AcDbLine
 10
107.5363793789
 20
156.3956969225
 30
0.0
 11
107.5687317596
 21
156.2749561942
 31
0.0
  0
LINE
  5
FC
330
1F
100
AcDbEntity
  8
Layer18
  6
Continuous
 62
     7
 48
25.4
100
AcDbLine
 10
105.0048576063
 20
155.1997396177
 30
0.0
 11
105.5170627528
 21
155.336984573
 31
0.0
  0
LWPOLYLINE
  5
FD
330
1F
100
AcDbEntity
  8
Layer18
  6
Continuous
 62
     7
 48
25.4
100
AcDbPolyline
 90
        2
 70
     0
 43
0.0
 10
110.1249571479
 20
139.1528581861
 10
110.2972661487
 20
139.4016112121
  0
LWPOLYLINE
  5
FE
330
1F
100
AcDbEntity
  8
Layer18
  6
Continuous
 62
     7
 48
25.4
100
AcDbPolyline
 90
        2
 70
     0
 43
0.0
 10
110.1040643953
 20
139.2308310005
 10
110.2284278699
 20
139.1447032581
  0
LWPOLYLINE
  5
FF
330
1F
100
AcDbEntity
  8
Layer18
  6
Continuous
 62
     7
 48
25.4
100
AcDbPolyline
 90
        2
 70
     0
 43
0.0
 10
110.1540889403
 20
139.0441368568
 10
110.1940632401
 20
139.0164527139
  0
LWPOLYLINE
  5
100
330
1F
100
AcDbEntity
  8
Layer18
  6
Continuous
 62
     7
 48
25.4
100
AcDbPolyline
 90
        2
 70
     0
 43
0.0
 10
110.1673708577
 20
138.9945680662
 10
110.2013389062
 20
139.0436058693
  0
ARC
  5
101
330
1F
100
AcDbEntity
  8
Layer18
  6
Continuous
 62
     7
 48
25.4
100
AcDbCircle
 10
107.7333507742
 20
151.0241457015
 30
0.0
 40
0.2499999998805787
100
AcDbArc
 50
285.0
 51
15.0
  0
ARC
  5
102
330
1F
100
AcDbEntity
  8
Layer18
  6
Continuous
 62
     7
 48
25.4
100
AcDbCircle
 10
108.5638055033
 20
151.2466653755
 30
0.0
 40
0.2499999998805518
100
AcDbArc
 50
285.0
 51
15.0
  0
ARC
  5
103
330
1F
100
AcDbEntity
  8
Layer18
  6
Continuous
 62
     7
 48
25.4
100
AcDbCircle
 10
106.1916124147
 20
150.6110381531
 30
0.0
 40
0.2500000001053778
100
AcDbArc
 50
285.0
 51
15.0
  0
LINE
  5
104
330
1F
100
AcDbEntity
  8
Layer18
  6
Continuous
 62
     7
 48
25.4
100
AcDbLine
 10
108.8052869599
 20
151.3113701368
 30
0.0
 11
108.2903664697
 21
153.2330795682
 31
0.0
  0
LINE
  5
105
330
1F
100
AcDbEntity
  8
Layer18
  6
Continuous
 62
     7
 48
25.4
100
AcDbLine
 10
105.6119871632
 20
152.7742290411
 30
0.0
 11
105.5988264238
 21
152.7707026316
 31
0.0
  0
ARC
  5
106
330
1F
100
AcDbEntity
  8
Layer18
  6
Continuous
 62
     7
 48
25.4
100
AcDbCircle
 10
106.4939859142
 20
152.7517408491
 30
0.0
 40
0.2499999999203839
100
AcDbArc
 50
105.0
 51
195.0
  0
LINE
  5
107
330
1F
100
AcDbEntity
  8
Layer18
  6
Continuous
 62
     7
 48
25.4
100
AcDbLine
 10
106.7915033378
 20
153.0902794476
 30
0.0
 11
106.429281153
 21
152.9932223056
 31
0.0
  0
LWPOLYLINE
  5
108
330
1F
100
AcDbEntity
  8
Layer18
  6
Continuous
 62
     7
 48
25.4
100
AcDbPolyline
 90
        5
 70
     0
 43
0.0
 10
111.4392002543
 20
138.9083250815
 10
109.7858899389
 20
138.4653219176
 10
109.8732426754
 20
138.1393170667
 10
111.5265529909
 20
138.5823202305
 10
111.4392002543
 20
138.9083250815
  0
LWPOLYLINE
  5
109
330
1F
100
AcDbEntity
  8
Layer18
  6
Continuous
 62
     7
 48
25.4
100
AcDbPolyline
 90
        2
 70
     0
 43
0.0
 10
111.3741158398
 20
138.541474819
 10
111.4919258171
 20
138.7115506026
  0
LWPOLYLINE
  5
10A
330
1F
100
AcDbEntity
  8
Layer18
  6
Continuous
 62
     7
 48
25.4
100
AcDbPolyline
 90
        2
 70
     0
 43
0.0
 10
109.9913076105
 20
140.2212188565
 10
110.7919946279
 20
139.6667042336
  0
LWPOLYLINE
  5
10B
330
1F
100
AcDbEntity
  8
Layer18
  6
Continuous
 62
     7
 48
25.4
100
AcDbPolyline
 90
        2
 70
     0
 43
0.0
 10
111.1874004838
 20
138.4914445902
 10
111.4495121073
 20
138.8698407225
  0
LWPOLYLINE
  5
10C
330
1F
100
AcDbEntity
  8
Layer18
  6
Continuous
 62
     7
 48
25.4
100
AcDbPolyline
 90
        2
 70
     0
 43
0.0
 10
111.1289017272
 20
138.8251808417
 10
111.4926828537
 20
138.5732447546
  0
LWPOLYLINE
  5
10D
330
1F
100
AcDbEntity
  8
Layer18
  6
Continuous
 62
     7
 48
25.4
100
AcDbPolyline
 90
        2
 70
     0
 43
0.0
 10
109.9569429807
 20
140.0929683123
 10
110.8420191729
 20
139.4800100899
  0
LWPOLYLINE
  5
10E
330
1F
100
AcDbEntity
  8
Layer18
  6
Continuous
 62
     7
 48
25.4
100
AcDbPolyline
 90
        2
 70
     0
 43
0.0
 10
111.2872047752
 20
138.8675980156
 10
111.4872315765
 20
138.7290697469
  0
LWPOLYLINE
  5
10F
330
1F
100
AcDbEntity
  8
Layer18
  6
Continuous
 62
     7
 48
25.4
100
AcDbPolyline
 90
        2
 70
     0
 43
0.0
 10
111.0006851278
 20
138.4414143613
 10
111.2978801561
 20
138.8704584753
  0
LWPOLYLINE
  5
110
330
1F
100
AcDbEntity
  8
Layer18
  6
Continuous
 62
     7
 48
25.4
100
AcDbPolyline
 90
        2
 70
     0
 43
0.0
 10
110.9705986792
 20
138.7827636678
 10
111.3343798056
 20
138.5308275807
  0
LWPOLYLINE
  5
111
330
1F
100
AcDbEntity
  8
Layer18
  6
Continuous
 62
     7
 48
25.4
100
AcDbPolyline
 90
        2
 70
     0
 43
0.0
 10
110.8122956311
 20
138.740346494
 10
111.1760767576
 20
138.4884104069
  0
LWPOLYLINE
  5
112
330
1F
100
AcDbEntity
  8
Layer18
  6
Continuous
 62
     7
 48
25.4
100
AcDbPolyline
 90
        2
 70
     0
 43
0.0
 10
110.6272544158
 20
138.3413539036
 10
110.924449444
 20
138.7703980176
  0
LWPOLYLINE
  5
113
330
1F
100
AcDbEntity
  8
Layer18
  6
Continuous
 62
     7
 48
25.4
100
AcDbPolyline
 90
        2
 70
     0
 43
0.0
 10
110.8139697718
 20
138.3913841325
 10
111.1111648001
 20
138.8204282464
  0
LWPOLYLINE
  5
114
330
1F
100
AcDbEntity
  8
Layer18
  6
Continuous
 62
     7
 48
25.4
100
AcDbPolyline
 90
        2
 70
     0
 43
0.0
 10
110.6539925831
 20
138.6979293201
 10
111.0177737096
 20
138.445993233
  0
LWPOLYLINE
  5
115
330
1F
100
AcDbEntity
  8
Layer18
  6
Continuous
 62
     7
 48
25.4
100
AcDbPolyline
 90
        2
 70
     0
 43
0.0
 10
110.5671911603
 20
139.5182921098
 10
110.892043718
 20
139.2933159461
  0
LWPOLYLINE
  5
116
330
1F
100
AcDbEntity
  8
Layer18
  6
Continuous
 62
     7
 48
25.4
100
AcDbPolyline
 90
        2
 70
     0
 43
0.0
 10
110.9046408749
 20
139.1808423952
 10
110.9172885118
 20
139.1991010929
  0
LWPOLYLINE
  5
117
330
1F
100
AcDbEntity
  8
Layer18
  6
Continuous
 62
     7
 48
25.4
100
AcDbPolyline
 90
        2
 70
     0
 43
0.0
 10
110.8148076706
 20
139.2706755995
 10
110.874874802
 20
139.3573912128
  0
LWPOLYLINE
  5
118
330
1F
100
AcDbEntity
  8
Layer18
  6
Continuous
 62
     7
 48
25.4
100
AcDbPolyline
 90
        2
 70
     0
 43
0.0
 10
109.9539907601
 20
139.7909134319
 10
110.3315217591
 20
139.5294548906
  0
LWPOLYLINE
  5
119
330
1F
100
AcDbEntity
  8
Layer18
  6
Continuous
 62
     7
 48
25.4
100
AcDbPolyline
 90
        2
 70
     0
 43
0.0
 10
109.8128104173
 20
141.3364746377
 10
109.9994376581
 20
141.6058981191
  0
LWPOLYLINE
  5
11A
330
1F
100
AcDbEntity
  8
Layer18
  6
Continuous
 62
     7
 48
25.4
100
AcDbPolyline
 90
        2
 70
     0
 43
0.0
 10
109.7888886662
 20
141.4257518281
 10
110.1066794558
 20
141.2056662816
  0
LWPOLYLINE
  5
11B
330
1F
100
AcDbEntity
  8
Layer18
  6
Continuous
 62
     7
 48
25.4
100
AcDbPolyline
 90
        2
 70
     0
 43
0.0
 10
109.8552241271
 20
141.1781845177
 10
110.0418513679
 20
141.4476079992
  0
LWPOLYLINE
  5
11C
330
1F
100
AcDbEntity
  8
Layer18
  6
Continuous
 62
     7
 48
25.4
100
AcDbPolyline
 90
        2
 70
     0
 43
0.0
 10
109.8976378369
 20
141.0198943978
 10
110.0842650777
 20
141.2893178793
  0
LWPOLYLINE
  5
11D
330
1F
100
AcDbEntity
  8
Layer18
  6
Continuous
 62
     7
 48
25.4
100
AcDbPolyline
 90
        2
 70
     0
 43
0.0
 10
109.8389132113
 20
141.2390576844
 10
110.1567040008
 20
141.0189721378
  0
LWPOLYLINE
  5
11E
330
1F
100
AcDbEntity
  8
Layer18
  6
Continuous
 62
     7
 48
25.4
100
AcDbPolyline
 90
        2
 70
     0
 43
0.0
 10
109.9400515467
 20
140.8616042779
 10
110.1266787875
 20
141.1310277594
  0
LWPOLYLINE
  5
11F
330
1F
100
AcDbEntity
  8
Layer18
  6
Continuous
 62
     7
 48
25.4
100
AcDbPolyline
 90
        2
 70
     0
 43
0.0
 10
109.8889377563
 20
141.0523635406
 10
110.2067285459
 20
140.8322779941
  0
LWPOLYLINE
  5
120
330
1F
100
AcDbEntity
  8
Layer18
  6
Continuous
 62
     7
 48
25.4
100
AcDbPolyline
 90
        2
 70
     0
 43
0.0
 10
109.9824652565
 20
140.703314158
 10
110.1690924973
 20
140.9727376394
  0
LWPOLYLINE
  5
121
330
1F
100
AcDbEntity
  8
Layer18
  6
Continuous
 62
     7
 48
25.4
100
AcDbPolyline
 90
        2
 70
     0
 43
0.0
 10
109.9889868464
 20
140.678975253
 10
110.4295946882
 20
140.3738329366
  0
LWPOLYLINE
  5
122
330
1F
100
AcDbEntity
  8
Layer18
  6
Continuous
 62
     7
 48
25.4
100
AcDbPolyline
 90
        2
 70
     0
 43
0.0
 10
109.9389623014
 20
140.8656693968
 10
110.2567530909
 20
140.6455838503
  0
LWPOLYLINE
  5
123
330
1F
100
AcDbEntity
  8
Layer18
  6
Continuous
 62
     7
 48
25.4
100
AcDbPolyline
 90
        2
 70
     0
 43
0.0
 10
110.0248789663
 20
140.5450240381
 10
110.2115062071
 20
140.8144475195
  0
LWPOLYLINE
  5
124
330
1F
100
AcDbEntity
  8
Layer18
  6
Continuous
 62
     7
 48
25.4
100
AcDbPolyline
 90
        2
 70
     0
 43
0.0
 10
110.0156999633
 20
140.3122523567
 10
110.2539199169
 20
140.6561573996
  0
LWPOLYLINE
  5
125
330
1F
100
AcDbEntity
  8
Layer18
  6
Continuous
 62
     7
 48
25.4
100
AcDbPolyline
 90
        2
 70
     0
 43
0.0
 10
109.9197727209
 20
139.9542470139
 10
110.3001094282
 20
140.5033181966
  0
LWPOLYLINE
  5
126
330
1F
100
AcDbEntity
  8
Layer18
  6
Continuous
 62
     7
 48
25.4
100
AcDbPolyline
 90
        2
 70
     0
 43
0.0
 10
109.9553023087
 20
139.7860186658
 10
110.3899426325
 20
140.4134849923
  0
LWPOLYLINE
  5
127
330
1F
100
AcDbEntity
  8
Layer18
  6
Continuous
 62
     7
 48
25.4
100
AcDbPolyline
 90
        2
 70
     0
 43
0.0
 10
110.0390113915
 20
140.4922811092
 10
110.6919455378
 20
140.0400925212
  0
LWPOLYLINE
  5
128
330
1F
100
AcDbEntity
  8
Layer18
  6
Continuous
 62
     7
 48
25.4
100
AcDbPolyline
 90
        2
 70
     0
 43
0.0
 10
110.3373864871
 20
138.6130949723
 10
110.7011676135
 20
138.3611588852
  0
LWPOLYLINE
  5
129
330
1F
100
AcDbEntity
  8
Layer18
  6
Continuous
 62
     7
 48
25.4
100
AcDbPolyline
 90
        2
 70
     0
 43
0.0
 10
109.9977160185
 20
139.6277285459
 10
110.4797758368
 20
140.3236517881
  0
LWPOLYLINE
  5
12A
330
1F
100
AcDbEntity
  8
Layer18
  6
Continuous
 62
     7
 48
25.4
100
AcDbPolyline
 90
        2
 70
     0
 43
0.0
 10
110.0256722402
 20
140.3494694007
 10
110.7419700828
 20
139.8533983774
  0
LWPOLYLINE
  5
12B
330
1F
100
AcDbEntity
  8
Layer18
  6
Continuous
 62
     7
 48
25.4
100
AcDbPolyline
 90
        2
 70
     0
 43
0.0
 10
110.4405390598
 20
138.2913236747
 10
110.737734088
 20
138.7203677887
  0
LWPOLYLINE
  5
12C
330
1F
100
AcDbEntity
  8
Layer18
  6
Continuous
 62
     7
 48
25.4
100
AcDbPolyline
 90
        2
 70
     0
 43
0.0
 10
110.0401297283
 20
139.469438426
 10
110.569609041
 20
140.2338185838
  0
LWPOLYLINE
  5
12D
330
1F
100
AcDbEntity
  8
Layer18
  6
Continuous
 62
     7
 48
25.4
100
AcDbPolyline
 90
        2
 70
     0
 43
0.0
 10
110.0825434381
 20
139.3111483061
 10
110.6594422453
 20
140.1439853795
  0
LWPOLYLINE
  5
12E
330
1F
100
AcDbEntity
  8
Layer18
  6
Continuous
 62
     7
 48
25.4
100
AcDbPolyline
 90
        2
 70
     0
 43
0.0
 10
110.4956895351
 20
138.6555121462
 10
110.8594706615
 20
138.4035760591
  0
LWPOLYLINE
  5
12F
330
1F
100
AcDbEntity
  8
Layer18
  6
Continuous
 62
     7
 48
25.4
100
AcDbPolyline
 90
        2
 70
     0
 43
0.0
 10
110.4554748536
 20
139.6300084165
 10
110.7052199628
 20
139.9905516925
  0
LWPOLYLINE
  5
130
330
1F
100
AcDbEntity
  8
Layer18
  6
Continuous
 62
     7
 48
25.4
100
AcDbPolyline
 90
        2
 70
     0
 43
0.0
 10
110.5453080579
 20
139.5401752122
 10
110.7476336726
 20
139.8322615726
  0
LWPOLYLINE
  5
131
330
1F
100
AcDbEntity
  8
Layer18
  6
Continuous
 62
     7
 48
25.4
100
AcDbPolyline
 90
        2
 70
     0
 43
0.0
 10
110.6351412621
 20
139.450342008
 10
110.7900473824
 20
139.6739714527
  0
LWPOLYLINE
  5
132
330
1F
100
AcDbEntity
  8
Layer18
  6
Continuous
 62
     7
 48
25.4
100
AcDbPolyline
 90
        2
 70
     0
 43
0.0
 10
109.6928012715
 20
142.2608263336
 10
109.6944854
 20
142.2632576174
  0
LWPOLYLINE
  5
133
330
1F
100
AcDbEntity
  8
Layer18
  6
Continuous
 62
     7
 48
25.4
100
AcDbPolyline
 90
        2
 70
     0
 43
0.0
 10
109.6909297508
 20
142.2538417231
 10
109.7331202919
 20
142.2246227255
  0
LINE
  5
134
330
1F
100
AcDbEntity
  8
Layer18
  6
Continuous
 62
     7
 48
25.4
100
AcDbLine
 10
107.1228189106
 20
149.1673599886
 30
0.0
 11
109.8664923715
 21
147.5832993774
 31
0.0
  0
LINE
  5
135
330
1F
100
AcDbEntity
  8
Layer18
  6
Continuous
 62
     7
 48
25.4
100
AcDbLine
 10
108.4888553623
 20
149.5333883527
 30
0.0
 11
109.5985660716
 21
148.8926965759
 31
0.0
  0
LINE
  5
136
330
1F
100
AcDbEntity
  8
Layer18
  6
Continuous
 62
     7
 48
25.4
100
AcDbLine
 10
106.3501954972
 20
148.4587448596
 30
0.0
 11
108.5004800679
 21
147.2172774838
 31
0.0
  0
LINE
  5
137
330
1F
100
AcDbEntity
  8
Layer18
  6
Continuous
 62
     7
 48
25.4
100
AcDbLine
 10
108.3721326738
 20
147.1828869032
 30
0.0
 11
109.5227191504
 21
149.1757611393
 31
0.0
  0
LINE
  5
138
330
1F
100
AcDbEntity
  8
Layer18
  6
Continuous
 62
     7
 48
25.4
100
AcDbLine
 10
109.1994678834
 20
146.4937929076
 30
0.0
 11
110.4320281016
 21
145.7821739338
 31
0.0
  0
LINE
  5
139
330
1F
100
AcDbEntity
  8
Layer18
  6
Continuous
 62
     7
 48
25.4
100
AcDbLine
 10
107.1836575272
 20
145.3482222174
 30
0.0
 11
110.3615989566
 21
143.5134368777
 31
0.0
  0
LINE
  5
13A
330
1F
100
AcDbEntity
  8
Layer18
  6
Continuous
 62
     7
 48
25.4
100
AcDbLine
 10
112.9779210502
 20
136.2807720991
 30
0.0
 11
110.1715574794
 21
146.7542635298
 31
0.0
  0
LINE
  5
13B
330
1F
100
AcDbEntity
  8
Layer18
  6
Continuous
 62
     7
 48
25.4
100
AcDbLine
 10
107.8334314317
 20
146.1277645435
 30
0.0
 11
110.7980564657
 21
144.4161374821
 31
0.0
  0
LINE
  5
13C
330
1F
100
AcDbEntity
  8
Layer18
  6
Continuous
 62
     7
 48
25.4
100
AcDbLine
 10
107.929270588
 20
142.8616964557
 30
0.0
 11
110.1731702336
 21
146.748244649
 31
0.0
  0
LINE
  5
13D
330
1F
100
AcDbEntity
  8
Layer18
  6
Continuous
 62
     7
 48
25.4
100
AcDbLine
 10
106.4925718539
 20
147.9273890625
 30
0.0
 11
107.2241126872
 21
149.1945015743
 31
0.0
  0
LINE
  5
13E
330
1F
100
AcDbEntity
  8
Layer18
  6
Continuous
 62
     7
 48
25.4
100
AcDbLine
 10
107.5090513012
 20
144.1338361205
 30
0.0
 11
108.8115640567
 21
146.3898543905
 31
0.0
  0
LINE
  5
13F
330
1F
100
AcDbEntity
  8
Layer18
  6
Continuous
 62
     7
 48
25.4
100
AcDbLine
 10
107.5496858913
 20
143.9821857658
 30
0.0
 11
108.9955625049
 21
143.1474085137
 31
0.0
  0
LINE
  5
140
330
1F
100
AcDbEntity
  8
Layer18
  6
Continuous
 62
     7
 48
25.4
100
AcDbLine
 10
107.006118079
 20
146.8168643957
 30
0.0
 11
108.5901540877
 21
149.5605312644
 31
0.0
  0
LINE
  5
141
330
1F
100
AcDbEntity
  8
Layer18
  6
Continuous
 62
     7
 48
25.4
100
AcDbLine
 10
109.5628257174
 20
136.4690456519
 30
0.0
 11
110.8680975641
 21
135.7154465998
 31
0.0
  0
LINE
  5
142
330
1F
100
AcDbEntity
  8
Layer18
  6
Continuous
 62
     7
 48
25.4
100
AcDbLine
 10
107.1430229371
 20
145.4998725722
 30
0.0
 11
107.445527605
 21
146.0238260264
 31
0.0
  0
LINE
  5
143
330
1F
100
AcDbEntity
  8
Layer18
  6
Continuous
 62
     7
 48
25.4
100
AcDbLine
 10
110.196928071
 20
137.2576563645
 30
0.0
 11
112.2341340158
 21
136.0814749639
 31
0.0
  0
LINE
  5
144
330
1F
100
AcDbEntity
  8
Layer18
  6
Continuous
 62
     7
 48
25.4
100
AcDbLine
 10
109.7052020741
 20
135.9376898548
 30
0.0
 11
110.516763863
 21
137.3433561067
 31
0.0
  0
LINE
  5
145
330
1F
100
AcDbEntity
  8
Layer18
  6
Continuous
 62
     7
 48
25.4
100
AcDbLine
 10
110.7065706178
 20
135.672165585
 30
0.0
 11
111.8827691004
 21
137.7093761069
 31
0.0
  0
LINE
  5
146
330
1F
100
AcDbEntity
  8
Layer18
  6
Continuous
 62
     7
 48
25.4
100
AcDbLine
 10
112.0726070695
 20
136.0381939491
 30
0.0
 11
112.7353493706
 21
137.1860619316
 31
0.0
  0
LINE
  5
147
330
1F
100
AcDbEntity
  8
Layer18
  6
Continuous
 62
     7
 48
25.4
100
AcDbLine
 10
111.5629403746
 20
137.6236782581
 30
0.0
 11
112.8111962918
 21
136.9029973682
 31
0.0
  0
LINE
  5
148
330
1F
100
AcDbEntity
  8
Layer18
  6
Continuous
 62
     7
 48
25.4
100
AcDbLine
 10
107.032298544
 20
145.9131016332
 30
0.0
 11
109.8386621147
 21
135.4396102025
 31
0.0
  0
LINE
  5
149
330
1F
100
AcDbEntity
  8
Layer18
  6
Continuous
 62
     7
 48
25.4
100
AcDbLine
 10
109.2953070397
 20
143.2277248197
 30
0.0
 11
110.5391985977
 21
145.3822081973
 31
0.0
  0
LINE
  5
14A
330
1F
100
AcDbEntity
  8
Layer18
  6
Continuous
 62
     7
 48
25.4
100
AcDbLine
 10
110.6613193432
 20
143.5937467133
 30
0.0
 11
110.9052204913
 21
144.0161958938
 31
0.0
  0
LINE
  5
14B
330
1F
100
AcDbEntity
  8
Layer18
  6
CENTER2
 62
     7
 48
25.4
100
AcDbLine
 10
106.537927164
 20
145.7806352212
 30
0.0
 11
110.6101139163
 21
146.8717743729
 31
0.0
  0
LINE
  5
14C
330
1F
100
AcDbEntity
  8
Layer18
  6
CENTER2
 62
     7
 48
25.4
100
AcDbLine
 10
106.3102327148
 20
146.6304024743
 30
0.0
 11
110.3824194671
 21
147.721541626
 31
0.0
  0
LINE
  5
14D
330
1F
100
AcDbEntity
  8
Layer18
  6
Continuous
 62
     7
 48
25.4
100
AcDbLine
 10
109.4081498427
 20
137.0463038752
 30
0.0
 11
112.5474087781
 21
137.8874657718
 31
0.0
  0
LINE
  5
14E
330
1F
100
AcDbEntity
  8
Layer18
  6
Continuous
 62
     7
 48
25.4
100
AcDbLine
 10
107.855235572
 20
142.8418588329
 30
0.0
 11
110.9944945075
 21
143.6830207295
 31
0.0
  0
LINE
  5
14F
330
1F
100
AcDbEntity
  8
Layer18
  6
Continuous
 62
     7
 48
25.4
100
AcDbLine
 10
109.7471576805
 20
141.5814939872
 30
0.0
 11
109.4924904321
 21
141.5132561036
 31
0.0
  0
LINE
  5
150
330
1F
100
AcDbEntity
  8
Layer18
  6
Continuous
 62
     7
 48
25.4
100
AcDbLine
 10
110.0514749568
 20
140.4457664501
 30
0.0
 11
109.7471576805
 21
141.5814939872
 31
0.0
  0
LINE
  5
151
330
1F
100
AcDbEntity
  8
Layer18
  6
Continuous
 62
     7
 48
25.4
100
AcDbLine
 10
109.9149991898
 20
139.9364319534
 30
0.0
 11
110.0514749568
 21
140.4457664501
 31
0.0
  0
LINE
  5
152
330
1F
100
AcDbEntity
  8
Layer18
  6
Continuous
 62
     7
 48
25.4
100
AcDbLine
 10
110.1777850621
 20
138.9557017263
 30
0.0
 11
109.9149991898
 21
139.9364319534
 31
0.0
  0
LINE
  5
153
330
1F
100
AcDbEntity
  8
Layer18
  6
Continuous
 62
     7
 48
25.4
100
AcDbLine
 10
110.3789655905
 20
139.7065176796
 30
0.0
 11
110.1777850621
 21
138.9557017263
 31
0.0
  0
LINE
  5
154
330
1F
100
AcDbEntity
  8
Layer18
  6
Continuous
 62
     7
 48
25.4
100
AcDbLine
 10
110.9286010154
 20
139.1568822547
 30
0.0
 11
110.3789655905
 21
139.7065176796
 31
0.0
  0
LINE
  5
155
330
1F
100
AcDbEntity
  8
Layer18
  6
Continuous
 62
     7
 48
25.4
100
AcDbLine
 10
110.6658151431
 20
140.1376124817
 30
0.0
 11
110.9286010154
 21
139.1568822547
 31
0.0
  0
LINE
  5
156
330
1F
100
AcDbEntity
  8
Layer18
  6
Continuous
 62
     7
 48
25.4
100
AcDbLine
 10
110.2929564134
 20
140.5104712114
 30
0.0
 11
110.6658151431
 21
140.1376124817
 31
0.0
  0
LINE
  5
157
330
1F
100
AcDbEntity
  8
Layer18
  6
Continuous
 62
     7
 48
25.4
100
AcDbLine
 10
109.988639137
 20
141.6461987485
 30
0.0
 11
110.2929564134
 21
140.5104712114
 31
0.0
  0
LINE
  5
158
330
1F
100
AcDbEntity
  8
Layer18
  6
Continuous
 62
     7
 48
25.4
100
AcDbLine
 10
110.2433063854
 20
141.714436632
 30
0.0
 11
109.988639137
 21
141.6461987485
 31
0.0
  0
LINE
  5
159
330
1F
100
AcDbEntity
  8
Layer18
  6
Continuous
 62
     7
 48
25.4
100
AcDbLine
 10
109.6936709605
 20
142.264072057
 30
0.0
 11
110.2433063854
 21
141.714436632
 31
0.0
  0
LINE
  5
15A
330
1F
100
AcDbEntity
  8
Layer18
  6
Continuous
 62
     7
 48
25.4
100
AcDbLine
 10
109.4924904321
 20
141.5132561036
 30
0.0
 11
109.6936709605
 21
142.264072057
 31
0.0
  0
LINE
  5
15B
330
1F
100
AcDbEntity
  8
Layer18
  6
Continuous
 62
     7
 48
25.4
100
AcDbLine
 10
113.714118329
 20
130.9722883498
 30
0.0
 11
114.3082011168
 21
131.125650797
 31
0.0
  0
LINE
  5
15C
330
1F
100
AcDbEntity
  8
Layer18
  6
Continuous
 62
     7
 48
25.4
100
AcDbLine
 10
114.2935399267
 20
128.809857508
 30
0.0
 11
114.8847119368
 21
128.9740831255
 31
0.0
  0
LINE
  5
15D
330
1F
100
AcDbEntity
  8
Layer18
  6
Continuous
 62
     7
 48
25.4
100
AcDbLine
 10
112.4347600415
 20
128.3117989389
 30
0.0
 11
111.8553384438
 21
130.4742297806
 31
0.0
  0
LINE
  5
15E
330
1F
100
AcDbEntity
  8
Layer18
  6
Continuous
 62
     7
 48
25.4
100
AcDbLine
 10
111.840677254
 20
128.1584364905
 30
0.0
 11
111.264166434
 21
130.310004162
 31
0.0
  0
LINE
  5
15F
330
1F
100
AcDbEntity
  8
Layer18
  6
Continuous
 62
     7
 48
25.4
100
AcDbLine
 10
110.6916019415
 20
127.9390933602
 30
0.0
 11
110.1593664571
 21
129.9254232294
 31
0.0
  0
ARC
  5
160
330
1F
100
AcDbEntity
  8
Layer18
  6
Continuous
 62
     7
 48
25.4
100
AcDbCircle
 10
111.0142695071
 20
129.3682395812
 30
0.0
 40
1.465118862881688
100
AcDbArc
 50
257.2772796976
 51
304.3367005279
  0
LINE
  5
161
330
1F
100
AcDbEntity
  8
Layer18
  6
Continuous
 62
     7
 48
25.4
100
AcDbLine
 10
111.2408060729
 20
127.7919231456
 30
0.0
 11
110.6916019415
 21
127.9390933602
 31
0.0
  0
ARC
  5
162
330
1F
100
AcDbEntity
  8
Layer18
  6
Continuous
 62
     7
 48
25.4
100
AcDbCircle
 10
111.1533778765
 20
128.849080079
 30
0.0
 40
1.465118862321266
100
AcDbArc
 50
85.6632994644
 51
132.7227203024
  0
LINE
  5
163
330
1F
100
AcDbEntity
  8
Layer18
  6
Continuous
 62
     7
 48
25.4
100
AcDbLine
 10
110.1593664571
 20
129.9254232294
 30
0.0
 11
110.5614060795
 21
130.3274784396
 31
0.0
  0
LINE
  5
164
330
1F
100
AcDbEntity
  8
Layer18
  6
Continuous
 62
     7
 48
25.4
100
AcDbLine
 10
111.8553384438
 20
130.4742297806
 30
0.0
 11
111.264166434
 21
130.310004162
 31
0.0
  0
LINE
  5
165
330
1F
100
AcDbEntity
  8
Layer18
  6
Continuous
 62
     7
 48
25.4
100
AcDbLine
 10
112.4347600415
 20
128.3117989389
 30
0.0
 11
111.840677254
 21
128.1584364905
 31
0.0
  0
LINE
  5
166
330
1F
100
AcDbEntity
  8
Layer17
  6
Continuous
 62
     7
 48
25.4
100
AcDbLine
 10
103.434985539
 20
158.8554936254
 30
0.0
 11
104.3246760065
 21
155.5351235975
 31
0.0
  0
LINE
  5
167
330
1F
100
AcDbEntity
  8
Layer17
  6
Continuous
 62
     7
 48
25.4
100
AcDbLine
 10
100.5362892844
 20
172.571352802
 30
0.0
 11
103.2245571966
 21
162.5386003693
 31
0.0
  0
LINE
  5
168
330
1F
100
AcDbEntity
  8
Layer17
  6
Continuous
 62
     7
 48
25.4
100
AcDbLine
 10
105.3978903058
 20
163.1209432208
 30
0.0
 11
102.98307574
 21
162.473895608
 31
0.0
  0
LINE
  5
169
330
1F
100
AcDbEntity
  8
Layer17
  6
Continuous
 62
     7
 48
25.4
100
AcDbLine
 10
105.3978903058
 20
163.1209432208
 30
0.0
 11
105.8508236347
 21
161.4305730248
 31
0.0
  0
LINE
  5
16A
330
1F
100
AcDbEntity
  8
Layer17
  6
Continuous
 62
     7
 48
25.4
100
AcDbLine
 10
106.0319347271
 20
161.4791015957
 30
0.0
 11
106.4329931587
 21
159.9823311523
 31
0.0
  0
LINE
  5
16B
330
1F
100
AcDbEntity
  8
Layer17
  6
Continuous
 62
     7
 48
25.4
100
AcDbLine
 10
103.2548979765
 20
160.734996841
 30
0.0
 11
106.0319347271
 21
161.4791015957
 31
0.0
  0
LINE
  5
16C
330
1F
100
AcDbEntity
  8
Layer17
  6
Continuous
 62
     7
 48
25.4
100
AcDbLine
 10
106.815725931
 20
159.7613602832
 30
0.0
 11
107.7054163985
 21
156.4409902554
 31
0.0
  0
LINE
  5
16D
330
1F
100
AcDbEntity
  8
Layer17
  6
Continuous
 62
     7
 48
25.4
100
AcDbLine
 10
106.4329931587
 20
159.9823311523
 30
0.0
 11
106.815725931
 21
159.7613602832
 31
0.0
  0
LINE
  5
16E
330
1F
100
AcDbEntity
  8
Layer17
  6
Continuous
 62
     7
 48
25.4
100
AcDbLine
 10
107.7054163985
 20
156.4409902554
 30
0.0
 11
104.3246760065
 21
155.5351235975
 31
0.0
  0
LINE
  5
16F
330
1F
100
AcDbEntity
  8
Layer17
  6
Continuous
 62
     7
 48
25.4
100
AcDbLine
 10
104.1904830229
 20
162.7974194144
 30
0.0
 11
104.6434163518
 21
161.1070492184
 31
0.0
  0
LINE
  5
170
330
1F
100
AcDbEntity
  8
Layer17
  6
Continuous
 62
     7
 48
25.4
100
AcDbLine
 10
103.434985539
 20
158.8554936254
 30
0.0
 11
106.815725931
 21
159.7613602832
 31
0.0
  0
LINE
  5
171
330
1F
100
AcDbEntity
  8
Layer17
  6
Continuous
 62
     7
 48
25.4
100
AcDbLine
 10
103.6559564081
 20
159.2382263977
 30
0.0
 11
106.4329931587
 21
159.9823311523
 31
0.0
  0
LINE
  5
172
330
1F
100
AcDbEntity
  8
Layer17
  6
Continuous
 62
     7
 48
25.4
100
AcDbLine
 10
102.4474018901
 20
173.166390069
 30
0.0
 11
105.1564088492
 21
163.0562384595
 31
0.0
  0
LINE
  5
173
330
1F
100
AcDbEntity
  8
Layer17
  6
Continuous
 62
     7
 48
25.4
100
AcDbLine
 10
102.98307574
 20
162.473895608
 30
0.0
 11
103.436009069
 21
160.783525412
 31
0.0
  0
LINE
  5
174
330
1F
100
AcDbEntity
  8
Layer17
  6
Continuous
 62
     7
 48
25.4
100
AcDbLine
 10
103.6559564081
 20
159.2382263977
 30
0.0
 11
103.434985539
 21
158.8554936254
 31
0.0
  0
LINE
  5
175
330
1F
100
AcDbEntity
  8
Layer17
  6
Continuous
 62
     7
 48
25.4
100
AcDbLine
 10
103.2548979765
 20
160.734996841
 30
0.0
 11
103.6559564081
 21
159.2382263977
 31
0.0
  0
ARC
  5
176
330
1F
100
AcDbEntity
  8
Layer17
  6
Continuous
 62
     7
 48
25.4
100
AcDbCircle
 10
116.9362892844
 20
177.0486757455
 30
0.0
 40
15.0
100
AcDbArc
 50
180.0
 51
195.0
  0
LINE
  5
177
330
1F
100
AcDbEntity
  8
Layer18
  6
CENTER2
 62
     7
 48
25.4
100
AcDbLine
 10
86.8140911612
 20
129.701576489
 30
0.0
 11
85.2275507584
 21
123.7805270973
 31
0.0
  0
LINE
  5
178
330
1F
100
AcDbEntity
  8
Layer18
  6
Continuous
 62
     7
 48
25.4
100
AcDbLine
 10
95.4042702882
 20
155.4442002268
 30
0.0
 11
95.3072131462
 21
155.0819780419
 31
0.0
  0
LINE
  5
179
330
1F
100
AcDbEntity
  8
Layer18
  6
Continuous
 62
     7
 48
25.4
100
AcDbLine
 10
95.4184930397
 20
155.0521606843
 30
0.0
 11
95.3072131462
 21
155.0819780419
 31
0.0
  0
LINE
  5
17A
330
1F
100
AcDbEntity
  8
Layer18
  6
Continuous
 62
     7
 48
25.4
100
AcDbLine
 10
94.9008549495
 20
153.1203090318
 30
0.0
 11
95.4184930397
 21
155.0521606843
 31
0.0
  0
LINE
  5
17B
330
1F
100
AcDbEntity
  8
Layer18
  6
Continuous
 62
     7
 48
25.4
100
AcDbLine
 10
95.3072131462
 20
155.0819780419
 30
0.0
 11
95.3581226756
 21
155.0683368747
 31
0.0
  0
ARC
  5
17C
330
1F
100
AcDbEntity
  8
Layer18
  6
Continuous
 62
     7
 48
25.4
100
AcDbCircle
 10
94.5946687317
 20
152.9435323365
 30
0.0
 40
0.2500000000000226
100
AcDbArc
 50
345.0
 51
75.0
  0
LINE
  5
17D
330
1F
100
AcDbEntity
  8
Layer18
  6
Continuous
 62
     7
 48
25.4
100
AcDbLine
 10
91.5201145575
 20
154.0261756896
 30
0.0
 11
94.9008549495
 21
153.1203090318
 31
0.0
  0
LINE
  5
17E
330
1F
100
AcDbEntity
  8
Layer18
  6
Continuous
 62
     7
 48
25.4
100
AcDbLine
 10
93.7685216272
 20
148.8943835418
 30
0.0
 11
94.8361501883
 21
152.8788275752
 31
0.0
  0
ARC
  5
17F
330
1F
100
AcDbEntity
  8
Layer18
  6
Continuous
 62
     7
 48
25.4
100
AcDbCircle
 10
88.8455471648
 20
131.4875185497
 30
0.0
 40
0.2499999999203902
100
AcDbArc
 50
255.0
 51
345.0
  0
LINE
  5
180
330
1F
100
AcDbEntity
  8
Layer18
  6
Continuous
 62
     7
 48
25.4
100
AcDbLine
 10
89.0870286213
 20
131.4228137884
 30
0.0
 11
90.1546571823
 21
135.4072578219
 31
0.0
  0
LINE
  5
181
330
1F
100
AcDbEntity
  8
Layer18
  6
Continuous
 62
     7
 48
25.4
100
AcDbLine
 10
88.6317724959
 20
127.7919231456
 30
0.0
 11
84.2851062776
 21
128.9566088485
 31
0.0
  0
ARC
  5
182
330
1F
100
AcDbEntity
  8
Layer18
  6
Continuous
 62
     7
 48
25.4
100
AcDbCircle
 10
87.8751412267
 20
133.6614692426
 30
0.0
 40
5.367515580080103
100
AcDbArc
 50
244.673400594
 51
265.326599406
  0
LINE
  5
183
330
1F
100
AcDbEntity
  8
Layer18
  6
Continuous
 62
     7
 48
25.4
100
AcDbLine
 10
86.7739167903
 20
136.3131244797
 30
0.0
 11
90.1546571823
 21
135.4072578219
 31
0.0
  0
LINE
  5
184
330
1F
100
AcDbEntity
  8
Layer18
  6
Continuous
 62
     7
 48
25.4
100
AcDbLine
 10
85.5790386421
 20
128.809857508
 30
0.0
 11
86.1584602398
 21
130.9722883498
 31
0.0
  0
LINE
  5
185
330
1F
100
AcDbEntity
  8
Layer18
  6
Continuous
 62
     7
 48
25.4
100
AcDbLine
 10
84.987866632
 20
128.9740831255
 30
0.0
 11
85.564377452
 21
131.125650797
 31
0.0
  0
LINE
  5
186
330
1F
100
AcDbEntity
  8
Layer18
  6
Continuous
 62
     7
 48
25.4
100
AcDbLine
 10
83.8830666553
 20
129.3586640588
 30
0.0
 11
84.4153021397
 21
131.3449939279
 31
0.0
  0
ARC
  5
187
330
1F
100
AcDbEntity
  8
Layer18
  6
Continuous
 62
     7
 48
25.4
100
AcDbCircle
 10
84.8770780747
 20
130.4350072091
 30
0.0
 40
1.465118862881688
100
AcDbArc
 50
227.2772796976
 51
274.3367005279
  0
LINE
  5
188
330
1F
100
AcDbEntity
  8
Layer18
  6
Continuous
 62
     7
 48
25.4
100
AcDbLine
 10
84.2851062776
 20
128.9566088485
 30
0.0
 11
83.8830666553
 21
129.3586640588
 31
0.0
  0
LINE
  5
189
330
1F
100
AcDbEntity
  8
Layer18
  6
Continuous
 62
     7
 48
25.4
100
AcDbLine
 10
95.4551798175
 20
155.4305590595
 30
0.0
 11
92.1951801538
 21
156.3040733367
 31
0.0
  0
LINE
  5
18A
330
1F
100
AcDbEntity
  8
Layer18
  6
Continuous
 62
     7
 48
25.4
100
AcDbLine
 10
90.3877812352
 20
149.8002501996
 30
0.0
 11
93.7685216272
 21
148.8943835418
 31
0.0
  0
LINE
  5
18B
330
1F
100
AcDbEntity
  8
Layer18
  6
Continuous
 62
     7
 48
25.4
100
AcDbLine
 10
95.4551798175
 20
155.4305590595
 30
0.0
 11
95.3581226756
 21
155.0683368747
 31
0.0
  0
LINE
  5
18C
330
1F
100
AcDbEntity
  8
Layer18
  6
Continuous
 62
     7
 48
25.4
100
AcDbLine
 10
93.9356083501
 20
150.5428069824
 30
0.0
 11
94.4505288403
 21
152.4645164138
 31
0.0
  0
LINE
  5
18D
330
1F
100
AcDbEntity
  8
Layer18
  6
Continuous
 62
     7
 48
25.4
100
AcDbLine
 10
91.5634152614
 20
151.1784342048
 30
0.0
 11
92.0783357516
 21
153.1001436362
 31
0.0
  0
LINE
  5
18E
330
1F
100
AcDbEntity
  8
Layer18
  6
Continuous
 62
     7
 48
25.4
100
AcDbLine
 10
92.6855818669
 20
156.1726705937
 30
0.0
 11
92.588524725
 21
155.8104484089
 31
0.0
  0
LINE
  5
18F
330
1F
100
AcDbEntity
  8
Layer18
  6
Continuous
 62
     7
 48
25.4
100
AcDbLine
 10
94.9647781044
 20
155.5619618025
 30
0.0
 11
94.8677209625
 21
155.1997396177
 31
0.0
  0
LINE
  5
190
330
1F
100
AcDbEntity
  8
Layer18
  6
Continuous
 62
     7
 48
25.4
100
AcDbLine
 10
94.2561236086
 20
153.2930642739
 30
0.0
 11
94.7737616988
 21
155.2249159265
 31
0.0
  0
LINE
  5
191
330
1F
100
AcDbEntity
  8
Layer18
  6
Continuous
 62
     7
 48
25.4
100
AcDbLine
 10
94.2646828707
 20
155.749551755
 30
0.0
 11
94.1676257288
 21
155.3873295702
 31
0.0
  0
LINE
  5
192
330
1F
100
AcDbEntity
  8
Layer18
  6
Continuous
 62
     7
 48
25.4
100
AcDbLine
 10
94.1676257288
 20
155.3873295702
 30
0.0
 11
94.8677209625
 21
155.1997396177
 31
0.0
  0
LINE
  5
193
330
1F
100
AcDbEntity
  8
Layer18
  6
Continuous
 62
     7
 48
25.4
100
AcDbLine
 10
93.3856771006
 20
155.9850806412
 30
0.0
 11
93.2886199587
 21
155.6228584564
 31
0.0
  0
LINE
  5
194
330
1F
100
AcDbEntity
  8
Layer18
  6
Continuous
 62
     7
 48
25.4
100
AcDbLine
 10
92.5830917812
 20
153.741351801
 30
0.0
 11
93.1007298714
 21
155.6732034535
 31
0.0
  0
ARC
  5
195
330
1F
100
AcDbEntity
  8
Layer18
  6
Continuous
 62
     7
 48
25.4
100
AcDbCircle
 10
91.3219338048
 20
151.243138966
 30
0.0
 40
0.25000000015809
100
AcDbArc
 50
255.0
 51
345.0
  0
LINE
  5
196
330
1F
100
AcDbEntity
  8
Layer18
  6
Continuous
 62
     7
 48
25.4
100
AcDbLine
 10
91.2572290436
 20
151.0016575095
 30
0.0
 11
91.2440683042
 21
151.0051839189
 31
0.0
  0
LINE
  5
197
330
1F
100
AcDbEntity
  8
Layer18
  6
Continuous
 62
     7
 48
25.4
100
AcDbLine
 10
93.8378777258
 20
153.4051329204
 30
0.0
 11
94.3555158161
 21
155.336984573
 31
0.0
  0
LINE
  5
198
330
1F
100
AcDbEntity
  8
Layer18
  6
Continuous
 62
     7
 48
25.4
100
AcDbLine
 10
92.0981230119
 20
155.9418511519
 30
0.0
 11
92.0377526477
 21
155.9580273422
 31
0.0
  0
LINE
  5
199
330
1F
100
AcDbEntity
  8
Layer18
  6
Continuous
 62
     7
 48
25.4
100
AcDbLine
 10
92.0377526477
 20
155.9580273422
 30
0.0
 11
91.5201145575
 21
154.0261756896
 31
0.0
  0
LINE
  5
19A
330
1F
100
AcDbEntity
  8
Layer18
  6
Continuous
 62
     7
 48
25.4
100
AcDbLine
 10
95.3788655427
 20
155.5804169304
 30
0.0
 11
95.3465131621
 21
155.4596762021
 31
0.0
  0
LINE
  5
19B
330
1F
100
AcDbEntity
  8
Layer18
  6
Continuous
 62
     7
 48
25.4
100
AcDbLine
 10
90.3877812352
 20
149.8002501996
 30
0.0
 11
91.4554097962
 21
153.7846942331
 31
0.0
  0
LINE
  5
19C
330
1F
100
AcDbEntity
  8
Layer18
  6
Continuous
 62
     7
 48
25.4
100
AcDbLine
 10
92.1951801538
 20
156.3040733367
 30
0.0
 11
92.0981230119
 21
155.9418511519
 31
0.0
  0
ARC
  5
19D
330
1F
100
AcDbEntity
  8
Layer18
  6
Continuous
 62
     7
 48
25.4
100
AcDbCircle
 10
92.8636721643
 20
150.8300314177
 30
0.0
 40
0.2499999999203705
100
AcDbArc
 50
255.0
 51
345.0
  0
ARC
  5
19E
330
1F
100
AcDbEntity
  8
Layer18
  6
Continuous
 62
     7
 48
25.4
100
AcDbCircle
 10
94.1958866443
 20
152.5327475845
 30
0.0
 40
0.2500000001580474
100
AcDbArc
 50
75.0
 51
165.0
  0
LINE
  5
19F
330
1F
100
AcDbEntity
  8
Layer18
  6
Continuous
 62
     7
 48
25.4
100
AcDbLine
 10
93.081075231
 20
153.0902794476
 30
0.0
 11
92.7188530461
 21
153.1873365895
 31
0.0
  0
ARC
  5
1A0
330
1F
100
AcDbEntity
  8
Layer18
  6
Continuous
 62
     7
 48
25.4
100
AcDbCircle
 10
92.6541482848
 20
152.9458551329
 30
0.0
 40
0.2499999998805518
100
AcDbArc
 50
75.0
 51
165.0
  0
LINE
  5
1A1
330
1F
100
AcDbEntity
  8
Layer18
  6
Continuous
 62
     7
 48
25.4
100
AcDbLine
 10
92.4367452182
 20
150.685607103
 30
0.0
 11
92.0745230333
 21
150.7826642449
 31
0.0
  0
LINE
  5
1A2
330
1F
100
AcDbEntity
  8
Layer18
  6
Continuous
 62
     7
 48
25.4
100
AcDbLine
 10
92.2460896831
 20
156.2904321695
 30
0.0
 11
92.1490325412
 21
155.9282099846
 31
0.0
  0
LINE
  5
1A3
330
1F
100
AcDbEntity
  8
Layer18
  6
Continuous
 62
     7
 48
25.4
100
AcDbLine
 10
92.588524725
 20
155.8104484089
 30
0.0
 11
93.2886199587
 21
155.6228584564
 31
0.0
  0
ARC
  5
1A4
330
1F
100
AcDbEntity
  8
Layer18
  6
Continuous
 62
     7
 48
25.4
100
AcDbCircle
 10
94.2090473837
 20
152.529221175
 30
0.0
 40
0.249999999880592
100
AcDbArc
 50
345.0
 51
75.0
  0
LINE
  5
1A5
330
1F
100
AcDbEntity
  8
Layer18
  6
Continuous
 62
     7
 48
25.4
100
AcDbLine
 10
92.1648338244
 20
153.8534236827
 30
0.0
 11
92.6824719146
 21
155.7852753353
 31
0.0
  0
LINE
  5
1A6
330
1F
100
AcDbEntity
  8
Layer18
  6
Continuous
 62
     7
 48
25.4
100
AcDbLine
 10
92.0981230119
 20
155.9418511519
 30
0.0
 11
92.1490325412
 21
155.9282099846
 31
0.0
  0
LINE
  5
1A7
330
1F
100
AcDbEntity
  8
Layer18
  6
Continuous
 62
     7
 48
25.4
100
AcDbLine
 10
91.897746338
 20
151.0888504628
 30
0.0
 11
92.4126668283
 21
153.0105598942
 31
0.0
  0
ARC
  5
1A8
330
1F
100
AcDbEntity
  8
Layer18
  6
Continuous
 62
     7
 48
25.4
100
AcDbCircle
 10
85.7211375403
 20
125.6226180455
 30
0.0
 40
5.367515580605579
100
AcDbArc
 50
64.673400595
 51
85.326599405
  0
LINE
  5
1A9
330
1F
100
AcDbEntity
  8
Layer18
  6
Continuous
 62
     7
 48
25.4
100
AcDbLine
 10
88.6601016752
 20
131.2783894738
 30
0.0
 11
88.4659873913
 21
130.553945104
 31
0.0
  0
LINE
  5
1AA
330
1F
100
AcDbEntity
  8
Layer18
  6
Continuous
 62
     7
 48
25.4
100
AcDbLine
 10
88.5306921526
 20
130.7954265606
 30
0.0
 11
88.6601016752
 21
131.2783894738
 31
0.0
  0
LINE
  5
1AB
330
1F
100
AcDbEntity
  8
Layer18
  6
Continuous
 62
     7
 48
25.4
100
AcDbLine
 10
84.964506271
 20
131.4921641425
 30
0.0
 11
89.3111724893
 21
130.3274784396
 31
0.0
  0
ARC
  5
1AC
330
1F
100
AcDbEntity
  8
Layer18
  6
Continuous
 62
     7
 48
25.4
100
AcDbCircle
 10
84.7379697053
 20
129.9158477069
 30
0.0
 40
1.465118862321266
100
AcDbArc
 50
55.6632994644
 51
102.7227203024
  0
LINE
  5
1AD
330
1F
100
AcDbEntity
  8
Layer18
  6
Continuous
 62
     7
 48
25.4
100
AcDbLine
 10
84.4153021397
 20
131.3449939279
 30
0.0
 11
84.964506271
 21
131.4921641425
 31
0.0
  0
LINE
  5
1AE
330
1F
100
AcDbEntity
  8
Layer18
  6
Continuous
 62
     7
 48
25.4
100
AcDbLine
 10
85.809691369
 20
131.2656974781
 30
0.0
 11
86.0038056529
 21
131.9901418478
 31
0.0
  0
LINE
  5
1AF
330
1F
100
AcDbEntity
  8
Layer18
  6
Continuous
 62
     7
 48
25.4
100
AcDbLine
 10
88.7808424035
 20
131.2460370931
 30
0.0
 11
87.331953664
 21
131.6342656608
 31
0.0
  0
LINE
  5
1B0
330
1F
100
AcDbEntity
  8
Layer18
  6
Continuous
 62
     7
 48
25.4
100
AcDbLine
 10
87.8873610141
 20
131.4854447098
 30
0.0
 11
88.6601016752
 21
131.2783894738
 31
0.0
  0
LINE
  5
1B1
330
1F
100
AcDbEntity
  8
Layer18
  6
Continuous
 62
     7
 48
25.4
100
AcDbLine
 10
87.331953664
 20
131.6342656608
 30
0.0
 11
85.8830649245
 21
132.0224942285
 31
0.0
  0
ARC
  5
1B2
330
1F
100
AcDbEntity
  8
Layer18
  6
Continuous
 62
     7
 48
25.4
100
AcDbCircle
 10
88.7187448619
 20
132.0391332146
 30
0.0
 40
0.2499999999203874
100
AcDbArc
 50
255.0
 51
345.0
  0
LINE
  5
1B3
330
1F
100
AcDbEntity
  8
Layer18
  6
Continuous
 62
     7
 48
25.4
100
AcDbLine
 10
88.6408793612
 20
131.8011781675
 30
0.0
 11
88.6540401006
 21
131.797651758
 31
0.0
  0
ARC
  5
1B4
330
1F
100
AcDbEntity
  8
Layer18
  6
Continuous
 62
     7
 48
25.4
100
AcDbCircle
 10
88.7055841225
 20
132.042659624
 30
0.0
 40
0.2500000001053639
100
AcDbArc
 50
165.0
 51
255.0
  0
ARC
  5
1B5
330
1F
100
AcDbEntity
  8
Layer18
  6
Continuous
 62
     7
 48
25.4
100
AcDbCircle
 10
85.9477696857
 20
132.263975685
 30
0.0
 40
0.2499999998805977
100
AcDbArc
 50
165.0
 51
255.0
  0
ARC
  5
1B6
330
1F
100
AcDbEntity
  8
Layer18
  6
Continuous
 62
     7
 48
25.4
100
AcDbCircle
 10
87.8882901327
 20
132.2616528886
 30
0.0
 40
0.2499999999204376
100
AcDbArc
 50
255.0
 51
345.0
  0
LINE
  5
1B7
330
1F
100
AcDbEntity
  8
Layer18
  6
Continuous
 62
     7
 48
25.4
100
AcDbLine
 10
87.4613631866
 20
132.1172285739
 30
0.0
 11
87.8235853714
 21
132.020171432
 31
0.0
  0
LINE
  5
1B8
330
1F
100
AcDbEntity
  8
Layer18
  6
Continuous
 62
     7
 48
25.4
100
AcDbLine
 10
88.9602263184
 20
131.9744284533
 30
0.0
 11
89.4751468087
 21
133.8961378847
 31
0.0
  0
LINE
  5
1B9
330
1F
100
AcDbEntity
  8
Layer18
  6
Continuous
 62
     7
 48
25.4
100
AcDbLine
 10
87.4613631866
 20
132.1172285739
 30
0.0
 11
87.0991410017
 21
132.2142857158
 31
0.0
  0
LINE
  5
1BA
330
1F
100
AcDbEntity
  8
Layer18
  6
Continuous
 62
     7
 48
25.4
100
AcDbLine
 10
88.4641026659
 20
132.1073643853
 30
0.0
 11
88.9790231561
 21
134.0290738167
 31
0.0
  0
ARC
  5
1BB
330
1F
100
AcDbEntity
  8
Layer18
  6
Continuous
 62
     7
 48
25.4
100
AcDbCircle
 10
87.163845763
 20
132.4557671724
 30
0.0
 40
0.2499999998805667
100
AcDbArc
 50
165.0
 51
255.0
  0
LINE
  5
1BC
330
1F
100
AcDbEntity
  8
Layer18
  6
Continuous
 62
     7
 48
25.4
100
AcDbLine
 10
88.1297715893
 20
132.1969481273
 30
0.0
 11
88.6446920795
 21
134.1186575587
 31
0.0
  0
LINE
  5
1BD
330
1F
100
AcDbEntity
  8
Layer18
  6
Continuous
 62
     7
 48
25.4
100
AcDbLine
 10
85.7062882293
 20
132.3286804463
 30
0.0
 11
86.7739167903
 21
136.3131244797
 31
0.0
  0
ARC
  5
1BE
330
1F
100
AcDbEntity
  8
Layer18
  6
Continuous
 62
     7
 48
25.4
100
AcDbCircle
 10
86.3465517732
 20
132.6747604369
 30
0.0
 40
0.2500000001580869
100
AcDbArc
 50
255.0
 51
345.0
  0
LINE
  5
1BF
330
1F
100
AcDbEntity
  8
Layer18
  6
Continuous
 62
     7
 48
25.4
100
AcDbLine
 10
86.2818470119
 20
132.4332789804
 30
0.0
 11
86.2686862726
 21
132.4368053899
 31
0.0
  0
ARC
  5
1C0
330
1F
100
AcDbEntity
  8
Layer18
  6
Continuous
 62
     7
 48
25.4
100
AcDbCircle
 10
86.3333910338
 20
132.6782868464
 30
0.0
 40
0.2499999998805952
100
AcDbArc
 50
165.0
 51
255.0
  0
LINE
  5
1C1
330
1F
100
AcDbEntity
  8
Layer18
  6
Continuous
 62
     7
 48
25.4
100
AcDbLine
 10
86.9223643064
 20
132.5204719337
 30
0.0
 11
87.4372847966
 21
134.4421813651
 31
0.0
  0
LINE
  5
1C2
330
1F
100
AcDbEntity
  8
Layer18
  6
Continuous
 62
     7
 48
25.4
100
AcDbLine
 10
86.5880332298
 20
132.6100556757
 30
0.0
 11
87.10295372
 21
134.5317651071
 31
0.0
  0
LINE
  5
1C3
330
1F
100
AcDbEntity
  8
Layer18
  6
Continuous
 62
     7
 48
25.4
100
AcDbLine
 10
86.0919095773
 20
132.7429916077
 30
0.0
 11
86.6068300675
 21
134.6647010391
 31
0.0
  0
ARC
  5
1C4
330
1F
100
AcDbEntity
  8
Layer18
  6
Continuous
 62
     7
 48
25.4
100
AcDbCircle
 10
89.2336653521
 20
133.960842646
 30
0.0
 40
0.2499999998805803
100
AcDbArc
 50
345.0
 51
75.0
  0
ARC
  5
1C5
330
1F
100
AcDbEntity
  8
Layer18
  6
Continuous
 62
     7
 48
25.4
100
AcDbCircle
 10
89.2205046127
 20
133.9643690554
 30
0.0
 40
0.2500000001580685
100
AcDbArc
 50
75.0
 51
165.0
  0
ARC
  5
1C6
330
1F
100
AcDbEntity
  8
Layer18
  6
Continuous
 62
     7
 48
25.4
100
AcDbCircle
 10
88.4032106229
 20
134.18336232
 30
0.0
 40
0.2499999999204141
100
AcDbArc
 50
345.0
 51
75.0
  0
LINE
  5
1C7
330
1F
100
AcDbEntity
  8
Layer18
  6
Continuous
 62
     7
 48
25.4
100
AcDbLine
 10
89.285209374
 20
134.205850512
 30
0.0
 11
89.2983701134
 21
134.2023241025
 31
0.0
  0
ARC
  5
1C8
330
1F
100
AcDbEntity
  8
Layer18
  6
Continuous
 62
     7
 48
25.4
100
AcDbCircle
 10
87.6787662532
 20
134.3774766038
 30
0.0
 40
0.2499999998805522
100
AcDbArc
 50
75.0
 51
165.0
  0
LINE
  5
1C9
330
1F
100
AcDbEntity
  8
Layer18
  6
Continuous
 62
     7
 48
25.4
100
AcDbLine
 10
88.1056931994
 20
134.5219009185
 30
0.0
 11
88.4679153842
 21
134.4248437766
 31
0.0
  0
ARC
  5
1CA
330
1F
100
AcDbEntity
  8
Layer18
  6
Continuous
 62
     7
 48
25.4
100
AcDbCircle
 10
86.8614722635
 20
134.5964698683
 30
0.0
 40
0.2500000002107474
100
AcDbArc
 50
345.0
 51
75.0
  0
LINE
  5
1CB
330
1F
100
AcDbEntity
  8
Layer18
  6
Continuous
 62
     7
 48
25.4
100
AcDbLine
 10
88.1056931994
 20
134.5219009185
 30
0.0
 11
87.7434710145
 21
134.6189580604
 31
0.0
  0
ARC
  5
1CC
330
1F
100
AcDbEntity
  8
Layer18
  6
Continuous
 62
     7
 48
25.4
100
AcDbCircle
 10
86.8483115241
 20
134.5999962778
 30
0.0
 40
0.2499999998407495
100
AcDbArc
 50
75.0
 51
165.0
  0
LINE
  5
1CD
330
1F
100
AcDbEntity
  8
Layer18
  6
Continuous
 62
     7
 48
25.4
100
AcDbLine
 10
86.9261770247
 20
134.8379513249
 30
0.0
 11
86.9130162853
 21
134.8414777344
 31
0.0
  0
LWPOLYLINE
  5
1CE
330
1F
100
AcDbEntity
  8
Layer18
  6
Continuous
 62
     7
 48
25.4
100
AcDbPolyline
 90
        2
 70
     0
 43
0.0
 10
89.618754865
 20
138.2412934459
 10
89.3215598368
 20
138.6703375598
  0
LWPOLYLINE
  5
1CF
330
1F
100
AcDbEntity
  8
Layer18
  6
Continuous
 62
     7
 48
25.4
100
AcDbPolyline
 90
        2
 70
     0
 43
0.0
 10
89.805470221
 20
138.191263217
 10
89.5082751928
 20
138.620307331
  0
LWPOLYLINE
  5
1D0
330
1F
100
AcDbEntity
  8
Layer18
  6
Continuous
 62
     7
 48
25.4
100
AcDbPolyline
 90
        2
 70
     0
 43
0.0
 10
89.6934951298
 20
138.5706777984
 10
89.3297140033
 20
138.3187417114
  0
LWPOLYLINE
  5
1D1
330
1F
100
AcDbEntity
  8
Layer18
  6
Continuous
 62
     7
 48
25.4
100
AcDbPolyline
 90
        2
 70
     0
 43
0.0
 10
89.992185577
 20
138.1412329882
 10
89.6949905488
 20
138.5702771021
  0
LWPOLYLINE
  5
1D2
330
1F
100
AcDbEntity
  8
Layer18
  6
Continuous
 62
     7
 48
25.4
100
AcDbPolyline
 90
        2
 70
     0
 43
0.0
 10
89.8517981778
 20
138.5282606246
 10
89.4880170513
 20
138.2763245375
  0
LWPOLYLINE
  5
1D3
330
1F
100
AcDbEntity
  8
Layer18
  6
Continuous
 62
     7
 48
25.4
100
AcDbPolyline
 90
        2
 70
     0
 43
0.0
 10
90.0101012258
 20
138.4858434507
 10
89.6463200994
 20
138.2339073636
  0
LWPOLYLINE
  5
1D4
330
1F
100
AcDbEntity
  8
Layer18
  6
Continuous
 62
     7
 48
25.4
100
AcDbPolyline
 90
        2
 70
     0
 43
0.0
 10
90.0401253584
 20
138.2915454226
 10
89.8817059048
 20
138.5202468733
  0
LWPOLYLINE
  5
1D5
330
1F
100
AcDbEntity
  8
Layer18
  6
Continuous
 62
     7
 48
25.4
100
AcDbPolyline
 90
        2
 70
     0
 43
0.0
 10
90.0825390682
 20
138.4498355425
 10
90.0684212608
 20
138.4702166444
  0
LWPOLYLINE
  5
1D6
330
1F
100
AcDbEntity
  8
Layer18
  6
Continuous
 62
     7
 48
25.4
100
AcDbPolyline
 90
        2
 70
     0
 43
0.0
 10
90.0608660828
 20
138.3689508599
 10
89.8046231474
 20
138.1914901897
  0
LWPOLYLINE
  5
1D7
330
1F
100
AcDbEntity
  8
Layer18
  6
Continuous
 62
     7
 48
25.4
100
AcDbPolyline
 90
        2
 70
     0
 43
0.0
 10
90.0108415378
 20
138.1822567161
 10
89.9629261954
 20
138.1490730158
  0
LINE
  5
1D8
330
1F
100
AcDbEntity
  8
Layer18
  6
Continuous
 62
     7
 48
25.4
100
AcDbLine
 10
93.1051536209
 20
150.7653266564
 30
0.0
 11
93.6200741111
 21
152.6870360878
 31
0.0
  0
LWPOLYLINE
  5
1D9
330
1F
100
AcDbEntity
  8
Layer18
  6
Continuous
 62
     7
 48
25.4
100
AcDbPolyline
 90
        2
 70
     0
 43
0.0
 10
89.1476041024
 20
139.3605088037
 10
89.0401174766
 20
139.5156813327
  0
LWPOLYLINE
  5
1DA
330
1F
100
AcDbEntity
  8
Layer18
  6
Continuous
 62
     7
 48
25.4
100
AcDbPolyline
 90
        2
 70
     0
 43
0.0
 10
90.3534719668
 20
141.6125890021
 10
90.2574789057
 20
141.5461091481
  0
LWPOLYLINE
  5
1DB
330
1F
100
AcDbEntity
  8
Layer18
  6
Continuous
 62
     7
 48
25.4
100
AcDbPolyline
 90
        2
 70
     0
 43
0.0
 10
89.9500002178
 20
139.9647177681
 10
89.5066921799
 20
139.6577054348
  0
LWPOLYLINE
  5
1DC
330
1F
100
AcDbEntity
  8
Layer18
  6
Continuous
 62
     7
 48
25.4
100
AcDbPolyline
 90
        2
 70
     0
 43
0.0
 10
89.8685632637
 20
139.6042192881
 10
89.5754214394
 20
139.4012043464
  0
LWPOLYLINE
  5
1DD
330
1F
100
AcDbEntity
  8
Layer18
  6
Continuous
 62
     7
 48
25.4
100
AcDbPolyline
 90
        2
 70
     0
 43
0.0
 10
89.8185387186
 20
139.4175251443
 10
89.6097860692
 20
139.2729538023
  0
LWPOLYLINE
  5
1DE
330
1F
100
AcDbEntity
  8
Layer18
  6
Continuous
 62
     7
 48
25.4
100
AcDbPolyline
 90
        2
 70
     0
 43
0.0
 10
90.3716317823
 20
141.5448156481
 10
89.9984267602
 20
142.0835912088
  0
LWPOLYLINE
  5
1DF
330
1F
100
AcDbEntity
  8
Layer18
  6
Continuous
 62
     7
 48
25.4
100
AcDbPolyline
 90
        2
 70
     0
 43
0.0
 10
90.2757045398
 20
141.9028209909
 10
90.0882599645
 20
142.1734244131
  0
LWPOLYLINE
  5
1E0
330
1F
100
AcDbEntity
  8
Layer18
  6
Continuous
 62
     7
 48
25.4
100
AcDbPolyline
 90
        2
 70
     0
 43
0.0
 10
90.2160134478
 20
142.1255911789
 10
89.6449095862
 20
141.7300740348
  0
LWPOLYLINE
  5
1E1
330
1F
100
AcDbEntity
  8
Layer18
  6
Continuous
 62
     7
 48
25.4
100
AcDbPolyline
 90
        2
 70
     0
 43
0.0
 10
90.319107337
 20
141.7408395463
 10
89.8159236581
 20
141.3923604254
  0
LWPOLYLINE
  5
1E2
330
1F
100
AcDbEntity
  8
Layer18
  6
Continuous
 62
     7
 48
25.4
100
AcDbPolyline
 90
        2
 70
     0
 43
0.0
 10
90.2098324557
 20
141.5588759759
 10
89.908593556
 20
141.9937580046
  0
LWPOLYLINE
  5
1E3
330
1F
100
AcDbEntity
  8
Layer18
  6
Continuous
 62
     7
 48
25.4
100
AcDbPolyline
 90
        2
 70
     0
 43
0.0
 10
90.2503780775
 20
141.9973406347
 10
89.7825697616
 20
141.6733606697
  0
LWPOLYLINE
  5
1E4
330
1F
100
AcDbEntity
  8
Layer18
  6
Continuous
 62
     7
 48
25.4
100
AcDbPolyline
 90
        2
 70
     0
 43
0.0
 10
90.2847427073
 20
141.8690900905
 10
89.8659482031
 20
141.5790545692
  0
LWPOLYLINE
  5
1E5
330
1F
100
AcDbEntity
  8
Layer18
  6
Continuous
 62
     7
 48
25.4
100
AcDbPolyline
 90
        2
 70
     0
 43
0.0
 10
90.1021818613
 20
141.4947647576
 10
89.8187603517
 20
141.9039248003
  0
LWPOLYLINE
  5
1E6
330
1F
100
AcDbEntity
  8
Layer18
  6
Continuous
 62
     7
 48
25.4
100
AcDbPolyline
 90
        2
 70
     0
 43
0.0
 10
89.6496863876
 20
141.7089666625
 10
89.6390939432
 20
141.7242583918
  0
LWPOLYLINE
  5
1E7
330
1F
100
AcDbEntity
  8
Layer18
  6
Continuous
 62
     7
 48
25.4
100
AcDbPolyline
 90
        2
 70
     0
 43
0.0
 10
89.8364017436
 20
141.6589364336
 10
89.7289271475
 20
141.8140915961
  0
ARC
  5
1E8
330
1F
100
AcDbEntity
  8
Layer18
  6
Continuous
 62
     7
 48
25.4
100
AcDbCircle
 10
91.6968912528
 20
153.7199894718
 30
0.0
 40
0.2499999999999498
100
AcDbArc
 50
75.0
 51
165.0
  0
LINE
  5
1E9
330
1F
100
AcDbEntity
  8
Layer18
  6
Continuous
 62
     7
 48
25.4
100
AcDbLine
 10
93.4394846975
 20
150.6757429144
 30
0.0
 11
93.9544051878
 21
152.5974523458
 31
0.0
  0
LINE
  5
1EA
330
1F
100
AcDbEntity
  8
Layer18
  6
Continuous
 62
     7
 48
25.4
100
AcDbLine
 10
93.6162613928
 20
150.3695566966
 30
0.0
 11
93.6294221322
 21
150.3660302871
 31
0.0
  0
ARC
  5
1EB
330
1F
100
AcDbEntity
  8
Layer18
  6
Continuous
 62
     7
 48
25.4
100
AcDbCircle
 10
93.6941268935
 20
150.6075117436
 30
0.0
 40
0.2499999999204063
100
AcDbArc
 50
255.0
 51
345.0
  0
ARC
  5
1EC
330
1F
100
AcDbEntity
  8
Layer18
  6
Continuous
 62
     7
 48
25.4
100
AcDbCircle
 10
91.8368542951
 20
153.1648483974
 30
0.0
 40
0.2500000002107934
100
AcDbArc
 50
345.0
 51
75.0
  0
ARC
  5
1ED
330
1F
100
AcDbEntity
  8
Layer18
  6
Continuous
 62
     7
 48
25.4
100
AcDbCircle
 10
91.8236935557
 20
153.1683748069
 30
0.0
 40
0.2499999998407747
100
AcDbArc
 50
75.0
 51
165.0
  0
LINE
  5
1EE
330
1F
100
AcDbEntity
  8
Layer18
  6
Continuous
 62
     7
 48
25.4
100
AcDbLine
 10
91.9015590564
 20
153.406329854
 30
0.0
 11
91.888398317
 21
153.4098562635
 31
0.0
  0
LINE
  5
1EF
330
1F
100
AcDbEntity
  8
Layer18
  6
Continuous
 62
     7
 48
25.4
100
AcDbLine
 10
92.4367452182
 20
150.685607103
 30
0.0
 11
92.7989674031
 21
150.5885499611
 31
0.0
  0
LINE
  5
1F0
330
1F
100
AcDbEntity
  8
Layer18
  6
Continuous
 62
     7
 48
25.4
100
AcDbLine
 10
92.3361991899
 20
156.3956969225
 30
0.0
 11
92.3038468092
 21
156.2749561942
 31
0.0
  0
LINE
  5
1F1
330
1F
100
AcDbEntity
  8
Layer18
  6
Continuous
 62
     7
 48
25.4
100
AcDbLine
 10
94.8677209625
 20
155.1997396177
 30
0.0
 11
94.3555158161
 21
155.336984573
 31
0.0
  0
LWPOLYLINE
  5
1F2
330
1F
100
AcDbEntity
  8
Layer18
  6
Continuous
 62
     7
 48
25.4
100
AcDbPolyline
 90
        2
 70
     0
 43
0.0
 10
89.7476214209
 20
139.1528581861
 10
89.5753124201
 20
139.4016112121
  0
LWPOLYLINE
  5
1F3
330
1F
100
AcDbEntity
  8
Layer18
  6
Continuous
 62
     7
 48
25.4
100
AcDbPolyline
 90
        2
 70
     0
 43
0.0
 10
89.7685141735
 20
139.2308310005
 10
89.6441506989
 20
139.1447032581
  0
LWPOLYLINE
  5
1F4
330
1F
100
AcDbEntity
  8
Layer18
  6
Continuous
 62
     7
 48
25.4
100
AcDbPolyline
 90
        2
 70
     0
 43
0.0
 10
89.7184896285
 20
139.0441368568
 10
89.6785153287
 20
139.0164527139
  0
LWPOLYLINE
  5
1F5
330
1F
100
AcDbEntity
  8
Layer18
  6
Continuous
 62
     7
 48
25.4
100
AcDbPolyline
 90
        2
 70
     0
 43
0.0
 10
89.7052077111
 20
138.9945680662
 10
89.6712396626
 20
139.0436058693
  0
ARC
  5
1F6
330
1F
100
AcDbEntity
  8
Layer18
  6
Continuous
 62
     7
 48
25.4
100
AcDbCircle
 10
92.1392277946
 20
151.0241457015
 30
0.0
 40
0.2499999998805787
100
AcDbArc
 50
165.0
 51
255.0
  0
ARC
  5
1F7
330
1F
100
AcDbEntity
  8
Layer18
  6
Continuous
 62
     7
 48
25.4
100
AcDbCircle
 10
91.3087730655
 20
151.2466653755
 30
0.0
 40
0.2499999998805518
100
AcDbArc
 50
165.0
 51
255.0
  0
ARC
  5
1F8
330
1F
100
AcDbEntity
  8
Layer18
  6
Continuous
 62
     7
 48
25.4
100
AcDbCircle
 10
93.6809661541
 20
150.6110381531
 30
0.0
 40
0.2500000001053778
100
AcDbArc
 50
165.0
 51
255.0
  0
LINE
  5
1F9
330
1F
100
AcDbEntity
  8
Layer18
  6
Continuous
 62
     7
 48
25.4
100
AcDbLine
 10
91.0672916089
 20
151.3113701368
 30
0.0
 11
91.5822120991
 21
153.2330795682
 31
0.0
  0
LINE
  5
1FA
330
1F
100
AcDbEntity
  8
Layer18
  6
Continuous
 62
     7
 48
25.4
100
AcDbLine
 10
94.2605914056
 20
152.7742290411
 30
0.0
 11
94.273752145
 21
152.7707026316
 31
0.0
  0
ARC
  5
1FB
330
1F
100
AcDbEntity
  8
Layer18
  6
Continuous
 62
     7
 48
25.4
100
AcDbCircle
 10
93.3785926546
 20
152.7517408491
 30
0.0
 40
0.2499999999203839
100
AcDbArc
 50
345.0
 51
75.0
  0
LINE
  5
1FC
330
1F
100
AcDbEntity
  8
Layer18
  6
Continuous
 62
     7
 48
25.4
100
AcDbLine
 10
93.081075231
 20
153.0902794476
 30
0.0
 11
93.4432974158
 21
152.9932223056
 31
0.0
  0
LWPOLYLINE
  5
1FD
330
1F
100
AcDbEntity
  8
Layer18
  6
Continuous
 62
     7
 48
25.4
100
AcDbPolyline
 90
        5
 70
     0
 43
0.0
 10
88.4333783145
 20
138.9083250815
 10
90.0866886299
 20
138.4653219176
 10
89.9993358934
 20
138.1393170667
 10
88.3460255779
 20
138.5823202305
 10
88.4333783145
 20
138.9083250815
  0
LWPOLYLINE
  5
1FE
330
1F
100
AcDbEntity
  8
Layer18
  6
Continuous
 62
     7
 48
25.4
100
AcDbPolyline
 90
        2
 70
     0
 43
0.0
 10
88.498462729
 20
138.541474819
 10
88.3806527517
 20
138.7115506026
  0
LWPOLYLINE
  5
1FF
330
1F
100
AcDbEntity
  8
Layer18
  6
Continuous
 62
     7
 48
25.4
100
AcDbPolyline
 90
        2
 70
     0
 43
0.0
 10
89.8812709583
 20
140.2212188565
 10
89.0805839409
 20
139.6667042336
  0
LWPOLYLINE
  5
200
330
1F
100
AcDbEntity
  8
Layer18
  6
Continuous
 62
     7
 48
25.4
100
AcDbPolyline
 90
        2
 70
     0
 43
0.0
 10
88.685178085
 20
138.4914445902
 10
88.4230664615
 20
138.8698407225
  0
LWPOLYLINE
  5
201
330
1F
100
AcDbEntity
  8
Layer18
  6
Continuous
 62
     7
 48
25.4
100
AcDbPolyline
 90
        2
 70
     0
 43
0.0
 10
88.7436768416
 20
138.8251808417
 10
88.3798957152
 20
138.5732447546
  0
LWPOLYLINE
  5
202
330
1F
100
AcDbEntity
  8
Layer18
  6
Continuous
 62
     7
 48
25.4
100
AcDbPolyline
 90
        2
 70
     0
 43
0.0
 10
89.9156355881
 20
140.0929683123
 10
89.0305593959
 20
139.4800100899
  0
LWPOLYLINE
  5
203
330
1F
100
AcDbEntity
  8
Layer18
  6
Continuous
 62
     7
 48
25.4
100
AcDbPolyline
 90
        2
 70
     0
 43
0.0
 10
88.5853737936
 20
138.8675980156
 10
88.3853469923
 20
138.7290697469
  0
LWPOLYLINE
  5
204
330
1F
100
AcDbEntity
  8
Layer18
  6
Continuous
 62
     7
 48
25.4
100
AcDbPolyline
 90
        2
 70
     0
 43
0.0
 10
88.871893441
 20
138.4414143613
 10
88.5746984127
 20
138.8704584753
  0
LWPOLYLINE
  5
205
330
1F
100
AcDbEntity
  8
Layer18
  6
Continuous
 62
     7
 48
25.4
100
AcDbPolyline
 90
        2
 70
     0
 43
0.0
 10
88.9019798896
 20
138.7827636678
 10
88.5381987632
 20
138.5308275807
  0
LWPOLYLINE
  5
206
330
1F
100
AcDbEntity
  8
Layer18
  6
Continuous
 62
     7
 48
25.4
100
AcDbPolyline
 90
        2
 70
     0
 43
0.0
 10
89.0602829377
 20
138.740346494
 10
88.6965018112
 20
138.4884104069
  0
LWPOLYLINE
  5
207
330
1F
100
AcDbEntity
  8
Layer18
  6
Continuous
 62
     7
 48
25.4
100
AcDbPolyline
 90
        2
 70
     0
 43
0.0
 10
89.245324153
 20
138.3413539036
 10
88.9481291248
 20
138.7703980176
  0
LWPOLYLINE
  5
208
330
1F
100
AcDbEntity
  8
Layer18
  6
Continuous
 62
     7
 48
25.4
100
AcDbPolyline
 90
        2
 70
     0
 43
0.0
 10
89.058608797
 20
138.3913841325
 10
88.7614137688
 20
138.8204282464
  0
LWPOLYLINE
  5
209
330
1F
100
AcDbEntity
  8
Layer18
  6
Continuous
 62
     7
 48
25.4
100
AcDbPolyline
 90
        2
 70
     0
 43
0.0
 10
89.2185859857
 20
138.6979293201
 10
88.8548048592
 20
138.445993233
  0
LWPOLYLINE
  5
20A
330
1F
100
AcDbEntity
  8
Layer18
  6
Continuous
 62
     7
 48
25.4
100
AcDbPolyline
 90
        2
 70
     0
 43
0.0
 10
89.3053874085
 20
139.5182921098
 10
88.9805348508
 20
139.2933159461
  0
LWPOLYLINE
  5
20B
330
1F
100
AcDbEntity
  8
Layer18
  6
Continuous
 62
     7
 48
25.4
100
AcDbPolyline
 90
        2
 70
     0
 43
0.0
 10
88.9679376939
 20
139.1808423952
 10
88.955290057
 20
139.1991010929
  0
LWPOLYLINE
  5
20C
330
1F
100
AcDbEntity
  8
Layer18
  6
Continuous
 62
     7
 48
25.4
100
AcDbPolyline
 90
        2
 70
     0
 43
0.0
 10
89.0577708982
 20
139.2706755995
 10
88.9977037668
 20
139.3573912128
  0
LWPOLYLINE
  5
20D
330
1F
100
AcDbEntity
  8
Layer18
  6
Continuous
 62
     7
 48
25.4
100
AcDbPolyline
 90
        2
 70
     0
 43
0.0
 10
89.9185878087
 20
139.7909134319
 10
89.5410568097
 20
139.5294548906
  0
LWPOLYLINE
  5
20E
330
1F
100
AcDbEntity
  8
Layer18
  6
Continuous
 62
     7
 48
25.4
100
AcDbPolyline
 90
        2
 70
     0
 43
0.0
 10
90.0597681515
 20
141.3364746377
 10
89.8731409107
 20
141.6058981191
  0
LWPOLYLINE
  5
20F
330
1F
100
AcDbEntity
  8
Layer18
  6
Continuous
 62
     7
 48
25.4
100
AcDbPolyline
 90
        2
 70
     0
 43
0.0
 10
90.0836899026
 20
141.4257518281
 10
89.765899113
 20
141.2056662816
  0
LWPOLYLINE
  5
210
330
1F
100
AcDbEntity
  8
Layer18
  6
Continuous
 62
     7
 48
25.4
100
AcDbPolyline
 90
        2
 70
     0
 43
0.0
 10
90.0173544417
 20
141.1781845177
 10
89.8307272009
 20
141.4476079992
  0
LWPOLYLINE
  5
211
330
1F
100
AcDbEntity
  8
Layer18
  6
Continuous
 62
     7
 48
25.4
100
AcDbPolyline
 90
        2
 70
     0
 43
0.0
 10
89.9749407319
 20
141.0198943978
 10
89.7883134911
 20
141.2893178793
  0
LWPOLYLINE
  5
212
330
1F
100
AcDbEntity
  8
Layer18
  6
Continuous
 62
     7
 48
25.4
100
AcDbPolyline
 90
        2
 70
     0
 43
0.0
 10
90.0336653575
 20
141.2390576844
 10
89.715874568
 20
141.0189721378
  0
LWPOLYLINE
  5
213
330
1F
100
AcDbEntity
  8
Layer18
  6
Continuous
 62
     7
 48
25.4
100
AcDbPolyline
 90
        2
 70
     0
 43
0.0
 10
89.9325270221
 20
140.8616042779
 10
89.7458997813
 20
141.1310277594
  0
LWPOLYLINE
  5
214
330
1F
100
AcDbEntity
  8
Layer18
  6
Continuous
 62
     7
 48
25.4
100
AcDbPolyline
 90
        2
 70
     0
 43
0.0
 10
89.9836408125
 20
141.0523635406
 10
89.6658500229
 20
140.8322779941
  0
LWPOLYLINE
  5
215
330
1F
100
AcDbEntity
  8
Layer18
  6
Continuous
 62
     7
 48
25.4
100
AcDbPolyline
 90
        2
 70
     0
 43
0.0
 10
89.8901133123
 20
140.703314158
 10
89.7034860715
 20
140.9727376394
  0
LWPOLYLINE
  5
216
330
1F
100
AcDbEntity
  8
Layer18
  6
Continuous
 62
     7
 48
25.4
100
AcDbPolyline
 90
        2
 70
     0
 43
0.0
 10
89.8835917224
 20
140.678975253
 10
89.4429838806
 20
140.3738329366
  0
LWPOLYLINE
  5
217
330
1F
100
AcDbEntity
  8
Layer18
  6
Continuous
 62
     7
 48
25.4
100
AcDbPolyline
 90
        2
 70
     0
 43
0.0
 10
89.9336162674
 20
140.8656693968
 10
89.6158254779
 20
140.6455838503
  0
LWPOLYLINE
  5
218
330
1F
100
AcDbEntity
  8
Layer18
  6
Continuous
 62
     7
 48
25.4
100
AcDbPolyline
 90
        2
 70
     0
 43
0.0
 10
89.8476996025
 20
140.5450240381
 10
89.6610723617
 20
140.8144475195
  0
LWPOLYLINE
  5
219
330
1F
100
AcDbEntity
  8
Layer18
  6
Continuous
 62
     7
 48
25.4
100
AcDbPolyline
 90
        2
 70
     0
 43
0.0
 10
89.8568786055
 20
140.3122523567
 10
89.6186586519
 20
140.6561573996
  0
LWPOLYLINE
  5
21A
330
1F
100
AcDbEntity
  8
Layer18
  6
Continuous
 62
     7
 48
25.4
100
AcDbPolyline
 90
        2
 70
     0
 43
0.0
 10
89.9528058479
 20
139.9542470139
 10
89.5724691406
 20
140.5033181966
  0
LWPOLYLINE
  5
21B
330
1F
100
AcDbEntity
  8
Layer18
  6
Continuous
 62
     7
 48
25.4
100
AcDbPolyline
 90
        2
 70
     0
 43
0.0
 10
89.9172762601
 20
139.7860186658
 10
89.4826359363
 20
140.4134849923
  0
LWPOLYLINE
  5
21C
330
1F
100
AcDbEntity
  8
Layer18
  6
Continuous
 62
     7
 48
25.4
100
AcDbPolyline
 90
        2
 70
     0
 43
0.0
 10
89.8335671773
 20
140.4922811092
 10
89.180633031
 20
140.0400925212
  0
LWPOLYLINE
  5
21D
330
1F
100
AcDbEntity
  8
Layer18
  6
Continuous
 62
     7
 48
25.4
100
AcDbPolyline
 90
        2
 70
     0
 43
0.0
 10
89.5351920818
 20
138.6130949723
 10
89.1714109553
 20
138.3611588852
  0
LWPOLYLINE
  5
21E
330
1F
100
AcDbEntity
  8
Layer18
  6
Continuous
 62
     7
 48
25.4
100
AcDbPolyline
 90
        2
 70
     0
 43
0.0
 10
89.8748625503
 20
139.6277285459
 10
89.392802732
 20
140.3236517881
  0
LWPOLYLINE
  5
21F
330
1F
100
AcDbEntity
  8
Layer18
  6
Continuous
 62
     7
 48
25.4
100
AcDbPolyline
 90
        2
 70
     0
 43
0.0
 10
89.8469063286
 20
140.3494694007
 10
89.130608486
 20
139.8533983774
  0
LWPOLYLINE
  5
220
330
1F
100
AcDbEntity
  8
Layer18
  6
Continuous
 62
     7
 48
25.4
100
AcDbPolyline
 90
        2
 70
     0
 43
0.0
 10
89.432039509
 20
138.2913236747
 10
89.1348444808
 20
138.7203677887
  0
LWPOLYLINE
  5
221
330
1F
100
AcDbEntity
  8
Layer18
  6
Continuous
 62
     7
 48
25.4
100
AcDbPolyline
 90
        2
 70
     0
 43
0.0
 10
89.8324488405
 20
139.469438426
 10
89.3029695278
 20
140.2338185838
  0
LWPOLYLINE
  5
222
330
1F
100
AcDbEntity
  8
Layer18
  6
Continuous
 62
     7
 48
25.4
100
AcDbPolyline
 90
        2
 70
     0
 43
0.0
 10
89.7900351307
 20
139.3111483061
 10
89.2131363235
 20
140.1439853795
  0
LWPOLYLINE
  5
223
330
1F
100
AcDbEntity
  8
Layer18
  6
Continuous
 62
     7
 48
25.4
100
AcDbPolyline
 90
        2
 70
     0
 43
0.0
 10
89.3768890337
 20
138.6555121462
 10
89.0131079073
 20
138.4035760591
  0
LWPOLYLINE
  5
224
330
1F
100
AcDbEntity
  8
Layer18
  6
Continuous
 62
     7
 48
25.4
100
AcDbPolyline
 90
        2
 70
     0
 43
0.0
 10
89.4171037152
 20
139.6300084165
 10
89.167358606
 20
139.9905516925
  0
LWPOLYLINE
  5
225
330
1F
100
AcDbEntity
  8
Layer18
  6
Continuous
 62
     7
 48
25.4
100
AcDbPolyline
 90
        2
 70
     0
 43
0.0
 10
89.3272705109
 20
139.5401752122
 10
89.1249448962
 20
139.8322615726
  0
LWPOLYLINE
  5
226
330
1F
100
AcDbEntity
  8
Layer18
  6
Continuous
 62
     7
 48
25.4
100
AcDbPolyline
 90
        2
 70
     0
 43
0.0
 10
89.2374373067
 20
139.450342008
 10
89.0825311864
 20
139.6739714527
  0
LWPOLYLINE
  5
227
330
1F
100
AcDbEntity
  8
Layer18
  6
Continuous
 62
     7
 48
25.4
100
AcDbPolyline
 90
        2
 70
     0
 43
0.0
 10
90.1797772973
 20
142.2608263336
 10
90.1780931688
 20
142.2632576174
  0
LWPOLYLINE
  5
228
330
1F
100
AcDbEntity
  8
Layer18
  6
Continuous
 62
     7
 48
25.4
100
AcDbPolyline
 90
        2
 70
     0
 43
0.0
 10
90.1816488181
 20
142.2538417231
 10
90.1394582769
 20
142.2246227255
  0
LINE
  5
229
330
1F
100
AcDbEntity
  8
Layer18
  6
Continuous
 62
     7
 48
25.4
100
AcDbLine
 10
92.7497596582
 20
149.1673599886
 30
0.0
 11
90.0060861973
 21
147.5832993774
 31
0.0
  0
LINE
  5
22A
330
1F
100
AcDbEntity
  8
Layer18
  6
Continuous
 62
     7
 48
25.4
100
AcDbLine
 10
91.3837232065
 20
149.5333883527
 30
0.0
 11
90.2740124972
 21
148.8926965759
 31
0.0
  0
LINE
  5
22B
330
1F
100
AcDbEntity
  8
Layer18
  6
Continuous
 62
     7
 48
25.4
100
AcDbLine
 10
93.5223830716
 20
148.4587448596
 30
0.0
 11
91.3720985009
 21
147.2172774838
 31
0.0
  0
LINE
  5
22C
330
1F
100
AcDbEntity
  8
Layer18
  6
Continuous
 62
     7
 48
25.4
100
AcDbLine
 10
91.500445895
 20
147.1828869032
 30
0.0
 11
90.3498594184
 21
149.1757611393
 31
0.0
  0
LINE
  5
22D
330
1F
100
AcDbEntity
  8
Layer18
  6
Continuous
 62
     7
 48
25.4
100
AcDbLine
 10
90.6731106854
 20
146.4937929076
 30
0.0
 11
89.4405504672
 21
145.7821739338
 31
0.0
  0
LINE
  5
22E
330
1F
100
AcDbEntity
  8
Layer18
  6
Continuous
 62
     7
 48
25.4
100
AcDbLine
 10
92.6889210416
 20
145.3482222174
 30
0.0
 11
89.5109796122
 21
143.5134368777
 31
0.0
  0
LINE
  5
22F
330
1F
100
AcDbEntity
  8
Layer18
  6
Continuous
 62
     7
 48
25.4
100
AcDbLine
 10
86.8946575186
 20
136.2807720991
 30
0.0
 11
89.7010210894
 21
146.7542635298
 31
0.0
  0
LINE
  5
230
330
1F
100
AcDbEntity
  8
Layer18
  6
Continuous
 62
     7
 48
25.4
100
AcDbLine
 10
92.0391471371
 20
146.1277645435
 30
0.0
 11
89.0745221031
 21
144.4161374821
 31
0.0
  0
LINE
  5
231
330
1F
100
AcDbEntity
  8
Layer18
  6
Continuous
 62
     7
 48
25.4
100
AcDbLine
 10
91.9433079808
 20
142.8616964557
 30
0.0
 11
89.6994083352
 21
146.748244649
 31
0.0
  0
LINE
  5
232
330
1F
100
AcDbEntity
  8
Layer18
  6
Continuous
 62
     7
 48
25.4
100
AcDbLine
 10
93.3800067149
 20
147.9273890625
 30
0.0
 11
92.6484658816
 21
149.1945015743
 31
0.0
  0
LINE
  5
233
330
1F
100
AcDbEntity
  8
Layer18
  6
Continuous
 62
     7
 48
25.4
100
AcDbLine
 10
92.3635272676
 20
144.1338361205
 30
0.0
 11
91.0610145121
 21
146.3898543905
 31
0.0
  0
LINE
  5
234
330
1F
100
AcDbEntity
  8
Layer18
  6
Continuous
 62
     7
 48
25.4
100
AcDbLine
 10
92.3228926775
 20
143.9821857658
 30
0.0
 11
90.8770160639
 21
143.1474085137
 31
0.0
  0
LINE
  5
235
330
1F
100
AcDbEntity
  8
Layer18
  6
Continuous
 62
     7
 48
25.4
100
AcDbLine
 10
92.8664604898
 20
146.8168643957
 30
0.0
 11
91.2824244811
 21
149.5605312644
 31
0.0
  0
LINE
  5
236
330
1F
100
AcDbEntity
  8
Layer18
  6
Continuous
 62
     7
 48
25.4
100
AcDbLine
 10
90.3097528514
 20
136.4690456519
 30
0.0
 11
89.0044810047
 21
135.7154465998
 31
0.0
  0
LINE
  5
237
330
1F
100
AcDbEntity
  8
Layer18
  6
Continuous
 62
     7
 48
25.4
100
AcDbLine
 10
92.7295556317
 20
145.4998725722
 30
0.0
 11
92.4270509638
 21
146.0238260264
 31
0.0
  0
LINE
  5
238
330
1F
100
AcDbEntity
  8
Layer18
  6
Continuous
 62
     7
 48
25.4
100
AcDbLine
 10
89.6756504978
 20
137.2576563645
 30
0.0
 11
87.638444553
 21
136.0814749639
 31
0.0
  0
LINE
  5
239
330
1F
100
AcDbEntity
  8
Layer18
  6
Continuous
 62
     7
 48
25.4
100
AcDbLine
 10
90.1673764947
 20
135.9376898548
 30
0.0
 11
89.3558147058
 21
137.3433561067
 31
0.0
  0
LINE
  5
23A
330
1F
100
AcDbEntity
  8
Layer18
  6
Continuous
 62
     7
 48
25.4
100
AcDbLine
 10
89.166007951
 20
135.672165585
 30
0.0
 11
87.9898094684
 21
137.7093761069
 31
0.0
  0
LINE
  5
23B
330
1F
100
AcDbEntity
  8
Layer18
  6
Continuous
 62
     7
 48
25.4
100
AcDbLine
 10
87.7999714993
 20
136.0381939491
 30
0.0
 11
87.1372291982
 21
137.1860619316
 31
0.0
  0
LINE
  5
23C
330
1F
100
AcDbEntity
  8
Layer18
  6
Continuous
 62
     7
 48
25.4
100
AcDbLine
 10
88.3096381942
 20
137.6236782581
 30
0.0
 11
87.061382277
 21
136.9029973682
 31
0.0
  0
LINE
  5
23D
330
1F
100
AcDbEntity
  8
Layer18
  6
Continuous
 62
     7
 48
25.4
100
AcDbLine
 10
92.8402800249
 20
145.9131016332
 30
0.0
 11
90.0339164541
 21
135.4396102025
 31
0.0
  0
LINE
  5
23E
330
1F
100
AcDbEntity
  8
Layer18
  6
Continuous
 62
     7
 48
25.4
100
AcDbLine
 10
90.5772715291
 20
143.2277248197
 30
0.0
 11
89.3333799711
 21
145.3822081973
 31
0.0
  0
LINE
  5
23F
330
1F
100
AcDbEntity
  8
Layer18
  6
Continuous
 62
     7
 48
25.4
100
AcDbLine
 10
89.2112592256
 20
143.5937467133
 30
0.0
 11
88.9673580775
 21
144.0161958938
 31
0.0
  0
LINE
  5
240
330
1F
100
AcDbEntity
  8
Layer18
  6
CENTER2
 62
     7
 48
25.4
100
AcDbLine
 10
93.3346514048
 20
145.7806352212
 30
0.0
 11
89.2624646525
 21
146.8717743729
 31
0.0
  0
LINE
  5
241
330
1F
100
AcDbEntity
  8
Layer18
  6
CENTER2
 62
     7
 48
25.4
100
AcDbLine
 10
93.562345854
 20
146.6304024743
 30
0.0
 11
89.4901591017
 21
147.721541626
 31
0.0
  0
LINE
  5
242
330
1F
100
AcDbEntity
  8
Layer18
  6
Continuous
 62
     7
 48
25.4
100
AcDbLine
 10
90.4644287261
 20
137.0463038752
 30
0.0
 11
87.3251697907
 21
137.8874657718
 31
0.0
  0
LINE
  5
243
330
1F
100
AcDbEntity
  8
Layer18
  6
Continuous
 62
     7
 48
25.4
100
AcDbLine
 10
92.0173429968
 20
142.8418588329
 30
0.0
 11
88.8780840613
 21
143.6830207295
 31
0.0
  0
LINE
  5
244
330
1F
100
AcDbEntity
  8
Layer18
  6
Continuous
 62
     7
 48
25.4
100
AcDbLine
 10
90.1254208883
 20
141.5814939872
 30
0.0
 11
90.3800881367
 21
141.5132561036
 31
0.0
  0
LINE
  5
245
330
1F
100
AcDbEntity
  8
Layer18
  6
Continuous
 62
     7
 48
25.4
100
AcDbLine
 10
89.821103612
 20
140.4457664501
 30
0.0
 11
90.1254208883
 21
141.5814939872
 31
0.0
  0
LINE
  5
246
330
1F
100
AcDbEntity
  8
Layer18
  6
Continuous
 62
     7
 48
25.4
100
AcDbLine
 10
89.957579379
 20
139.9364319534
 30
0.0
 11
89.821103612
 21
140.4457664501
 31
0.0
  0
LINE
  5
247
330
1F
100
AcDbEntity
  8
Layer18
  6
Continuous
 62
     7
 48
25.4
100
AcDbLine
 10
89.6947935067
 20
138.9557017263
 30
0.0
 11
89.957579379
 21
139.9364319534
 31
0.0
  0
LINE
  5
248
330
1F
100
AcDbEntity
  8
Layer18
  6
Continuous
 62
     7
 48
25.4
100
AcDbLine
 10
89.4936129784
 20
139.7065176796
 30
0.0
 11
89.6947935067
 21
138.9557017263
 31
0.0
  0
LINE
  5
249
330
1F
100
AcDbEntity
  8
Layer18
  6
Continuous
 62
     7
 48
25.4
100
AcDbLine
 10
88.9439775534
 20
139.1568822547
 30
0.0
 11
89.4936129784
 21
139.7065176796
 31
0.0
  0
LINE
  5
24A
330
1F
100
AcDbEntity
  8
Layer18
  6
Continuous
 62
     7
 48
25.4
100
AcDbLine
 10
89.2067634257
 20
140.1376124817
 30
0.0
 11
88.9439775534
 21
139.1568822547
 31
0.0
  0
LINE
  5
24B
330
1F
100
AcDbEntity
  8
Layer18
  6
Continuous
 62
     7
 48
25.4
100
AcDbLine
 10
89.5796221554
 20
140.5104712114
 30
0.0
 11
89.2067634257
 21
140.1376124817
 31
0.0
  0
LINE
  5
24C
330
1F
100
AcDbEntity
  8
Layer18
  6
Continuous
 62
     7
 48
25.4
100
AcDbLine
 10
89.8839394318
 20
141.6461987485
 30
0.0
 11
89.5796221554
 21
140.5104712114
 31
0.0
  0
LINE
  5
24D
330
1F
100
AcDbEntity
  8
Layer18
  6
Continuous
 62
     7
 48
25.4
100
AcDbLine
 10
89.6292721834
 20
141.714436632
 30
0.0
 11
89.8839394318
 21
141.6461987485
 31
0.0
  0
LINE
  5
24E
330
1F
100
AcDbEntity
  8
Layer18
  6
Continuous
 62
     7
 48
25.4
100
AcDbLine
 10
90.1789076084
 20
142.264072057
 30
0.0
 11
89.6292721834
 21
141.714436632
 31
0.0
  0
LINE
  5
24F
330
1F
100
AcDbEntity
  8
Layer18
  6
Continuous
 62
     7
 48
25.4
100
AcDbLine
 10
90.3800881367
 20
141.5132561036
 30
0.0
 11
90.1789076084
 21
142.264072057
 31
0.0
  0
LINE
  5
250
330
1F
100
AcDbEntity
  8
Layer18
  6
Continuous
 62
     7
 48
25.4
100
AcDbLine
 10
86.1584602398
 20
130.9722883498
 30
0.0
 11
85.564377452
 21
131.125650797
 31
0.0
  0
LINE
  5
251
330
1F
100
AcDbEntity
  8
Layer18
  6
Continuous
 62
     7
 48
25.4
100
AcDbLine
 10
85.5790386421
 20
128.809857508
 30
0.0
 11
84.987866632
 21
128.9740831255
 31
0.0
  0
LINE
  5
252
330
1F
100
AcDbEntity
  8
Layer18
  6
Continuous
 62
     7
 48
25.4
100
AcDbLine
 10
87.4378185273
 20
128.3117989389
 30
0.0
 11
88.017240125
 21
130.4742297806
 31
0.0
  0
LINE
  5
253
330
1F
100
AcDbEntity
  8
Layer18
  6
Continuous
 62
     7
 48
25.4
100
AcDbLine
 10
88.0319013148
 20
128.1584364905
 30
0.0
 11
88.6084121348
 21
130.310004162
 31
0.0
  0
LINE
  5
254
330
1F
100
AcDbEntity
  8
Layer18
  6
Continuous
 62
     7
 48
25.4
100
AcDbLine
 10
89.1809766273
 20
127.9390933602
 30
0.0
 11
89.7132121117
 21
129.9254232294
 31
0.0
  0
ARC
  5
255
330
1F
100
AcDbEntity
  8
Layer18
  6
Continuous
 62
     7
 48
25.4
100
AcDbCircle
 10
88.8583090617
 20
129.3682395812
 30
0.0
 40
1.465118862881688
100
AcDbArc
 50
235.6632994721
 51
282.7227203024
  0
LINE
  5
256
330
1F
100
AcDbEntity
  8
Layer18
  6
Continuous
 62
     7
 48
25.4
100
AcDbLine
 10
88.6317724959
 20
127.7919231456
 30
0.0
 11
89.1809766273
 21
127.9390933602
 31
0.0
  0
ARC
  5
257
330
1F
100
AcDbEntity
  8
Layer18
  6
Continuous
 62
     7
 48
25.4
100
AcDbCircle
 10
88.7192006923
 20
128.849080079
 30
0.0
 40
1.465118862321266
100
AcDbArc
 50
47.2772796976
 51
94.3367005356
  0
LINE
  5
258
330
1F
100
AcDbEntity
  8
Layer18
  6
Continuous
 62
     7
 48
25.4
100
AcDbLine
 10
89.7132121117
 20
129.9254232294
 30
0.0
 11
89.3111724893
 21
130.3274784396
 31
0.0
  0
LINE
  5
259
330
1F
100
AcDbEntity
  8
Layer18
  6
Continuous
 62
     7
 48
25.4
100
AcDbLine
 10
88.017240125
 20
130.4742297806
 30
0.0
 11
88.6084121348
 21
130.310004162
 31
0.0
  0
LINE
  5
25A
330
1F
100
AcDbEntity
  8
Layer18
  6
Continuous
 62
     7
 48
25.4
100
AcDbLine
 10
87.4378185273
 20
128.3117989389
 30
0.0
 11
88.0319013148
 21
128.1584364905
 31
0.0
  0
LINE
  5
25B
330
1F
100
AcDbEntity
  8
Layer17
  6
Continuous
 62
     7
 48
25.4
100
AcDbLine
 10
96.4375930298
 20
158.8554936254
 30
0.0
 11
95.5479025623
 21
155.5351235975
 31
0.0
  0
LINE
  5
25C
330
1F
100
AcDbEntity
  8
Layer17
  6
Continuous
 62
     7
 48
25.4
100
AcDbLine
 10
97.6444037464
 20
166.2571500134
 30
0.0
 11
96.6480213722
 21
162.5386003693
 31
0.0
  0
LINE
  5
25D
330
1F
100
AcDbEntity
  8
Layer17
  6
Continuous
 62
     7
 48
25.4
100
AcDbLine
 10
94.474688263
 20
163.1209432208
 30
0.0
 11
96.8895028288
 21
162.473895608
 31
0.0
  0
LINE
  5
25E
330
1F
100
AcDbEntity
  8
Layer17
  6
Continuous
 62
     7
 48
25.4
100
AcDbLine
 10
94.474688263
 20
163.1209432208
 30
0.0
 11
94.0217549341
 21
161.4305730248
 31
0.0
  0
LINE
  5
25F
330
1F
100
AcDbEntity
  8
Layer17
  6
Continuous
 62
     7
 48
25.4
100
AcDbLine
 10
93.8406438417
 20
161.4791015957
 30
0.0
 11
93.4395854101
 21
159.9823311523
 31
0.0
  0
LINE
  5
260
330
1F
100
AcDbEntity
  8
Layer17
  6
Continuous
 62
     7
 48
25.4
100
AcDbLine
 10
96.6176805923
 20
160.734996841
 30
0.0
 11
93.8406438417
 21
161.4791015957
 31
0.0
  0
LINE
  5
261
330
1F
100
AcDbEntity
  8
Layer17
  6
Continuous
 62
     7
 48
25.4
100
AcDbLine
 10
93.0568526378
 20
159.7613602832
 30
0.0
 11
92.1671621703
 21
156.4409902554
 31
0.0
  0
LINE
  5
262
330
1F
100
AcDbEntity
  8
Layer17
  6
Continuous
 62
     7
 48
25.4
100
AcDbLine
 10
93.4395854101
 20
159.9823311523
 30
0.0
 11
93.0568526378
 21
159.7613602832
 31
0.0
  0
LINE
  5
263
330
1F
100
AcDbEntity
  8
Layer17
  6
Continuous
 62
     7
 48
25.4
100
AcDbLine
 10
92.1671621703
 20
156.4409902554
 30
0.0
 11
95.5479025623
 21
155.5351235975
 31
0.0
  0
LINE
  5
264
330
1F
100
AcDbEntity
  8
Layer17
  6
Continuous
 62
     7
 48
25.4
100
AcDbLine
 10
95.6820955459
 20
162.7974194144
 30
0.0
 11
95.229162217
 21
161.1070492184
 31
0.0
  0
LINE
  5
265
330
1F
100
AcDbEntity
  8
Layer17
  6
Continuous
 62
     7
 48
25.4
100
AcDbLine
 10
96.4375930298
 20
158.8554936254
 30
0.0
 11
93.0568526378
 21
159.7613602832
 31
0.0
  0
LINE
  5
266
330
1F
100
AcDbEntity
  8
Layer17
  6
Continuous
 62
     7
 48
25.4
100
AcDbLine
 10
96.2166221607
 20
159.2382263977
 30
0.0
 11
93.4395854101
 21
159.9823311523
 31
0.0
  0
LINE
  5
267
330
1F
100
AcDbEntity
  8
Layer17
  6
Continuous
 62
     7
 48
25.4
100
AcDbLine
 10
97.0862892844
 20
171.9016450953
 30
0.0
 11
94.7161697196
 21
163.0562384595
 31
0.0
  0
LINE
  5
268
330
1F
100
AcDbEntity
  8
Layer17
  6
Continuous
 62
     7
 48
25.4
100
AcDbLine
 10
96.8895028288
 20
162.473895608
 30
0.0
 11
96.4365694998
 21
160.783525412
 31
0.0
  0
LINE
  5
269
330
1F
100
AcDbEntity
  8
Layer17
  6
Continuous
 62
     7
 48
25.4
100
AcDbLine
 10
96.2166221607
 20
159.2382263977
 30
0.0
 11
96.4375930298
 21
158.8554936254
 31
0.0
  0
LINE
  5
26A
330
1F
100
AcDbEntity
  8
Layer17
  6
Continuous
 62
     7
 48
25.4
100
AcDbLine
 10
96.6176805923
 20
160.734996841
 30
0.0
 11
96.2166221607
 21
159.2382263977
 31
0.0
  0
LINE
  5
26C
330
1F
100
AcDbEntity
  8
Layer11
  6
Continuous
 62
     7
 48
25.4
100
AcDbLine
 10
106.1862892844
 20
195.6321500134
 30
0.0
 11
116.313774173
 21
195.6321500134
 31
0.0
  0
HATCH
  5
26D
330
1F
100
AcDbEntity
  8
0
  6
Continuous
 62
     7
 48
25.4
100
AcDbHatch
 10
0.0
 20
0.0
 30
0.0
210
0.0
220
0.0
230
1.0
  2
LINE
 70
     0
 71
     0
 91
        1
 92
        1
 93
        5
 72
     1
 10
95.18628928440329
 20
187.5951796131384
 11
82.55880439579531
 21
187.5951796131384
 72
     1
 10
82.55880439579531
 20
187.5951796131384
 11
82.55880439579531
 21
184.3821500134314
 72
     1
 10
82.55880439579531
 20
184.3821500134314
 11
88.56128928440337
 21
184.3821500134314
 72
     1
 10
88.56128928440337
 20
184.3821500134314
 11
95.18628928440329
 21
184.3821500134314
 72
     1
 10
95.18628928440329
 20
184.3821500134314
 11
95.18628928440329
 21
187.5951796131384
 97
        0
 75
     0
 76
     2
 52
45.0
 41
1.0416666667
 77
     0
 78
     1
 53
45.0
 43
0.0
 44
0.0
 45
-2.338608364861759
 46
2.338608364861759
 79
     0
 98
        0
  0
LWPOLYLINE
  5
26E
330
1F
100
AcDbEntity
  8
0
  6
Continuous
 62
     7
 48
25.4
100
AcDbPolyline
 90
        6
 70
     1
 43
0.0
 10
95.1862892844
 20
187.5951796131
 10
95.1862892844
 20
184.3821500134
 10
88.5612892844
 20
184.3821500134
 10
82.5588043958
 20
184.3821500134
 10
82.5588043958
 20
187.5951796131
 10
95.1862892844
 20
187.5951796131
  0
LINE
  5
26F
330
1F
100
AcDbEntity
  8
Layer11
  6
Continuous
 62
     7
 48
25.4
100
AcDbLine
 10
82.5588043958
 20
184.3821500134
 30
0.0
 11
88.5612892844
 21
184.3821500134
 31
0.0
  0
HATCH
  5
270
330
1F
100
AcDbEntity
  8
0
  6
Continuous
 62
     7
 48
25.4
100
AcDbHatch
 10
0.0
 20
0.0
 30
0.0
210
0.0
220
0.0
230
1.0
  2
LINE
 70
     0
 71
     0
 91
        1
 92
        1
 93
        5
 72
     1
 10
116.3137741730113
 20
187.5951796131384
 11
103.6862892844033
 21
187.5951796131384
 72
     1
 10
103.6862892844033
 20
187.5951796131384
 11
103.6862892844033
 21
184.3821500134314
 72
     1
 10
103.6862892844033
 20
184.3821500134314
 11
112.8112892844033
 21
184.3821500134314
 72
     1
 10
112.8112892844033
 20
184.3821500134314
 11
116.3137741730113
 21
184.3821500134314
 72
     1
 10
116.3137741730113
 20
184.3821500134314
 11
116.3137741730113
 21
187.5951796131384
 97
        0
 75
     0
 76
     2
 52
45.0
 41
1.0416666667
 77
     0
 78
     1
 53
45.0
 43
0.0
 44
0.0
 45
-2.338608364861759
 46
2.338608364861759
 79
     0
 98
        0
  0
LWPOLYLINE
  5
271
330
1F
100
AcDbEntity
  8
0
  6
Continuous
 62
     7
 48
25.4
100
AcDbPolyline
 90
        6
 70
     1
 43
0.0
 10
116.313774173
 20
187.5951796131
 10
116.313774173
 20
184.3821500134
 10
112.8112892844
 20
184.3821500134
 10
103.6862892844
 20
184.3821500134
 10
103.6862892844
 20
187.5951796131
 10
116.313774173
 20
187.5951796131
  0
LINE
  5
272
330
1F
100
AcDbEntity
  8
Layer11
  6
Continuous
 62
     7
 48
25.4
100
AcDbLine
 10
112.8112892844
 20
184.3821500134
 30
0.0
 11
116.313774173
 21
184.3821500134
 31
0.0
  0
LINE
  5
273
330
1F
100
AcDbEntity
  8
Layer12
  6
Continuous
 62
     7
 48
25.4
100
AcDbLine
 10
88.5612892844
 20
184.3821500134
 30
0.0
 11
112.8112892844
 21
184.3821500134
 31
0.0
  0
LINE
  5
275
330
1F
100
AcDbEntity
  8
10
  6
Continuous
 62
     7
 48
25.4
100
AcDbLine
 10
92.6862892844
 20
195.6321500134
 30
0.0
 11
106.1862892844
 21
195.6321500134
 31
0.0
  0
LINE
  5
276
330
1F
100
AcDbEntity
  8
10
  6
Continuous
 62
     7
 48
25.4
100
AcDbLine
 10
92.6862892844
 20
196.3524046563
 30
0.0
 11
92.6862892844
 21
195.6321500134
 31
0.0
  0
ARC
  5
277
330
1F
100
AcDbEntity
  8
10
  6
Continuous
 62
     7
 48
25.4
100
AcDbCircle
 10
92.8112892844
 20
196.3524046563
 30
0.0
 40
0.1250000000019594
100
AcDbArc
 50
99.9560038536
 51
180.0
  0
ARC
  5
278
330
1F
100
AcDbEntity
  8
10
  6
Continuous
 62
     7
 48
25.4
100
AcDbCircle
 10
97.111975663
 20
171.8520021765
 30
0.0
 40
25.00000000000001
100
AcDbArc
 50
94.9926216271
 51
99.9560038535
  0
LINE
  5
279
330
1F
100
AcDbEntity
  8
10
  6
Continuous
 62
     7
 48
25.4
100
AcDbLine
 10
106.1862892844
 20
196.3524046563
 30
0.0
 11
106.1862892844
 21
195.6321500134
 31
0.0
  0
ARC
  5
27A
330
1F
100
AcDbEntity
  8
10
  6
Continuous
 62
     7
 48
25.4
100
AcDbCircle
 10
106.0612892844
 20
196.3524046563
 30
0.0
 40
0.1250000000322556
100
AcDbArc
 50
0.0
 51
80.0439961473
  0
ARC
  5
27B
330
1F
100
AcDbEntity
  8
10
  6
Continuous
 62
     7
 48
25.4
100
AcDbCircle
 10
101.7606029061
 20
171.8520021764
 30
0.0
 40
25.00000000003063
100
AcDbArc
 50
80.0439961473
 51
85.0073783738
  0
LINE
  5
27D
330
1F
100
AcDbEntity
  8
Standard
  6
Continuous
 62
     7
 48
25.4
100
AcDbLine
 10
103.9362892844
 20
211.1821500134
 30
0.0
 11
112.2862892844
 21
211.1821500134
 31
0.0
  0
LINE
  5
27F
330
1F
100
AcDbEntity
  8
Schraubkappe
  6
Continuous
 62
     7
 48
25.4
100
AcDbLine
 10
112.4112892844
 20
224.0571500134
 30
0.0
 11
112.4112892844
 21
211.3039473309
 31
0.0
  0
ARC
  5
280
330
1F
100
AcDbEntity
  8
Standard
  6
Continuous
 62
     7
 48
25.4
100
AcDbCircle
 10
112.2862892844
 20
211.3071500134
 30
0.0
 40
0.125
100
AcDbArc
 50
270.0
 51
360.0
  0
ARC
  5
281
330
1F
100
AcDbEntity
  8
Standard
  6
Continuous
 62
     7
 48
25.4
100
AcDbCircle
 10
112.2862892844
 20
224.0571500134
 30
0.0
 40
0.125
100
AcDbArc
 50
0.0
 51
90.0
  0
LINE
  5
282
330
1F
100
AcDbEntity
  8
Standard
  6
Continuous
 62
     7
 48
25.4
100
AcDbLine
 10
112.2862892844
 20
224.1821500134
 30
0.0
 11
102.8112892844
 21
224.1821500134
 31
0.0
  0
ARC
  5
284
330
1F
100
AcDbEntity
  8
Default
  6
Continuous
 62
     7
 48
25.4
100
AcDbCircle
 10
163.6371721093
 20
240.8263155962
 30
0.0
 40
50.0
100
AcDbArc
 50
212.4857817416
 51
216.346148349
  0
LINE
  5
286
330
1F
100
AcDbEntity
  8
MDS_Layer_2
  6
Continuous
 62
     7
 48
25.4
100
AcDbLine
 10
121.0612892844
 20
213.9399233718
 30
0.0
 11
121.0612892844
 21
214.0949233718
 31
0.0
  0
LINE
  5
287
330
1F
100
AcDbEntity
  8
MDS_Layer_2
  6
Continuous
 62
     7
 48
25.4
100
AcDbLine
 10
121.3636324625
 20
213.6899233718
 30
0.0
 11
121.3636324625
 21
213.8524233718
 31
0.0
  0
LINE
  5
288
330
1F
100
AcDbEntity
  8
MDS_Layer_2
  6
Continuous
 62
     7
 48
25.4
100
AcDbLine
 10
121.3636324625
 20
213.8524233718
 30
0.0
 11
121.4609344266
 21
213.971800614
 31
0.0
  0
LINE
  5
289
330
1F
100
AcDbEntity
  8
MDS_Layer_2
  6
Continuous
 62
     7
 48
25.4
100
AcDbLine
 10
121.3827916294
 20
214.0949233718
 30
0.0
 11
121.0612892844
 21
214.0949233718
 31
0.0
  0
LINE
  5
28A
330
1F
100
AcDbEntity
  8
MDS_Layer_2
  6
Continuous
 62
     7
 48
25.4
100
AcDbLine
 10
121.3636324625
 20
213.8524233718
 30
0.0
 11
121.0612892844
 21
213.8524233718
 31
0.0
  0
LINE
  5
28C
330
1F
100
AcDbEntity
  8
MDS_Layer_1
  6
Continuous
 62
     7
 48
25.4
100
AcDbLine
 10
121.0612892844
 20
213.9321500134
 30
0.0
 11
120.9201882279
 21
213.9321500134
 31
0.0
  0
LINE
  5
28D
330
1F
100
AcDbEntity
  8
Schraubkappe
  6
Continuous
 62
     7
 48
25.4
100
AcDbLine
 10
121.0612892844
 20
213.9321500134
 30
0.0
 11
120.9110740853
 21
213.9321500134
 31
0.0
  0
LINE
  5
28E
330
1F
100
AcDbEntity
  8
Schraubkappe
  6
Continuous
 62
     7
 48
25.4
100
AcDbLine
 10
120.9110740853
 20
213.9321500134
 30
0.0
 11
121.0612892844
 21
213.9321500134
 31
0.0
  0
LINE
  5
28F
330
1F
100
AcDbEntity
  8
Schraubkappe
  6
Continuous
 62
     7
 48
25.4
100
AcDbLine
 10
120.9110740853
 20
213.9321500134
 30
0.0
 11
121.0612892844
 21
213.9321500134
 31
0.0
  0
SPLINE
  5
290
330
1F
100
AcDbEntity
  8
Schraubkappe
  6
Continuous
 62
     7
 48
25.4
100
AcDbSpline
210
0.0
220
0.0
230
1.0
 70
    24
 71
     1
 72
     4
 73
     2
 74
     0
 42
0.0000000001
 43
0.0000000001
 40
0.0
 40
0.0
 40
1.0
 40
1.0
 10
121.0612892844035
 20
213.9321500134314
 30
0.0
 10
120.9110740852629
 20
213.9321500134314
 30
0.0
  0
LINE
  5
291
330
1F
100
AcDbEntity
  8
Schraubkappe
  6
Continuous
 62
     7
 48
25.4
100
AcDbLine
 10
121.0612892844
 20
213.9321500134
 30
0.0
 11
120.9201882279
 21
213.9321500134
 31
0.0
  0
LINE
  5
292
330
1F
100
AcDbEntity
  8
Schraubkappe
  6
Continuous
 62
     7
 48
25.4
100
AcDbLine
 10
112.4112892844
 20
224.0571500134
 30
0.0
 11
112.5352078633
 21
224.1810685924
 31
0.0
  0
ARC
  5
294
330
1F
100
AcDbEntity
  8
MDS_Layer_3
  6
Continuous
 62
     7
 48
25.4
100
AcDbCircle
 10
118.1121966275
 20
224.007394189
 30
0.0
 40
0.125
100
AcDbArc
 50
0.0
 51
89.5
  0
LINE
  5
295
330
1F
100
AcDbEntity
  8
Schraubkappe
  6
Continuous
 62
     7
 48
25.4
100
AcDbLine
 10
118.2371966275
 20
223.6164147933
 30
0.0
 11
118.2371966275
 21
224.007394189
 31
0.0
  0
LINE
  5
296
330
1F
100
AcDbEntity
  8
Schraubkappe
  6
Continuous
 62
     7
 48
25.4
100
AcDbLine
 10
112.5352078633
 20
224.1810685924
 30
0.0
 11
118.1132874444
 21
224.1323894293
 31
0.0
  0
ARC
  5
297
330
1F
100
AcDbEntity
  8
MDS_Layer_3
  6
Continuous
 62
     7
 48
25.4
100
AcDbCircle
 10
116.6487621617
 20
217.7926661186
 30
0.0
 40
6.25
100
AcDbArc
 50
284.7231957461
 51
318.9711593676
  0
LINE
  5
298
330
1F
100
AcDbEntity
  8
MDS_Layer_1
  6
Continuous
 62
     7
 48
25.4
100
AcDbLine
 10
121.3636324625
 20
213.6899233718
 30
0.0
 11
121.0612892844
 21
213.6899233718
 31
0.0
  0
LINE
  5
299
330
1F
100
AcDbEntity
  8
MDS_Layer_1
  6
Continuous
 62
     7
 48
25.4
100
AcDbLine
 10
121.0612892844
 20
213.6899233718
 30
0.0
 11
121.0612892844
 21
213.9399233718
 31
0.0
  0
LINE
  5
29A
330
1F
100
AcDbEntity
  8
Schraubkappe
  6
Continuous
 62
     7
 48
25.4
100
AcDbLine
 10
120.9110740853
 20
213.9321500134
 30
0.0
 11
121.0612892844
 21
213.9321500134
 31
0.0
  0
LINE
  5
29B
330
1F
100
AcDbEntity
  8
MDS_Layer_3
  6
Continuous
 62
     7
 48
25.4
100
AcDbLine
 10
112.4112892844
 20
211.3039473309
 30
0.0
 11
112.5362845248
 21
211.1832408304
 31
0.0
  0
LINE
  5
29C
330
1F
100
AcDbEntity
  8
Schraubkappe
  6
Continuous
 62
     7
 48
25.4
100
AcDbLine
 10
112.5362845248
 20
211.1832408304
 30
0.0
 11
118.1132874444
 21
211.2319105975
 31
0.0
  0
ARC
  5
29D
330
1F
100
AcDbEntity
  8
MDS_Layer_3
  6
Continuous
 62
     7
 48
25.4
100
AcDbCircle
 10
118.1121966275
 20
211.3569058379
 30
0.0
 40
0.125
100
AcDbArc
 50
270.5
 51
360.0
  0
LINE
  5
29E
330
1F
100
AcDbEntity
  8
Schraubkappe
  6
Continuous
 62
     7
 48
25.4
100
AcDbLine
 10
118.2371966275
 20
211.3569058379
 30
0.0
 11
118.2371966275
 21
211.7478852336
 31
0.0
  0
LINE
  5
29F
330
1F
100
AcDbEntity
  8
10
  6
CENTER2
 62
     7
 48
25.4
100
AcDbLine
 10
99.4362892844
 20
197.5348105924
 30
0.0
 11
99.4362892844
 21
194.365891526
 31
0.0
  0
LINE
  5
2A0
330
1F
100
AcDbEntity
  8
10
  6
Continuous
 62
     7
 48
25.4
100
AcDbLine
 10
103.9362892844
 20
196.7571500134
 30
0.0
 11
94.9362892841
 21
196.7571500134
 31
0.0
  0
LINE
  5
2A1
330
1F
100
AcDbEntity
  8
Standard
  6
CENTER2
 62
     7
 48
25.4
100
AcDbLine
 10
99.4362892844
 20
225.06356809
 30
0.0
 11
99.4362892844
 21
207.7157995365
 31
0.0
  0
LINE
  5
2A2
330
1F
100
AcDbEntity
  8
Standard
  6
Continuous
 62
     7
 48
25.4
100
AcDbLine
 10
96.0487892844
 20
224.1821500134
 30
0.0
 11
91.5322746165
 21
224.1821500134
 31
0.0
  0
ARC
  5
2A3
330
1F
100
AcDbEntity
  8
Standard
  6
Continuous
 62
     7
 48
25.4
100
AcDbCircle
 10
91.5322746165
 20
224.0571500134
 30
0.0
 40
0.125
100
AcDbArc
 50
90.0
 51
165.1504721945
  0
ARC
  5
2A4
330
1F
100
AcDbEntity
  8
Standard
  6
Continuous
 62
     7
 48
25.4
100
AcDbCircle
 10
115.5765046936
 20
217.6821500134
 30
0.0
 40
25.0
100
AcDbArc
 50
165.1504721945
 51
194.8495278055
  0
ARC
  5
2A5
330
1F
100
AcDbEntity
  8
Standard
  6
Continuous
 62
     7
 48
25.4
100
AcDbCircle
 10
91.5322746165
 20
211.3071500134
 30
0.0
 40
0.125
100
AcDbArc
 50
194.8495278055
 51
270.0
  0
LINE
  5
2A6
330
1F
100
AcDbEntity
  8
Standard
  6
Continuous
 62
     7
 48
25.4
100
AcDbLine
 10
91.5322746165
 20
211.1821500134
 30
0.0
 11
94.9112892844
 21
211.1821500134
 31
0.0
  0
LINE
  5
2A7
330
1F
100
AcDbEntity
  8
Standard
  6
CENTER2
 62
     7
 48
25.4
100
AcDbLine
 10
90.5765046936
 20
217.6821500134
 30
0.0
 11
90.5767093997
 21
217.5809805146
 31
0.0
  0
LINE
  5
2A9
330
1F
100
AcDbEntity
  8
Layer03
  6
Continuous
 62
     7
 48
25.4
100
AcDbLine
 10
112.5352078633
 20
224.1810685924
 30
0.0
 11
112.5352078633
 21
211.1842805502
 31
0.0
  0
LINE
  5
2AB
330
1F
100
AcDbEntity
  8
Hebel
  6
Continuous
 62
     7
 48
25.4
100
AcDbLine
 10
123.3566189814
 20
240.3645225362
 30
0.0
 11
125.6066189814
 21
240.3645225362
 31
0.0
  0
ARC
  5
2AC
330
1F
100
AcDbEntity
  8
Hebel
  6
Continuous
 62
     7
 48
25.4
100
AcDbCircle
 10
125.6066189814
 20
240.2395225362
 30
0.0
 40
0.125
100
AcDbArc
 50
0.0
 51
90.0
  0
LINE
  5
2AD
330
1F
100
AcDbEntity
  8
Hebel
  6
Continuous
 62
     7
 48
25.4
100
AcDbLine
 10
125.7316189814
 20
240.2395225362
 30
0.0
 11
125.7316189814
 21
224.1173560704
 31
0.0
  0
ARC
  5
2AE
330
1F
100
AcDbEntity
  8
Default
  6
Continuous
 62
     7
 48
25.4
100
AcDbCircle
 10
125.8566189814
 20
224.1173560704
 30
0.0
 40
0.125
100
AcDbArc
 50
180.0
 51
268.9999995714
  0
LINE
  5
2AF
330
1F
100
AcDbEntity
  8
Hebel
  6
Continuous
 62
     7
 48
25.4
100
AcDbLine
 10
126.2168547274
 20
223.9860490883
 30
0.0
 11
125.8544374296
 21
223.9923751085
 31
0.0
  0
ARC
  5
2B0
330
1F
100
AcDbEntity
  8
Default
  6
Continuous
 62
     7
 48
25.4
100
AcDbCircle
 10
126.2124916239
 20
223.7360871646
 30
0.0
 40
0.2499999999999986
100
AcDbArc
 50
14.3199229266
 51
88.9999995714
  0
ARC
  5
2B1
330
1F
100
AcDbEntity
  8
Hebel
  6
Continuous
 62
     7
 48
25.4
100
AcDbCircle
 10
123.3566189814
 20
240.2395225362
 30
0.0
 40
0.125
100
AcDbArc
 50
90.0
 51
180.0
  0
LINE
  5
2B2
330
1F
100
AcDbEntity
  8
Hebel
  6
Continuous
 62
     7
 48
25.4
100
AcDbLine
 10
123.2316189814
 20
240.2395225362
 30
0.0
 11
123.2316189814
 21
224.1614301282
 31
0.0
  0
ARC
  5
2B3
330
1F
100
AcDbEntity
  8
Default
  6
Continuous
 62
     7
 48
25.4
100
AcDbCircle
 10
123.1066189814
 20
224.1614301282
 30
0.0
 40
0.125
100
AcDbArc
 50
268.9999995714
 51
360.0
  0
LINE
  5
2B4
330
1F
100
AcDbEntity
  8
Hebel
  6
Continuous
 62
     7
 48
25.4
100
AcDbLine
 10
123.1044374296
 20
224.0364491663
 30
0.0
 11
118.6316189814
 21
224.1145225362
 31
0.0
  0
ARC
  5
2B5
330
1F
100
AcDbEntity
  8
Default
  6
Continuous
 62
     7
 48
25.4
100
AcDbCircle
 10
119.8816189814
 20
219.3318030299
 30
0.0
 40
1.25
100
AcDbArc
 50
180.0
 51
206.1621536421
  0
LINE
  5
2B6
330
1F
100
AcDbEntity
  8
Hebel
  6
Continuous
 62
     7
 48
25.4
100
AcDbLine
 10
118.6316189814
 20
224.1145225362
 30
0.0
 11
118.6316189814
 21
219.3318030299
 31
0.0
  0
LINE
  5
2B7
330
1F
100
AcDbEntity
  8
Hebel
  6
Continuous
 62
     7
 48
25.4
100
AcDbLine
 10
123.3566189814
 20
240.3645225362
 30
0.0
 11
125.6066189814
 21
240.3645225362
 31
0.0
  0
ARC
  5
2B8
330
1F
100
AcDbEntity
  8
Hebel
  6
Continuous
 62
     7
 48
25.4
100
AcDbCircle
 10
102.2314794163
 20
217.6145225362
 30
0.0
 40
25.0
100
AcDbArc
 50
345.6800770734
 51
14.3199229266
  0
LINE
  5
2B9
330
1F
100
AcDbEntity
  8
Hebel
  6
Continuous
 62
     7
 48
25.4
100
AcDbLine
 10
123.3646126387
 20
211.1932098919
 30
0.0
 11
126.2168547274
 21
211.2429959841
 31
0.0
  0
ARC
  5
2BA
330
1F
100
AcDbEntity
  8
Default
  6
Continuous
 62
     7
 48
25.4
100
AcDbCircle
 10
126.2124916239
 20
211.4929579079
 30
0.0
 40
0.2499999999999895
100
AcDbArc
 50
271.0000004286
 51
345.6800770734
  0
ARC
  5
2BB
330
1F
100
AcDbEntity
  8
Default
  6
Continuous
 62
     7
 48
25.4
100
AcDbCircle
 10
163.6371721093
 20
240.8263155962
 30
0.0
 40
50.0
100
AcDbArc
 50
206.1621536421
 51
216.346148349
  0
LINE
  5
2BC
330
1F
100
AcDbEntity
  8
Hebel
  6
Continuous
 62
     7
 48
25.4
100
AcDbLine
 10
123.3566189814
 20
240.3645225362
 30
0.0
 11
125.6066189814
 21
240.3645225362
 31
0.0
  0
ARC
  5
2BD
330
1F
100
AcDbEntity
  8
MDS_Layer_3
  6
Continuous
 62
     7
 48
25.4
100
AcDbCircle
 10
116.6487621617
 20
217.5716339083
 30
0.0
 40
6.250000000000003
100
AcDbArc
 50
71.5028737714
 51
75.2768042539
  0
LINE
  5
2BE
330
1F
100
AcDbEntity
  8
Schraubkappe
  6
Continuous
 62
     7
 48
25.4
100
AcDbLine
 10
120.9110740853
 20
214.8555522721
 30
0.0
 11
120.9110740853
 21
213.9321500134
 31
0.0
  0
ARC
  5
2C0
330
1F
100
AcDbEntity
  8
Default
  6
HIDDEN2
 62
     7
 48
25.4
100
AcDbCircle
 10
120.2132834993
 20
217.1891486273
 30
0.0
 40
1.25
100
AcDbArc
 50
148.0
 51
174.1621536421
  0
LINE
  5
2C1
330
1F
100
AcDbEntity
  8
Hebel
  6
HIDDEN2
 62
     7
 48
25.4
100
AcDbLine
 10
121.6876785809
 20
221.9075238794
 30
0.0
 11
119.1532233791
 21
217.8515477076
 31
0.0
  0
ARC
  5
2C2
330
1F
100
AcDbEntity
  8
Default
  6
HIDDEN2
 62
     7
 48
25.4
100
AcDbCircle
 10
168.71045331
 20
212.2306185673
 30
0.0
 40
50.0
100
AcDbArc
 50
174.1621536421
 51
184.346148349
  0
LINE
  5
2C3
330
1F
100
AcDbEntity
  8
Hebel
  6
HIDDEN2
 62
     7
 48
25.4
100
AcDbLine
 10
134.305893879
 20
233.1844369184
 30
0.0
 11
136.2140020954
 21
231.9921185739
 31
0.0
  0
ARC
  5
2C4
330
1F
100
AcDbEntity
  8
Hebel
  6
HIDDEN2
 62
     7
 48
25.4
100
AcDbCircle
 10
136.1477621874
 20
231.8861125619
 30
0.0
 40
0.125
100
AcDbArc
 50
328.0
 51
58.0
  0
LINE
  5
2C5
330
1F
100
AcDbEntity
  8
Hebel
  6
HIDDEN2
 62
     7
 48
25.4
100
AcDbLine
 10
118.8542323517
 20
208.441524775
 30
0.0
 11
121.2994534342
 21
206.9722877467
 31
0.0
  0
ARC
  5
2C6
330
1F
100
AcDbEntity
  8
Hebel
  6
HIDDEN2
 62
     7
 48
25.4
100
AcDbCircle
 10
104.3350962286
 20
225.085961146
 30
0.0
 40
25.0
100
AcDbArc
 50
313.6800770734
 51
342.3199229266
  0
LINE
  5
2C7
330
1F
100
AcDbEntity
  8
Hebel
  6
HIDDEN2
 62
     7
 48
25.4
100
AcDbLine
 10
134.305893879
 20
233.1844369184
 30
0.0
 11
136.2140020954
 21
231.9921185739
 31
0.0
  0
ARC
  5
2C8
330
1F
100
AcDbEntity
  8
Default
  6
HIDDEN2
 62
     7
 48
25.4
100
AcDbCircle
 10
121.4282129513
 20
207.1865795728
 30
0.0
 40
0.2499999999999895
100
AcDbArc
 50
239.0000004286
 51
313.6800770734
  0
ARC
  5
2C9
330
1F
100
AcDbEntity
  8
Hebel
  6
HIDDEN2
 62
     7
 48
25.4
100
AcDbCircle
 10
134.239653971
 20
233.0784309064
 30
0.0
 40
0.125
100
AcDbArc
 50
58.0
 51
148.0
  0
ARC
  5
2CA
330
1F
100
AcDbEntity
  8
Default
  6
HIDDEN2
 62
     7
 48
25.4
100
AcDbCircle
 10
127.9160829989
 20
217.5693420299
 30
0.0
 40
0.2499999999999986
100
AcDbArc
 50
342.3199229266
 51
56.9999995714
  0
LINE
  5
2CB
330
1F
100
AcDbEntity
  8
Hebel
  6
HIDDEN2
 62
     7
 48
25.4
100
AcDbLine
 10
136.2537681994
 20
231.8198726538
 30
0.0
 11
127.7103216079
 21
218.1475000766
 31
0.0
  0
ARC
  5
2CC
330
1F
100
AcDbEntity
  8
Default
  6
HIDDEN2
 62
     7
 48
25.4
100
AcDbCircle
 10
127.81632762
 20
218.0812601685
 30
0.0
 40
0.125
100
AcDbArc
 50
148.0
 51
236.9999995714
  0
LINE
  5
2CD
330
1F
100
AcDbEntity
  8
Hebel
  6
HIDDEN2
 62
     7
 48
25.4
100
AcDbLine
 10
128.0522427593
 20
217.7790096709
 30
0.0
 11
127.7482477398
 21
217.976426348
 31
0.0
  0
LINE
  5
2CE
330
1F
100
AcDbEntity
  8
Hebel
  6
HIDDEN2
 62
     7
 48
25.4
100
AcDbLine
 10
125.4394711677
 20
219.4710812455
 30
0.0
 11
121.6876785809
 21
221.9075238794
 31
0.0
  0
ARC
  5
2CF
330
1F
100
AcDbEntity
  8
Default
  6
HIDDEN2
 62
     7
 48
25.4
100
AcDbCircle
 10
125.5075510478
 20
219.575915066
 30
0.0
 40
0.125
100
AcDbArc
 50
236.9999995714
 51
328.0
  0
LINE
  5
2D0
330
1F
100
AcDbEntity
  8
Hebel
  6
HIDDEN2
 62
     7
 48
25.4
100
AcDbLine
 10
134.133647959
 20
233.1446708144
 30
0.0
 11
125.6135570599
 21
219.509675158
 31
0.0
  0
ARC
  5
2D1
330
1F
100
AcDbEntity
  8
Default
  6
Continuous
 62
     7
 48
25.4
100
AcDbCircle
 10
168.1832442743
 20
226.8849686691
 30
0.0
 40
50.0
100
AcDbArc
 50
196.4857817416
 51
196.5051169806
  0
TEXT
  5
2D3
330
1F
100
AcDbEntity
  8
Layer03
  6
Continuous
 62
     7
 48
25.4
100
AcDbText
 10
12.1444444444
 20
31.9333333333
 30
0.0
 40
4.0
  1
1:4
  7
SEACAD_arial_ttfB
 11
12.1444444444
 21
35.9333333333
 31
0.0
100
AcDbText
 73
     3
  0
TEXT
  5
2D4
330
1F
100
AcDbEntity
  8
Layer03
  6
Continuous
 62
     7
 48
25.4
100
AcDbText
 10
18.9611111111
 20
8.6666666667
 30
0.0
 40
5.0
  1
x
  7
SEACAD_arial_ttfB
 11
18.9611111111
 21
13.6666666667
 31
0.0
100
AcDbText
 73
     3
  0
TEXT
  5
2D5
330
1F
100
AcDbEntity
  8
Layer03
  6
Continuous
 62
     7
 48
25.4
100
AcDbText
 10
175.4
 20
13.9333333333
 30
0.0
 40
4.0
  1
32.507.000
  7
SEACAD_arial_ttfB
 11
175.4
 21
17.9333333333
 31
0.0
100
AcDbText
 73
     3
  0
LINE
  5
2D6
330
1F
100
AcDbEntity
  8
MDS_Layer_1
  6
Continuous
 62
     7
 48
25.4
100
AcDbLine
 10
102.8112892844
 20
228.1821500134
 30
0.0
 11
96.0612892844
 21
228.1821500134
 31
0.0
  0
LINE
  5
2D7
330
1F
100
AcDbEntity
  8
MDS_Layer_1
  6
Continuous
 62
     7
 48
25.4
100
AcDbLine
 10
96.0612892844
 20
224.1769696987
 30
0.0
 11
96.0612892844
 21
228.1821500134
 31
0.0
  0
LINE
  5
2D9
330
1F
100
AcDbEntity
  8
MDS_Layer_4
  6
CENTER2
 62
     7
 48
25.4
100
AcDbLine
 10
99.4362892844
 20
218.6966842648
 30
0.0
 11
99.4362892844
 21
228.6648330711
 31
0.0
  0
LINE
  5
2DA
330
1F
100
AcDbEntity
  8
Standard
  6
Continuous
 62
     7
 48
25.4
100
AcDbLine
 10
103.9362892844
 20
197.1321500134
 30
0.0
 11
103.9362892844
 21
211.1821500134
 31
0.0
  0
LINE
  5
2DB
330
1F
100
AcDbEntity
  8
Hebel
  6
Continuous
 62
     7
 48
25.4
100
AcDbLine
 10
103.9362892844
 20
199.2066112121
 30
0.0
 11
103.9362892844
 21
196.7571500134
 31
0.0
  0
LINE
  5
2DD
330
1F
100
AcDbEntity
  8
020
  6
Continuous
 62
     7
 48
25.4
100
AcDbLine
 10
94.9362892844
 20
199.2066112121
 30
0.0
 11
94.9362892844
 21
196.7571500134
 31
0.0
  0
LINE
  5
2DE
330
1F
100
AcDbEntity
  8
Standard
  6
Continuous
 62
     7
 48
25.4
100
AcDbLine
 10
94.9362892844
 20
211.1998842303
 30
0.0
 11
94.9362892844
 21
197.1321500134
 31
0.0
  0
LINE
  5
2DF
330
1F
100
AcDbEntity
  8
Standard
  6
CENTER2
 62
     7
 48
25.4
100
AcDbLine
 10
99.4362892844
 20
195.7841626328
 30
0.0
 11
99.4362892844
 21
215.7690023914
 31
0.0
  0
SPLINE
  5
2E1
330
1F
100
AcDbEntity
  8
Layer09
  6
Continuous
 62
     7
 48
25.4
100
AcDbSpline
210
0.0
220
0.0
230
1.0
 70
     8
 71
     3
 72
    14
 73
    10
 74
     0
 42
0.0000000001
 43
0.0000000001
 40
0.0
 40
0.0
 40
0.0
 40
0.0
 40
0.1152969092739769
 40
0.2711413192047928
 40
0.4273525661176787
 40
0.5589203061970287
 40
0.6991900676426393
 40
0.8641387598966797
 40
1.0
 40
1.0
 40
1.0
 40
1.0
 10
103.9123711114685
 20
211.1840322548609
 30
0.0
 10
103.9679321183552
 20
211.1471773110428
 30
0.0
 10
103.8396713335627
 20
211.2345551791255
 30
0.0
 10
102.7187136010673
 20
211.9784203834761
 30
0.0
 10
100.9195818776891
 20
212.9089373888353
 30
0.0
 10
98.65033957842132
 20
213.1004761197242
 30
0.0
 10
96.65827988127222
 20
212.3128186210968
 30
0.0
 10
95.2497970044368
 20
211.4242200189319
 30
0.0
 10
94.89678948996222
 20
211.1721039083662
 30
0.0
 10
94.88628928440346
 20
211.1646811391262
 30
0.0
  0
LINE
  5
2E2
330
1F
100
AcDbEntity
  8
Layer11
  6
Continuous
 62
     7
 48
25.4
100
AcDbLine
 10
82.5588043958
 20
195.6321500134
 30
0.0
 11
92.6862892844
 21
195.6321500134
 31
0.0
  0
LINE
  5
2E3
330
1F
100
AcDbEntity
  8
Layer11
  6
Continuous
 62
     7
 48
25.4
100
AcDbLine
 10
95.1862892844
 20
195.6321500134
 30
0.0
 11
95.1862892844
 21
184.3821500134
 31
0.0
  0
LINE
  5
2E4
330
1F
100
AcDbEntity
  8
Layer11
  6
Continuous
 62
     7
 48
25.4
100
AcDbLine
 10
103.6862892844
 20
195.6321500134
 30
0.0
 11
103.6862892844
 21
184.3821500134
 31
0.0
  0
HATCH
  5
2E5
330
1F
100
AcDbEntity
  8
0
  6
Continuous
 62
     7
 48
25.4
100
AcDbHatch
 10
0.0
 20
0.0
 30
0.0
210
0.0
220
0.0
230
1.0
  2
LINE
 70
     0
 71
     0
 91
        1
 92
        1
 93
        5
 72
     1
 10
92.68628928440343
 20
195.6321500134314
 11
82.55880439579532
 21
195.6321500134314
 72
     1
 10
82.55880439579531
 20
195.6321500134314
 11
82.55880439579531
 21
191.4121793098889
 72
     1
 10
82.55880439579531
 20
191.4121793098889
 11
95.18628928440327
 21
191.4121793098889
 72
     1
 10
95.18628928440329
 20
191.4121793098889
 11
95.18628928440329
 21
195.6321500134314
 72
     1
 10
95.18628928440329
 20
195.6321500134314
 11
92.68628928440343
 21
195.6321500134314
 97
        0
 75
     0
 76
     2
 52
45.0
 41
1.0416666667
 77
     0
 78
     1
 53
45.0
 43
0.0
 44
0.0
 45
-2.338608364861759
 46
2.338608364861759
 79
     0
 98
        0
  0
LWPOLYLINE
  5
2E6
330
1F
100
AcDbEntity
  8
0
  6
Continuous
 62
     7
 48
25.4
100
AcDbPolyline
 90
        6
 70
     1
 43
0.0
 10
92.6862892844
 20
195.6321500134
 10
95.1862892844
 20
195.6321500134
 10
95.1862892844
 20
191.4121793099
 10
82.5588043958
 20
191.4121793099
 10
82.5588043958
 20
195.6321500134
 10
92.6862892844
 20
195.6321500134
  0
HATCH
  5
2E7
330
1F
100
AcDbEntity
  8
0
  6
Continuous
 62
     7
 48
25.4
100
AcDbHatch
 10
0.0
 20
0.0
 30
0.0
210
0.0
220
0.0
230
1.0
  2
LINE
 70
     0
 71
     0
 91
        1
 92
        1
 93
        5
 72
     1
 10
116.3137741730113
 20
191.4121793098889
 11
116.3137741730113
 21
195.6321500134314
 72
     1
 10
116.3137741730113
 20
195.6321500134314
 11
106.1862892844032
 21
195.6321500134314
 72
     1
 10
106.1862892844032
 20
195.6321500134314
 11
103.6862892844033
 21
195.6321500134314
 72
     1
 10
103.6862892844033
 20
195.6321500134314
 11
103.6862892844033
 21
191.4121793098889
 72
     1
 10
103.6862892844033
 20
191.4121793098889
 11
116.3137741730113
 21
191.4121793098889
 97
        0
 75
     0
 76
     2
 52
45.0
 41
1.0416666667
 77
     0
 78
     1
 53
45.0
 43
0.0
 44
0.0
 45
-2.338608364861759
 46
2.338608364861759
 79
     0
 98
        0
  0
LWPOLYLINE
  5
2E8
330
1F
100
AcDbEntity
  8
0
  6
Continuous
 62
     7
 48
25.4
100
AcDbPolyline
 90
        6
 70
     1
 43
0.0
 10
116.313774173
 20
191.4121793099
 10
116.313774173
 20
195.6321500134
 10
106.1862892844
 20
195.6321500134
 10
103.6862892844
 20
195.6321500134
 10
103.6862892844
 20
191.4121793099
 10
116.313774173
 20
191.4121793099
  0
LINE
  5
2E9
330
1F
100
AcDbEntity
  8
Layer17
  6
Continuous
 62
     7
 48
25.4
100
AcDbLine
 10
101.9362892844
 20
184.3821500134
 30
0.0
 11
101.9362892844
 21
195.6321500134
 31
0.0
  0
LINE
  5
2EA
330
1F
100
AcDbEntity
  8
Layer17
  6
Continuous
 62
     7
 48
25.4
100
AcDbLine
 10
99.9362892844
 20
195.6321500134
 30
0.0
 11
99.9362892844
 21
184.3821500134
 31
0.0
  0
LINE
  5
2EC
330
1F
100
AcDbEntity
  8
Layer16
  6
Continuous
 62
     7
 48
25.4
100
AcDbLine
 10
97.8112892844
 20
195.6321500134
 30
0.0
 11
97.8112892844
 21
184.3821500134
 31
0.0
  0
LINE
  5
2ED
330
1F
100
AcDbEntity
  8
Layer16
  6
Continuous
 62
     7
 48
25.4
100
AcDbLine
 10
99.6362892844
 20
195.6321500134
 30
0.0
 11
99.6362892844
 21
184.3821500134
 31
0.0
  0
LINE
  5
2EE
330
1F
100
AcDbEntity
  8
Layer16
  6
Continuous
 62
     7
 48
25.4
100
AcDbLine
 10
99.8112892844
 20
195.6321500134
 30
0.0
 11
99.8112892844
 21
184.3821500134
 31
0.0
  0
LINE
  5
2EF
330
1F
100
AcDbEntity
  8
Layer16
  6
Continuous
 62
     7
 48
25.4
100
AcDbLine
 10
97.9862892844
 20
195.6321500134
 30
0.0
 11
97.9862892844
 21
184.3821500134
 31
0.0
  0
SPLINE
  5
2F0
330
1F
100
AcDbEntity
  8
Layer09
  6
Continuous
 62
     7
 48
25.4
100
AcDbSpline
210
0.0
220
0.0
230
1.0
 70
     8
 71
     3
 72
    13
 73
     9
 74
     0
 42
0.0000000001
 43
0.0000000001
 40
0.0
 40
0.0
 40
0.0
 40
0.0
 40
0.1116157113229308
 40
0.3130570406752259
 40
0.5097016787024729
 40
0.6978492644774516
 40
0.9155813560412757
 40
1.0
 40
1.0
 40
1.0
 40
1.0
 10
102.8088026869045
 20
224.1868337996134
 30
0.0
 10
102.8052109144373
 20
224.1858537403851
 30
0.0
 10
102.6008036668165
 20
224.0856961792165
 30
0.0
 10
101.461439536938
 20
223.509918030119
 30
0.0
 10
99.33883160455048
 20
223.0877107697403
 30
0.0
 10
97.21317050388713
 20
223.5775018427604
 30
0.0
 10
96.18720641687224
 20
224.1174590025791
 30
0.0
 10
96.04200776820393
 20
224.1865445561139
 30
0.0
 10
96.04059690089245
 20
224.1860991494499
 30
0.0
  0
LINE
  5
2F1
330
1F
100
AcDbEntity
  8
MDS_Layer_1
  6
Continuous
 62
     7
 48
25.4
100
AcDbLine
 10
102.8112892844
 20
224.1821500134
 30
0.0
 11
102.8112892844
 21
228.1821500134
 31
0.0
  0
LINE
  5
2F2
330
1F
100
AcDbEntity
  8
Layer03
  6
Continuous
 62
     7
 48
25.4
100
AcDbLine
 10
136.2727621874
 20
231.8861125619
 30
0.0
 11
136.2727621874
 21
234.0789617391
 31
0.0
  0
SPLINE
  5
2F3
330
1F
100
AcDbEntity
  8
Layer03
  6
Continuous
 62
     7
 48
25.4
100
AcDbSpline
210
0.0
220
0.0
230
1.0
 70
     8
 71
     3
 72
     8
 73
     4
 74
     0
 42
0.0000000001
 43
0.0000000001
 40
0.0
 40
0.0
 40
0.0
 40
0.0
 40
1.0
 40
1.0
 40
1.0
 40
1.0
 10
123.1044374296115
 20
224.0364491663266
 30
0.0
 10
124.0193939167262
 20
223.564870009854
 30
0.0
 10
124.8893986596405
 20
223.5501786572419
 30
0.0
 10
125.8544374296116
 20
223.9923751084902
 30
0.0
  0
SPLINE
  5
2F4
330
1F
100
AcDbEntity
  8
Layer03
  6
HIDDEN2
 62
     7
 48
25.4
100
AcDbSpline
210
0.0
220
0.0
230
1.0
 70
     8
 71
     3
 72
     8
 73
     4
 74
     0
 42
0.0000000001
 43
0.0000000001
 40
0.0
 40
0.0
 40
0.0
 40
0.0
 40
1.0
 40
1.0
 40
1.0
 40
1.0
 10
125.4705279952743
 20
219.4770109434739
 30
0.0
 10
125.9773693164285
 20
218.5811068474328
 30
0.0
 10
126.6970178580752
 20
218.0919953416994
 30
0.0
 10
127.7465622983915
 20
217.932954476369
 30
0.0
  0
LINE
  5
2F5
330
1F
100
AcDbEntity
  8
Standard
  6
Continuous
 62
     7
 48
25.4
100
AcDbLine
 10
102.8112892844
 20
227.4897641989
 30
0.0
 11
100.1612892844
 21
227.4897641989
 31
0.0
  0
LINE
  5
2F6
330
1F
100
AcDbEntity
  8
Standard
  6
Continuous
 62
     7
 48
25.4
100
AcDbLine
 10
100.1612892844
 20
227.4897641989
 30
0.0
 11
100.1612892844
 21
227.1022641989
 31
0.0
  0
LINE
  5
2F7
330
1F
100
AcDbEntity
  8
Standard
  6
CENTER2
 62
     7
 48
25.4
100
AcDbLine
 10
103.1477973466
 20
227.2960141989
 30
0.0
 11
99.7405112567
 21
227.2960141989
 31
0.0
  0
LINE
  5
2F8
330
1F
100
AcDbEntity
  8
Standard
  6
Continuous
 62
     7
 48
25.4
100
AcDbLine
 10
100.1612892844
 20
227.1022641989
 30
0.0
 11
102.8112892844
 21
227.1022641989
 31
0.0
  0
TEXT
  5
2F9
330
1F
100
AcDbEntity
  8
Layer3
  6
Continuous
 62
     7
 48
25.4
100
AcDbText
 10
47.4
 20
17.9333333333
 30
0.0
 40
4.0
  1
32.488.000
  7
SEACAD_arial_ttfB
 11
47.4
 21
21.9333333333
 31
0.0
100
AcDbText
 73
     3
  0
TEXT
  5
2FB
330
1F
100
AcDbEntity
  8
Bogenauslauf_55grad_unten
  6
Continuous
 62
     7
 48
25.4
100
AcDbText
 10
51.2222222222
 20
41.4666666667
 30
0.0
 40
2.0
  1
J2004
  7
SEACAD_arial_ttfB
 11
51.2222222222
 21
43.4666666667
 31
0.0
100
AcDbText
 73
     3
  0
TEXT
  5
2FD
330
1F
100
AcDbEntity
  8
Bogenauslauf_55grad_unten
  6
Continuous
 62
     7
 48
25.4
100
AcDbText
 10
50.0888888889
 20
36.9666666667
 30
0.0
 40
2.0
  1
04. 2.20
  7
SEACAD_arial_ttfB
 11
50.0888888889
 21
38.9666666667
 31
0.0
100
AcDbText
 73
     3
  0
TEXT
  5
2FE
330
1F
100
AcDbEntity
  8
Bogenauslauf_55grad_unten
  6
Continuous
 62
     7
 48
25.4
100
AcDbText
 10
52.8666666667
 20
31.9666666667
 30
0.0
 40
2.0
  1
Sm
  7
SEACAD_arial_ttfB
 11
52.8666666667
 21
33.9666666667
 31
0.0
100
AcDbText
 73
     3
  0
INSERT
  5
300
330
1F
100
AcDbEntity
  8
Default
100
AcDbBlockReference
  2
SEANNOT_GROUP
 10
0.0
 20
0.0
 30
0.0
  0
INSERT
  5
305
330
1F
100
AcDbEntity
  8
Default
100
AcDbBlockReference
  2
SEANNOT_GROUP1
 10
0.0
 20
0.0
 30
0.0
  0
INSERT
  5
30A
330
1F
100
AcDbEntity
  8
Default
100
AcDbBlockReference
  2
SEANNOT_GROUP2
 10
0.0
 20
0.0
 30
0.0
  0
LINE
  5
30E
330
1F
100
AcDbEntity
  8
Layer18
  6
Continuous
 62
     7
 48
25.4
100
AcDbLine
 10
90.1344094434
 20
147.5489152673
 30
0.0
 11
89.9838310543
 21
147.8097246876
 31
0.0
  0
LINE
  5
30F
330
1F
100
AcDbEntity
  8
Layer18
  6
Continuous
 62
     7
 48
25.4
100
AcDbLine
 10
93.1563547075
 20
147.0927084079
 30
0.0
 11
92.7381349526
 21
146.8512491198
 31
0.0
  0
LINE
  5
310
330
1F
100
AcDbEntity
  8
Layer18
  6
Continuous
 62
     7
 48
25.4
100
AcDbLine
 10
93.0679744741
 20
146.7628688863
 30
0.0
 11
93.6477808989
 21
148.9267359224
 31
0.0
  0
LINE
  5
311
330
1F
100
AcDbEntity
  8
Layer18
  6
Continuous
 62
     7
 48
25.4
100
AcDbLine
 10
90.5085219635
 20
149.767897819
 30
0.0
 11
89.9287155386
 21
147.6040307829
 31
0.0
  0
LINE
  5
312
330
1F
100
AcDbEntity
  8
Layer18
  6
Continuous
 62
     7
 48
25.4
100
AcDbLine
 10
106.8046040947
 20
146.7628688863
 30
0.0
 11
106.2247976699
 21
148.9267359224
 31
0.0
  0
LINE
  5
313
330
1F
100
AcDbEntity
  8
Layer18
  6
Continuous
 62
     7
 48
25.4
100
AcDbLine
 10
106.7162238613
 20
147.0927084079
 30
0.0
 11
107.1344436163
 21
146.8512491198
 31
0.0
  0
LINE
  5
314
330
1F
100
AcDbEntity
  8
Layer18
  6
Continuous
 62
     7
 48
25.4
100
AcDbLine
 10
109.7381691255
 20
147.5489152673
 30
0.0
 11
109.8887475145
 21
147.8097246876
 31
0.0
  0
LINE
  5
315
330
1F
100
AcDbEntity
  8
Layer18
  6
Continuous
 62
     7
 48
25.4
100
AcDbLine
 10
109.3640566053
 20
149.767897819
 30
0.0
 11
109.9438630302
 21
147.6040307829
 31
0.0
  0
CIRCLE
  5
316
330
1F
100
AcDbEntity
  8
Default
  6
Continuous
 62
     7
 48
25.4
100
AcDbCircle
 10
74.8112892844
 20
85.6321500134
 30
0.0
 40
4.375
  0
TEXT
  5
317
330
1F
100
AcDbEntity
  8
Bogenauslauf_55grad_unten
  6
Continuous
 62
     7
 48
25.4
100
AcDbText
 10
70.0888888889
 20
36.9666666667
 30
0.0
 40
2.0
  1
06. 2.20
  7
SEACAD_arial_ttfB
 11
70.0888888889
 21
38.9666666667
 31
0.0
100
AcDbText
 73
     3
  0
TEXT
  5
318
330
1F
100
AcDbEntity
  8
Bogenauslauf_55grad_unten
  6
Continuous
 62
     7
 48
25.4
100
AcDbText
 10
72.8666666667
 20
31.9666666667
 30
0.0
 40
2.0
  1
Sm
  7
SEACAD_arial_ttfB
 11
72.8666666667
 21
33.9666666667
 31
0.0
100
AcDbText
 73
     3
  0
TEXT
  5
319
330
1F
100
AcDbEntity
  8
Bogenauslauf_55grad_unten
  6
Continuous
 62
     7
 48
25.4
100
AcDbText
 10
70.4222222222
 20
41.4666666667
 30
0.0
 40
2.0
  1
Supply
  7
SEACAD_arial_ttfB
 11
70.4222222222
 21
43.4666666667
 31
0.0
100
AcDbText
 73
     3
  0
TEXT
  5
31A
330
1F
100
AcDbEntity
  8
Bogenauslauf_55grad_unten
  6
Continuous
 62
     7
 48
25.4
100
AcDbText
 10
90.0888888889
 20
36.9666666667
 30
0.0
 40
2.0
  1
06. 9.20
  7
SEACAD_arial_ttfB
 11
90.0888888889
 21
38.9666666667
 31
0.0
100
AcDbText
 73
     3
  0
TEXT
  5
31B
330
1F
100
AcDbEntity
  8
Bogenauslauf_55grad_unten
  6
Continuous
 62
     7
 48
25.4
100
AcDbText
 10
92.8666666667
 20
31.9666666667
 30
0.0
 40
2.0
  1
Sm
  7
SEACAD_arial_ttfB
 11
92.8666666667
 21
33.9666666667
 31
0.0
100
AcDbText
 73
     3
  0
TEXT
  5
31C
330
1F
100
AcDbEntity
  8
Bogenauslauf_55grad_unten
  6
Continuous
 62
     7
 48
25.4
100
AcDbText
 10
90.9777777778
 20
41.4666666667
 30
0.0
 40
2.0
  1
K2006
  7
SEACAD_arial_ttfB
 11
90.9777777778
 21
43.4666666667
 31
0.0
100
AcDbText
 73
     3
  0
TEXT
  5
31D
330
1F
100
AcDbEntity
  8
Bogenauslauf_55grad_unten
  6
Continuous
 62
     7
 48
25.4
100
AcDbText
 10
88.4888888889
 20
26.9666666667
 30
0.0
 40
2.0
  1
m3250704
  7
SEACAD_arial_ttfB
 11
88.4888888889
 21
28.9666666667
 31
0.0
100
AcDbText
 73
     3
  0
INSERT
  5
31F
330
1F
100
AcDbEntity
  8
Layer03
100
AcDbBlockReference
  2
GDimGGroup
 10
0.0
 20
0.0
 30
0.0
  0
INSERT
  5
32D
330
1F
100
AcDbEntity
  8
0
100
AcDbBlockReference
  2
SE
 10
0.0
 20
0.0
 30
0.0
  0
INSERT
  5
362
330
1F
100
AcDbEntity
  8
Layer03
100
AcDbBlockReference
  2
GDimGGroup1
 10
0.0
 20
0.0
 30
0.0
  0
INSERT
  5
36F
330
1F
100
AcDbEntity
  8
Layer03
100
AcDbBlockReference
  2
GDimGGroup2
 10
0.0
 20
0.0
 30
0.0
  0
INSERT
  5
37C
330
1F
100
AcDbEntity
  8
Layer03
100
AcDbBlockReference
  2
GDimGGroup3
 10
0.0
 20
0.0
 30
0.0
  0
INSERT
  5
38A
330
1F
100
AcDbEntity
  8
Layer03
100
AcDbBlockReference
  2
GDimGGroup4
 10
0.0
 20
0.0
 30
0.0
  0
INSERT
  5
397
330
1F
100
AcDbEntity
  8
Layer03
100
AcDbBlockReference
  2
GDimGGroup5
 10
0.0
 20
0.0
 30
0.0
  0
INSERT
  5
3A4
330
1F
100
AcDbEntity
  8
Layer03
100
AcDbBlockReference
  2
GDimGGroup6
 10
0.0
 20
0.0
 30
0.0
  0
INSERT
  5
3B0
330
1F
100
AcDbEntity
  8
0
100
AcDbBlockReference
  2
SE2
 10
0.0
 20
0.0
 30
0.0
  0
INSERT
  5
3CC
330
1F
100
AcDbEntity
  8
Default
100
AcDbBlockReference
  2
GDimGGroup7
 10
0.0
 20
0.0
 30
0.0
  0
INSERT
  5
3D9
330
1F
100
AcDbEntity
  8
Default
100
AcDbBlockReference
  2
GDimGGroup8
 10
0.0
 20
0.0
 30
0.0
  0
INSERT
  5
3E6
330
1F
100
AcDbEntity
  8
Default
100
AcDbBlockReference
  2
GDimGGroup9
 10
0.0
 20
0.0
 30
0.0
  0
INSERT
  5
3F3
330
1F
100
AcDbEntity
  8
0
100
AcDbBlockReference
  2
SE3
 10
0.0
 20
0.0
 30
0.0
  0
INSERT
  5
42D
330
1F
100
AcDbEntity
  8
0
100
AcDbBlockReference
  2
SE4
 10
0.0
 20
0.0
 30
0.0
  0
INSERT
  5
469
330
1F
100
AcDbEntity
  8
Default
100
AcDbBlockReference
  2
GDimGGroup10
 10
0.0
 20
0.0
 30
0.0
  0
INSERT
  5
47B
330
1F
100
AcDbEntity
  8
0
100
AcDbBlockReference
  2
SE5
 10
0.0
 20
0.0
 30
0.0
  0
INSERT
  5
4B5
330
1F
100
AcDbEntity
  8
Default
100
AcDbBlockReference
  2
GDimGGroup11
 10
0.0
 20
0.0
 30
0.0
  0
INSERT
  5
4C2
330
1F
100
AcDbEntity
  8
Default
100
AcDbBlockReference
  2
GDimGGroup12
 10
0.0
 20
0.0
 30
0.0
  0
INSERT
  5
4D2
330
1F
100
AcDbEntity
  8
Default
100
AcDbBlockReference
  2
GDimGGroup13
 10
0.0
 20
0.0
 30
0.0
  0
INSERT
  5
4DF
330
1F
100
AcDbEntity
  8
Default
100
AcDbBlockReference
  2
GDimGGroup14
 10
0.0
 20
0.0
 30
0.0
  0
INSERT
  5
4EC
330
1F
100
AcDbEntity
  8
Default
100
AcDbBlockReference
  2
GDimGGroup15
 10
0.0
 20
0.0
 30
0.0
  0
LINE
  5
4F8
330
1F
100
AcDbEntity
  8
MDS_Layer_90
  6
Continuous
 62
     7
 48
25.4
100
AcDbLine
 10
6.6
 20
291.0
 30
0.0
 11
205.0
 21
291.0
 31
0.0
  0
LINE
  5
4F9
330
1F
100
AcDbEntity
  8
MDS_Layer_90
  6
Continuous
 62
     7
 48
25.4
100
AcDbLine
 10
6.6
 20
291.0
 30
0.0
 11
6.6
 21
45.0
 31
0.0
  0
LINE
  5
4FB
330
1F
100
AcDbEntity
  8
MDS_Layer_94
  6
Continuous
 62
     7
 48
25.4
100
AcDbLine
 10
85.0
 20
30.0
 30
0.0
 11
105.0
 21
30.0
 31
0.0
  0
LINE
  5
4FC
330
1F
100
AcDbEntity
  8
MDS_Layer_94
  6
Continuous
 62
     7
 48
25.4
100
AcDbLine
 10
125.0
 20
35.0
 30
0.0
 11
145.0
 21
35.0
 31
0.0
  0
LINE
  5
4FD
330
1F
100
AcDbEntity
  8
MDS_Layer_94
  6
Continuous
 62
     7
 48
25.4
100
AcDbLine
 10
105.0
 20
30.0
 30
0.0
 11
125.0
 21
30.0
 31
0.0
  0
LINE
  5
4FE
330
1F
100
AcDbEntity
  8
MDS_Layer_94
  6
Continuous
 62
     7
 48
25.4
100
AcDbLine
 10
105.0
 20
25.0
 30
0.0
 11
105.0
 21
45.0
 31
0.0
  0
LINE
  5
4FF
330
1F
100
AcDbEntity
  8
MDS_Layer_94
  6
Continuous
 62
     7
 48
25.4
100
AcDbLine
 10
25.6
 20
45.0
 30
0.0
 11
25.6
 21
25.0
 31
0.0
  0
LINE
  5
500
330
1F
100
AcDbEntity
  8
MDS_Layer_94
  6
Continuous
 62
     7
 48
25.4
100
AcDbLine
 10
85.0
 20
25.0
 30
0.0
 11
105.0
 21
25.0
 31
0.0
  0
LINE
  5
501
330
1F
100
AcDbEntity
  8
MDS_Layer_94
  6
Continuous
 62
     7
 48
25.4
100
AcDbLine
 10
125.0
 20
30.0
 30
0.0
 11
145.0
 21
30.0
 31
0.0
  0
LINE
  5
502
330
1F
100
AcDbEntity
  8
MDS_Layer_94
  6
Continuous
 62
     7
 48
25.4
100
AcDbLine
 10
105.0
 20
25.0
 30
0.0
 11
125.0
 21
25.0
 31
0.0
  0
LINE
  5
503
330
1F
100
AcDbEntity
  8
MDS_Layer_94
  6
Continuous
 62
     7
 48
25.4
100
AcDbLine
 10
125.0
 20
25.0
 30
0.0
 11
125.0
 21
45.0
 31
0.0
  0
LINE
  5
504
330
1F
100
AcDbEntity
  8
MDS_Layer_94
  6
Continuous
 62
     7
 48
25.4
100
AcDbLine
 10
145.0
 20
25.0
 30
0.0
 11
145.0
 21
45.0
 31
0.0
  0
LINE
  5
505
330
1F
100
AcDbEntity
  8
MDS_Layer_94
  6
Continuous
 62
     7
 48
25.4
100
AcDbLine
 10
125.0
 20
25.0
 30
0.0
 11
145.0
 21
25.0
 31
0.0
  0
LINE
  5
506
330
1F
100
AcDbEntity
  8
MDS_Layer_94
  6
Continuous
 62
     7
 48
25.4
100
AcDbLine
 10
85.0
 20
40.0
 30
0.0
 11
105.0
 21
40.0
 31
0.0
  0
LINE
  5
507
330
1F
100
AcDbEntity
  8
MDS_Layer_94
  6
Continuous
 62
     7
 48
25.4
100
AcDbLine
 10
105.0
 20
40.0
 30
0.0
 11
125.0
 21
40.0
 31
0.0
  0
LINE
  5
508
330
1F
100
AcDbEntity
  8
MDS_Layer_94
  6
Continuous
 62
     7
 48
25.4
100
AcDbLine
 10
125.0
 20
40.0
 30
0.0
 11
145.0
 21
40.0
 31
0.0
  0
LINE
  5
509
330
1F
100
AcDbEntity
  8
MDS_Layer_94
  6
Continuous
 62
     7
 48
25.4
100
AcDbLine
 10
25.6
 20
35.0
 30
0.0
 11
45.0
 21
35.0
 31
0.0
  0
LINE
  5
50A
330
1F
100
AcDbEntity
  8
MDS_Layer_94
  6
Continuous
 62
     7
 48
25.4
100
AcDbLine
 10
85.0
 20
35.0
 30
0.0
 11
105.0
 21
35.0
 31
0.0
  0
LINE
  5
50B
330
1F
100
AcDbEntity
  8
MDS_Layer_94
  6
Continuous
 62
     7
 48
25.4
100
AcDbLine
 10
105.0
 20
35.0
 30
0.0
 11
125.0
 21
35.0
 31
0.0
  0
LINE
  5
50C
330
1F
100
AcDbEntity
  8
MDS_Layer_94
  6
Continuous
 62
     7
 48
25.4
100
AcDbLine
 10
6.6
 20
5.0168024536
 30
0.0
 11
6.6
 21
25.0
 31
0.0
  0
LINE
  5
50D
330
1F
100
AcDbEntity
  8
MDS_Layer_94
  6
Continuous
 62
     7
 48
25.4
100
AcDbLine
 10
16.1
 20
20.0
 30
0.0
 11
16.1
 21
5.0168024536
 31
0.0
  0
LINE
  5
50E
330
1F
100
AcDbEntity
  8
MDS_Layer_94
  6
Continuous
 62
     7
 48
25.4
100
AcDbLine
 10
6.6
 20
5.0
 30
0.0
 11
45.0
 21
5.0
 31
0.0
  0
LINE
  5
50F
330
1F
100
AcDbEntity
  8
MDS_Layer_94
  6
Continuous
 62
     7
 48
25.4
100
AcDbLine
 10
6.6
 20
39.999
 30
0.0
 11
45.0
 21
39.999
 31
0.0
  0
LINE
  5
510
330
1F
100
AcDbEntity
  8
MDS_Layer_94
  6
Continuous
 62
     7
 48
25.4
100
AcDbLine
 10
6.6
 20
40.0
 30
0.0
 11
45.0
 21
40.0
 31
0.0
  0
LINE
  5
511
330
1F
100
AcDbEntity
  8
MDS_Layer_94
  6
Continuous
 62
     7
 48
25.4
100
AcDbLine
 10
6.6
 20
39.998
 30
0.0
 11
45.0
 21
39.998
 31
0.0
  0
LINE
  5
512
330
1F
100
AcDbEntity
  8
MDS_Layer_94
  6
Continuous
 62
     7
 48
25.4
100
AcDbLine
 10
45.0
 20
5.0
 30
0.0
 11
45.0
 21
25.0
 31
0.0
  0
LINE
  5
513
330
1F
100
AcDbEntity
  8
MDS_Layer_94
  6
Continuous
 62
     7
 48
25.4
100
AcDbLine
 10
45.0
 20
15.0
 30
0.0
 11
77.0
 21
15.0
 31
0.0
  0
LINE
  5
514
330
1F
100
AcDbEntity
  8
MDS_Layer_94
  6
Continuous
 62
     7
 48
25.4
100
AcDbLine
 10
77.0
 20
15.0
 30
0.0
 11
109.0
 21
15.0
 31
0.0
  0
LINE
  5
515
330
1F
100
AcDbEntity
  8
MDS_Layer_94
  6
Continuous
 62
     7
 48
25.4
100
AcDbLine
 10
25.6
 20
5.0168024536
 30
0.0
 11
25.6
 21
25.0
 31
0.0
  0
LINE
  5
516
330
1F
100
AcDbEntity
  8
MDS_Layer_94
  6
Continuous
 62
     7
 48
25.4
100
AcDbLine
 10
45.0
 20
5.0
 30
0.0
 11
77.0
 21
5.0
 31
0.0
  0
LINE
  5
517
330
1F
100
AcDbEntity
  8
MDS_Layer_94
  6
Continuous
 62
     7
 48
25.4
100
AcDbLine
 10
165.0
 20
25.0
 30
0.0
 11
185.0
 21
25.0
 31
0.0
  0
LINE
  5
518
330
1F
100
AcDbEntity
  8
MDS_Layer_94
  6
Continuous
 62
     7
 48
25.4
100
AcDbLine
 10
141.0
 20
15.0
 30
0.0
 11
173.0
 21
15.0
 31
0.0
  0
LINE
  5
519
330
1F
100
AcDbEntity
  8
MDS_Layer_94
  6
Continuous
 62
     7
 48
25.4
100
AcDbLine
 10
205.0
 20
25.0
 30
0.0
 11
205.0
 21
45.0
 31
0.0
  0
LINE
  5
51A
330
1F
100
AcDbEntity
  8
MDS_Layer_94
  6
Continuous
 62
     7
 48
25.4
100
AcDbLine
 10
185.0
 20
30.0
 30
0.0
 11
205.0
 21
30.0
 31
0.0
  0
LINE
  5
51B
330
1F
100
AcDbEntity
  8
MDS_Layer_94
  6
Continuous
 62
     7
 48
25.4
100
AcDbLine
 10
185.0
 20
35.0
 30
0.0
 11
205.0
 21
35.0
 31
0.0
  0
LINE
  5
51C
330
1F
100
AcDbEntity
  8
MDS_Layer_94
  6
Continuous
 62
     7
 48
25.4
100
AcDbLine
 10
185.0
 20
40.0
 30
0.0
 11
205.0
 21
40.0
 31
0.0
  0
LINE
  5
51D
330
1F
100
AcDbEntity
  8
MDS_Layer_94
  6
Continuous
 62
     7
 48
25.4
100
AcDbLine
 10
185.0
 20
25.0
 30
0.0
 11
185.0
 21
45.0
 31
0.0
  0
LINE
  5
51E
330
1F
100
AcDbEntity
  8
MDS_Layer_94
  6
Continuous
 62
     7
 48
25.4
100
AcDbLine
 10
165.0
 20
30.0
 30
0.0
 11
185.0
 21
30.0
 31
0.0
  0
LINE
  5
51F
330
1F
100
AcDbEntity
  8
MDS_Layer_94
  6
Continuous
 62
     7
 48
25.4
100
AcDbLine
 10
165.0
 20
35.0
 30
0.0
 11
185.0
 21
35.0
 31
0.0
  0
LINE
  5
520
330
1F
100
AcDbEntity
  8
MDS_Layer_94
  6
Continuous
 62
     7
 48
25.4
100
AcDbLine
 10
165.0
 20
40.0
 30
0.0
 11
185.0
 21
40.0
 31
0.0
  0
LINE
  5
521
330
1F
100
AcDbEntity
  8
MDS_Layer_94
  6
Continuous
 62
     7
 48
25.4
100
AcDbLine
 10
145.0
 20
35.0
 30
0.0
 11
165.0
 21
35.0
 31
0.0
  0
LINE
  5
522
330
1F
100
AcDbEntity
  8
MDS_Layer_94
  6
Continuous
 62
     7
 48
25.4
100
AcDbLine
 10
165.0
 20
25.0
 30
0.0
 11
165.0
 21
45.0
 31
0.0
  0
LINE
  5
523
330
1F
100
AcDbEntity
  8
MDS_Layer_94
  6
Continuous
 62
     7
 48
25.4
100
AcDbLine
 10
145.0
 20
40.0
 30
0.0
 11
165.0
 21
40.0
 31
0.0
  0
LINE
  5
524
330
1F
100
AcDbEntity
  8
MDS_Layer_94
  6
Continuous
 62
     7
 48
25.4
100
AcDbLine
 10
45.0
 20
45.0
 30
0.0
 11
205.0
 21
45.0
 31
0.0
  0
LINE
  5
525
330
1F
100
AcDbEntity
  8
MDS_Layer_94
  6
Continuous
 62
     7
 48
25.4
100
AcDbLine
 10
25.6
 20
30.0
 30
0.0
 11
45.0
 21
30.0
 31
0.0
  0
LINE
  5
526
330
1F
100
AcDbEntity
  8
MDS_Layer_94
  6
Continuous
 62
     7
 48
25.4
100
AcDbLine
 10
6.6
 20
20.0
 30
0.0
 11
25.6
 21
20.0
 31
0.0
  0
LINE
  5
527
330
1F
100
AcDbEntity
  8
MDS_Layer_94
  6
Continuous
 62
     7
 48
25.4
100
AcDbLine
 10
6.6
 20
15.0
 30
0.0
 11
25.6
 21
15.0
 31
0.0
  0
LINE
  5
528
330
1F
100
AcDbEntity
  8
MDS_Layer_94
  6
Continuous
 62
     7
 48
25.4
100
AcDbLine
 10
6.6
 20
25.0
 30
0.0
 11
45.0
 21
25.0
 31
0.0
  0
LINE
  5
529
330
1F
100
AcDbEntity
  8
MDS_Layer_94
  6
Continuous
 62
     7
 48
25.4
100
AcDbLine
 10
45.0
 20
25.0
 30
0.0
 11
45.0
 21
45.0
 31
0.0
  0
LINE
  5
52A
330
1F
100
AcDbEntity
  8
MDS_Layer_94
  6
Continuous
 62
     7
 48
25.4
100
AcDbLine
 10
45.0
 20
40.0
 30
0.0
 11
65.0
 21
40.0
 31
0.0
  0
LINE
  5
52B
330
1F
100
AcDbEntity
  8
MDS_Layer_94
  6
Continuous
 62
     7
 48
25.4
100
AcDbLine
 10
45.0
 20
35.0
 30
0.0
 11
65.0
 21
35.0
 31
0.0
  0
LINE
  5
52C
330
1F
100
AcDbEntity
  8
MDS_Layer_94
  6
Continuous
 62
     7
 48
25.4
100
AcDbLine
 10
45.0
 20
30.0
 30
0.0
 11
65.0
 21
30.0
 31
0.0
  0
LINE
  5
52D
330
1F
100
AcDbEntity
  8
MDS_Layer_94
  6
Continuous
 62
     7
 48
25.4
100
AcDbLine
 10
65.0
 20
25.0
 30
0.0
 11
65.0
 21
45.0
 31
0.0
  0
LINE
  5
52E
330
1F
100
AcDbEntity
  8
MDS_Layer_94
  6
Continuous
 62
     7
 48
25.4
100
AcDbLine
 10
45.0
 20
25.0
 30
0.0
 11
65.0
 21
25.0
 31
0.0
  0
LINE
  5
52F
330
1F
100
AcDbEntity
  8
MDS_Layer_94
  6
Continuous
 62
     7
 48
25.4
100
AcDbLine
 10
65.0
 20
40.0
 30
0.0
 11
85.0
 21
40.0
 31
0.0
  0
LINE
  5
530
330
1F
100
AcDbEntity
  8
MDS_Layer_94
  6
Continuous
 62
     7
 48
25.4
100
AcDbLine
 10
65.0
 20
35.0
 30
0.0
 11
85.0
 21
35.0
 31
0.0
  0
LINE
  5
531
330
1F
100
AcDbEntity
  8
MDS_Layer_94
  6
Continuous
 62
     7
 48
25.4
100
AcDbLine
 10
65.0
 20
30.0
 30
0.0
 11
85.0
 21
30.0
 31
0.0
  0
LINE
  5
532
330
1F
100
AcDbEntity
  8
MDS_Layer_94
  6
Continuous
 62
     7
 48
25.4
100
AcDbLine
 10
85.0
 20
25.0
 30
0.0
 11
85.0
 21
45.0
 31
0.0
  0
LINE
  5
533
330
1F
100
AcDbEntity
  8
MDS_Layer_94
  6
Continuous
 62
     7
 48
25.4
100
AcDbLine
 10
65.0
 20
25.0
 30
0.0
 11
85.0
 21
25.0
 31
0.0
  0
LINE
  5
534
330
1F
100
AcDbEntity
  8
MDS_Layer_94
  6
Continuous
 62
     7
 48
25.4
100
AcDbLine
 10
45.0
 20
45.0
 30
0.0
 11
6.6
 21
45.0
 31
0.0
  0
LINE
  5
535
330
1F
100
AcDbEntity
  8
MDS_Layer_94
  6
Continuous
 62
     7
 48
25.4
100
AcDbLine
 10
6.6
 20
45.0
 30
0.0
 11
6.6
 21
25.0
 31
0.0
  0
LINE
  5
536
330
1F
100
AcDbEntity
  8
MDS_Layer_94
  6
Continuous
 62
     7
 48
25.4
100
AcDbLine
 10
185.0
 20
25.0
 30
0.0
 11
205.0
 21
25.0
 31
0.0
  0
LINE
  5
537
330
1F
100
AcDbEntity
  8
MDS_Layer_94
  6
Continuous
 62
     7
 48
25.4
100
AcDbLine
 10
77.0
 20
5.0
 30
0.0
 11
109.0
 21
5.0
 31
0.0
  0
LINE
  5
538
330
1F
100
AcDbEntity
  8
MDS_Layer_94
  6
Continuous
 62
     7
 48
25.4
100
AcDbLine
 10
145.0
 20
30.0
 30
0.0
 11
165.0
 21
30.0
 31
0.0
  0
LINE
  5
539
330
1F
100
AcDbEntity
  8
MDS_Layer_94
  6
Continuous
 62
     7
 48
25.4
100
AcDbLine
 10
109.0
 20
5.0
 30
0.0
 11
109.0
 21
25.0
 31
0.0
  0
LINE
  5
53A
330
1F
100
AcDbEntity
  8
MDS_Layer_94
  6
Continuous
 62
     7
 48
25.4
100
AcDbLine
 10
109.0
 20
15.0
 30
0.0
 11
141.0
 21
15.0
 31
0.0
  0
LINE
  5
53B
330
1F
100
AcDbEntity
  8
MDS_Layer_94
  6
Continuous
 62
     7
 48
25.4
100
AcDbLine
 10
145.0
 20
25.0
 30
0.0
 11
165.0
 21
25.0
 31
0.0
  0
LINE
  5
53C
330
1F
100
AcDbEntity
  8
MDS_Layer_94
  6
Continuous
 62
     7
 48
25.4
100
AcDbLine
 10
77.0
 20
5.0
 30
0.0
 11
77.0
 21
25.0
 31
0.0
  0
LINE
  5
53D
330
1F
100
AcDbEntity
  8
MDS_Layer_94
  6
Continuous
 62
     7
 48
25.4
100
AcDbLine
 10
205.0
 20
5.0
 30
0.0
 11
205.0
 21
25.0
 31
0.0
  0
LINE
  5
53E
330
1F
100
AcDbEntity
  8
MDS_Layer_94
  6
Continuous
 62
     7
 48
25.4
100
AcDbLine
 10
173.0
 20
5.0
 30
0.0
 11
205.0
 21
5.0
 31
0.0
  0
LINE
  5
53F
330
1F
100
AcDbEntity
  8
MDS_Layer_94
  6
Continuous
 62
     7
 48
25.4
100
AcDbLine
 10
173.0
 20
5.0
 30
0.0
 11
173.0
 21
25.0
 31
0.0
  0
LINE
  5
540
330
1F
100
AcDbEntity
  8
MDS_Layer_94
  6
Continuous
 62
     7
 48
25.4
100
AcDbLine
 10
141.0
 20
5.0
 30
0.0
 11
173.0
 21
5.0
 31
0.0
  0
LINE
  5
541
330
1F
100
AcDbEntity
  8
MDS_Layer_94
  6
Continuous
 62
     7
 48
25.4
100
AcDbLine
 10
109.0
 20
5.0
 30
0.0
 11
141.0
 21
5.0
 31
0.0
  0
LINE
  5
542
330
1F
100
AcDbEntity
  8
MDS_Layer_94
  6
Continuous
 62
     7
 48
25.4
100
AcDbLine
 10
141.0
 20
5.0
 30
0.0
 11
141.0
 21
25.0
 31
0.0
  0
TEXT
  5
544
330
1F
100
AcDbEntity
  8
MDS_Layer_94
  6
Continuous
 62
     7
 48
25.4
100
AcDbText
 10
27.2
 20
14.0913731012
 30
0.0
 40
2.5
  1
und
  7
SEACAD_seiso_ttf
 11
27.2
 21
16.5913731012
 31
0.0
100
AcDbText
 73
     3
  0
TEXT
  5
545
330
1F
100
AcDbEntity
  8
MDS_Layer_94
  6
Continuous
 62
     7
 48
25.4
100
AcDbText
 10
27.2
 20
9.0913731012
 30
0.0
 40
2.5
  1
Varianten
  7
SEACAD_seiso_ttf
 11
27.2
 21
11.5913731012
 31
0.0
100
AcDbText
 73
     3
  0
TEXT
  5
546
330
1F
100
AcDbEntity
  8
MDS_Layer_94
  6
Continuous
 62
     7
 48
25.4
100
AcDbText
 10
7.1240657125
 20
21.5397731012
 30
0.0
 40
2.5
  1
Dateiformat
  7
SEACAD_seiso_ttf
 11
7.1240657125
 21
24.0397731012
 31
0.0
100
AcDbText
 73
     3
  0
TEXT
  5
547
330
1F
100
AcDbEntity
  8
MDS_Layer_94
  6
Continuous
 62
     7
 48
25.4
100
AcDbText
 10
7.4059642026
 20
16.5238108871
 30
0.0
 40
2.0
  1
Raster
  7
SEACAD_arial_ttf
 11
7.4059642026
 21
18.5238108871
 31
0.0
100
AcDbText
 73
     3
  0
TEXT
  5
548
330
1F
100
AcDbEntity
  8
MDS_Layer_94
  6
Continuous
 62
     7
 48
25.4
100
AcDbText
 10
16.9707887071
 20
16.3869274332
 30
0.0
 40
2.0
  1
Vektor
  7
SEACAD_arial_ttf
 11
16.9707887071
 21
18.3869274332
 31
0.0
100
AcDbText
 73
     3
  0
TEXT
  5
549
330
1F
100
AcDbEntity
  8
MDS_Layer_94
  6
Continuous
 62
     7
 48
25.4
100
AcDbText
 10
27.2
 20
31.4228985666
 30
0.0
 40
2.5
  1
Name
  7
SEACAD_seiso_ttf
 11
27.2
 21
33.9228985666
 31
0.0
100
AcDbText
 73
     3
  0
TEXT
  5
54A
330
1F
100
AcDbEntity
  8
MDS_Layer_94
  6
Continuous
 62
     7
 48
25.4
100
AcDbText
 10
27.2
 20
19.0913831012
 30
0.0
 40
2.5
  1
Prod.-Nr.
  7
SEACAD_seiso_ttf
 11
27.2
 21
21.5913831012
 31
0.0
100
AcDbText
 73
     3
  0
TEXT
  5
54B
330
1F
100
AcDbEntity
  8
MDS_Layer_94
  6
Continuous
 62
     7
 48
25.4
100
AcDbText
 10
27.266739169
 20
26.5531113353
 30
0.0
 40
2.5
  1
Gepruft
  7
SEACAD_seiso_ttf
 11
27.266739169
 21
29.0531113353
 31
0.0
100
AcDbText
 73
     3
  0
TEXT
  5
54C
330
1F
100
AcDbEntity
  8
MDS_Layer_94
  6
Continuous
 62
     7
 48
25.4
100
AcDbText
 10
9.468641411
 20
41.4915690176
 30
0.0
 40
2.5
  1
Masstab
  7
SEACAD_seiso_ttf
 11
9.468641411
 21
43.9915690176
 31
0.0
100
AcDbText
 73
     3
  0
TEXT
  5
54D
330
1F
100
AcDbEntity
  8
MDS_Layer_94
  6
Continuous
 62
     7
 48
25.4
100
AcDbText
 10
27.2010851897
 20
36.4228985666
 30
0.0
 40
2.5
  1
Datum
  7
SEACAD_seiso_ttf
 11
27.2010851897
 21
38.9228985666
 31
0.0
100
AcDbText
 73
     3
  0
TEXT
  5
54E
330
1F
100
AcDbEntity
  8
MDS_Layer_94
  6
Continuous
 62
     7
 48
25.4
100
AcDbText
 10
27.2
 20
41.4250689461
 30
0.0
 40
2.5
  1
And.-Mitt.
  7
SEACAD_seiso_ttf
 11
27.2
 21
43.9250689461
 31
0.0
100
AcDbText
 73
     3
  0
LINE
  5
54F
330
1F
100
AcDbEntity
  8
MDS_Layer_90
  6
Continuous
 62
     7
 48
25.4
100
AcDbLine
 10
205.0
 20
291.0
 30
0.0
 11
205.0
 21
45.0
 31
0.0
  0
ENDSEC
  0
SECTION
  2
OBJECTS
  0
DICTIONARY
  5
C
330
0
100
AcDbDictionary
281
     1
  3
ACAD_GROUP
350
D
  3
ACAD_LAYOUT
350
1A
  3
ACAD_MLINESTYLE
350
17
  3
ACAD_PLOTSETTINGS
350
19
  3
ACAD_PLOTSTYLENAME
350
E
  0
DICTIONARY
  5
D
102
{ACAD_REACTORS
330
C
102
}
330
C
100
AcDbDictionary
281
     1
  0
DICTIONARY
  5
1A
102
{ACAD_REACTORS
330
C
102
}
330
C
100
AcDbDictionary
281
     1
  3
Layout1
350
1E
  3
Model
350
22
  0
DICTIONARY
  5
17
102
{ACAD_REACTORS
330
C
102
}
330
C
100
AcDbDictionary
281
     1
  3
Standard
350
18
  0
DICTIONARY
  5
19
102
{ACAD_REACTORS
330
C
102
}
330
C
100
AcDbDictionary
281
     1
  0
ACDBDICTIONARYWDFLT
  5
E
102
{ACAD_REACTORS
330
C
102
}
330
C
100
AcDbDictionary
281
     1
  3
Normal
350
F
100
AcDbDictionaryWithDefault
340
F
  0
LAYOUT
  5
1E
102
{ACAD_REACTORS
330
1A
102
}
330
1A
100
AcDbPlotSettings
  1

  2

  4

  6

 40
0.0
 41
0.0
 42
0.0
 43
0.0
 44
0.0
 45
0.0
 46
0.0
 47
0.0
 48
0.0
 49
0.0
140
0.0
141
0.0
142
1.0
143
1.0
 70
   688
 72
     0
 73
     0
 74
     5
  7

 75
    16
147
1.0
148
0.0
149
0.0
100
AcDbLayout
  1
Layout1
 70
     1
 71
     1
 10
0.0
 20
0.0
 11
210.0
 21
297.0
 12
0.0
 22
0.0
 32
0.0
 14
0.0
 24
0.0
 34
0.0
 15
210.0
 25
297.0
 35
0.0
146
0.0
 13
0.0
 23
0.0
 33
0.0
 16
1.0
 26
0.0
 36
0.0
 17
0.0
 27
1.0
 37
0.0
 76
     0
330
1B
  0
LAYOUT
  5
22
102
{ACAD_REACTORS
330
1A
102
}
330
1A
100
AcDbPlotSettings
  1

  2

  4

  6

 40
0.0
 41
0.0
 42
0.0
 43
0.0
 44
0.0
 45
0.0
 46
0.0
 47
0.0
 48
0.0
 49
0.0
140
0.0
141
0.0
142
1.0
143
1.0
 70
  1712
 72
     0
 73
     0
 74
     0
  7

 75
     0
147
1.0
148
0.0
149
0.0
100
AcDbLayout
  1
Model
 70
     1
 71
     0
 10
0.0
 20
0.0
 11
210.0
 21
297.0
 12
0.0
 22
0.0
 32
0.0
 14
0.0
 24
0.0
 34
0.0
 15
210.0
 25
297.0
 35
0.0
146
0.0
 13
0.0
 23
0.0
 33
0.0
 16
1.0
 26
0.0
 36
0.0
 17
0.0
 27
1.0
 37
0.0
 76
     0
330
1F
  0
MLINESTYLE
  5
18
102
{ACAD_REACTORS
330
17
102
}
330
17
100
AcDbMlineStyle
  2
Standard
 70
     0
  3

 62
   256
 51
90.0
 52
90.0
 71
     2
 49
0.5
 62
   256
  6
BYLAYER
 49
-0.5
 62
   256
  6
BYLAYER
  0
ACDBPLACEHOLDER
  5
F
102
{ACAD_REACTORS
330
E
102
}
330
E
  0
ENDSEC
  0
EOF
