  0
SECTION
  2
HEADER
  9
$ACADVER
  1
AC1015
  9
$ACADMAINTVER
 70
     6
  9
$DWGCODEPAGE
  3
ANSI_932
  9
$INSBASE
 10
0.0
 20
0.0
 30
0.0
  9
$EXTMIN
 10
0.0
 20
0.0
 30
0.0
  9
$EXTMAX
 10
297.0
 20
420.0
 30
0.0
  9
$LIMMIN
 10
0.0
 20
0.0
  9
$LIMMAX
 10
297.0
 20
420.0
  9
$ORTHOMODE
 70
     0
  9
$REGENMODE
 70
     1
  9
$FILLMODE
 70
     1
  9
$QTEXTMODE
 70
     0
  9
$MIRRTEXT
 70
     1
  9
$LTSCALE
 40
1.0
  9
$ATTMODE
 70
     1
  9
$TEXTSIZE
 40
0.2
  9
$TRACEWID
 40
0.05
  9
$TEXTSTYLE
  7
Standard
  9
$CLAYER
  8
0
  9
$CELTYPE
  6
ByLayer
  9
$CECOLOR
 62
   256
  9
$CELTSCALE
 40
25.4
  9
$DISPSILH
 70
     0
  9
$DIMSCALE
 40
1.0
  9
$DIMASZ
 40
0.18
  9
$DIMEXO
 40
0.0625
  9
$DIMDLI
 40
0.38
  9
$DIMRND
 40
0.0
  9
$DIMDLE
 40
0.0
  9
$DIMEXE
 40
0.18
  9
$DIMTP
 40
0.0
  9
$DIMTM
 40
0.0
  9
$DIMTXT
 40
0.18
  9
$DIMCEN
 40
0.09
  9
$DIMTSZ
 40
0.0
  9
$DIMTOL
 70
     0
  9
$DIMLIM
 70
     0
  9
$DIMTIH
 70
     1
  9
$DIMTOH
 70
     1
  9
$DIMSE1
 70
     0
  9
$DIMSE2
 70
     0
  9
$DIMTAD
 70
     0
  9
$DIMZIN
 70
     0
  9
$DIMBLK
  1

  9
$DIMASO
 70
     1
  9
$DIMSHO
 70
     1
  9
$DIMPOST
  1

  9
$DIMAPOST
  1

  9
$DIMALT
 70
     0
  9
$DIMALTD
 70
     2
  9
$DIMALTF
 40
25.4
  9
$DIMLFAC
 40
1.0
  9
$DIMTOFL
 70
     0
  9
$DIMTVP
 40
0.0
  9
$DIMTIX
 70
     0
  9
$DIMSOXD
 70
     0
  9
$DIMSAH
 70
     0
  9
$DIMBLK1
  1

  9
$DIMBLK2
  1

  9
$DIMSTYLE
  2
Standard
  9
$DIMCLRD
 70
     0
  9
$DIMCLRE
 70
     0
  9
$DIMCLRT
 70
     0
  9
$DIMTFAC
 40
1.0
  9
$DIMGAP
 40
0.09
  9
$DIMJUST
 70
     0
  9
$DIMSD1
 70
     0
  9
$DIMSD2
 70
     0
  9
$DIMTOLJ
 70
     1
  9
$DIMTZIN
 70
     0
  9
$DIMALTZ
 70
     0
  9
$DIMALTTZ
 70
     0
  9
$DIMUPT
 70
     0
  9
$DIMDEC
 70
     4
  9
$DIMTDEC
 70
     4
  9
$DIMALTU
 70
     2
  9
$DIMALTTD
 70
     2
  9
$DIMTXSTY
  7
Standard
  9
$DIMAUNIT
 70
     0
  9
$DIMADEC
 70
     0
  9
$DIMALTRND
 40
0.0
  9
$DIMAZIN
 70
     0
  9
$DIMDSEP
 70
    46
  9
$DIMATFIT
 70
     3
  9
$DIMFRAC
 70
     0
  9
$DIMLDRBLK
  1

  9
$DIMLUNIT
 70
     2
  9
$DIMLWD
 70
    -2
  9
$DIMLWE
 70
    -2
  9
$DIMTMOVE
 70
     0
  9
$LUNITS
 70
     2
  9
$LUPREC
 70
     4
  9
$SKETCHINC
 40
0.1
  9
$FILLETRAD
 40
0.5
  9
$AUNITS
 70
     0
  9
$AUPREC
 70
     0
  9
$MENU
  1
.
  9
$ELEVATION
 40
0.0
  9
$PELEVATION
 40
0.0
  9
$THICKNESS
 40
0.0
  9
$LIMCHECK
 70
     0
  9
$CHAMFERA
 40
0.5
  9
$CHAMFERB
 40
0.5
  9
$CHAMFERC
 40
1.0
  9
$CHAMFERD
 40
0.0
  9
$SKPOLY
 70
     0
  9
$TDCREATE
 40
2454186.371907188
  9
$TDUCREATE
 40
2454185.996907188
  9
$TDUPDATE
 40
2454186.371907199
  9
$TDUUPDATE
 40
2454185.996907199
  9
$TDINDWG
 40
0.0000000116
  9
$TDUSRTIMER
 40
0.0000000116
  9
$USRTIMER
 70
     1
  9
$ANGBASE
 50
0.0
  9
$ANGDIR
 70
     0
  9
$PDMODE
 70
     0
  9
$PDSIZE
 40
0.0
  9
$PLINEWID
 40
0.0
  9
$SPLFRAME
 70
     0
  9
$SPLINETYPE
 70
     6
  9
$SPLINESEGS
 70
     8
  9
$HANDSEED
  5
480
  9
$SURFTAB1
 70
     6
  9
$SURFTAB2
 70
     6
  9
$SURFTYPE
 70
     6
  9
$SURFU
 70
     6
  9
$SURFV
 70
     6
  9
$UCSBASE
  2

  9
$UCSNAME
  2

  9
$UCSORG
 10
0.0
 20
0.0
 30
0.0
  9
$UCSXDIR
 10
1.0
 20
0.0
 30
0.0
  9
$UCSYDIR
 10
0.0
 20
1.0
 30
0.0
  9
$UCSORTHOREF
  2

  9
$UCSORTHOVIEW
 70
     0
  9
$UCSORGTOP
 10
0.0
 20
0.0
 30
0.0
  9
$UCSORGBOTTOM
 10
0.0
 20
0.0
 30
0.0
  9
$UCSORGLEFT
 10
0.0
 20
0.0
 30
0.0
  9
$UCSORGRIGHT
 10
0.0
 20
0.0
 30
0.0
  9
$UCSORGFRONT
 10
0.0
 20
0.0
 30
0.0
  9
$UCSORGBACK
 10
0.0
 20
0.0
 30
0.0
  9
$PUCSBASE
  2

  9
$PUCSNAME
  2

  9
$PUCSORG
 10
0.0
 20
0.0
 30
0.0
  9
$PUCSXDIR
 10
1.0
 20
0.0
 30
0.0
  9
$PUCSYDIR
 10
0.0
 20
1.0
 30
0.0
  9
$PUCSORTHOREF
  2

  9
$PUCSORTHOVIEW
 70
     0
  9
$PUCSORGTOP
 10
0.0
 20
0.0
 30
0.0
  9
$PUCSORGBOTTOM
 10
0.0
 20
0.0
 30
0.0
  9
$PUCSORGLEFT
 10
0.0
 20
0.0
 30
0.0
  9
$PUCSORGRIGHT
 10
0.0
 20
0.0
 30
0.0
  9
$PUCSORGFRONT
 10
0.0
 20
0.0
 30
0.0
  9
$PUCSORGBACK
 10
0.0
 20
0.0
 30
0.0
  9
$USERI1
 70
     0
  9
$USERI2
 70
     0
  9
$USERI3
 70
     0
  9
$USERI4
 70
     0
  9
$USERI5
 70
     0
  9
$USERR1
 40
0.0
  9
$USERR2
 40
0.0
  9
$USERR3
 40
0.0
  9
$USERR4
 40
0.0
  9
$USERR5
 40
0.0
  9
$WORLDVIEW
 70
     1
  9
$SHADEDGE
 70
     3
  9
$SHADEDIF
 70
    70
  9
$TILEMODE
 70
     1
  9
$MAXACTVP
 70
    64
  9
$PINSBASE
 10
0.0
 20
0.0
 30
0.0
  9
$PLIMCHECK
 70
     0
  9
$PEXTMIN
 10
0.0
 20
0.0
 30
0.0
  9
$PEXTMAX
 10
297.0
 20
420.0
 30
0.0
  9
$PLIMMIN
 10
0.0
 20
0.0
  9
$PLIMMAX
 10
297.0
 20
420.0
  9
$UNITMODE
 70
     0
  9
$VISRETAIN
 70
     1
  9
$PLINEGEN
 70
     0
  9
$PSLTSCALE
 70
     1
  9
$TREEDEPTH
 70
  3020
  9
$CMLSTYLE
  2
Standard
  9
$CMLJUST
 70
     0
  9
$CMLSCALE
 40
1.0
  9
$PROXYGRAPHICS
 70
     1
  9
$MEASUREMENT
 70
     1
  9
$CELWEIGHT
370
    -1
  9
$ENDCAPS
280
     0
  9
$JOINSTYLE
280
     0
  9
$LWDISPLAY
290
     0
  9
$INSUNITS
 70
     1
  9
$HYPERLINKBASE
  1

  9
$STYLESHEET
  1

  9
$XEDIT
290
     1
  9
$CEPSNTYPE
380
     0
  9
$PSTYLEMODE
290
     1
  9
$FINGERPRINTGUID
  2
{07427646-60CC-4CB1-8E82-98571EFABB03}
  9
$VERSIONGUID
  2
{FAEB1C32-E019-11D5-929B-00C0DF256EC4}
  9
$EXTNAMES
290
     1
  9
$PSVPSCALE
 40
0.0
  9
$OLESTARTUP
290
     0
  0
ENDSEC
  0
SECTION
  2
CLASSES
  0
CLASS
  1
ACDBDICTIONARYWDFLT
  2
AcDbDictionaryWithDefault
  3
ObjectDBX Classes
 90
        0
280
     0
281
     0
  0
CLASS
  1
ACDBPLACEHOLDER
  2
AcDbPlaceHolder
  3
ObjectDBX Classes
 90
        0
280
     0
281
     0
  0
CLASS
  1
LAYOUT
  2
AcDbLayout
  3
ObjectDBX Classes
 90
        0
280
     0
281
     0
  0
ENDSEC
  0
SECTION
  2
TABLES
  0
TABLE
  2
VPORT
  5
8
330
0
100
AcDbSymbolTable
 70
     1
  0
VPORT
  5
29
330
8
100
AcDbSymbolTableRecord
100
AcDbViewportTableRecord
  2
*Active
 70
     0
 10
0.0
 20
0.0
 11
1.0
 21
1.0
 12
10.4299065421
 22
4.5
 13
0.0
 23
0.0
 14
0.5
 24
0.5
 15
0.5
 25
0.5
 16
0.0
 26
0.0
 36
1.0
 17
0.0
 27
0.0
 37
0.0
 40
9.0
 41
1.9729729729
 42
50.0
 43
0.0
 44
0.0
 50
0.0
 51
0.0
 71
     0
 72
   100
 73
     1
 74
     3
 75
     0
 76
     0
 77
     0
 78
     0
281
     0
 65
     1
110
0.0
120
0.0
130
0.0
111
1.0
121
0.0
131
0.0
112
0.0
122
1.0
132
0.0
 79
     0
146
0.0
  0
ENDTAB
  0
TABLE
  2
LTYPE
  5
5
330
0
100
AcDbSymbolTable
 70
     2
  0
LTYPE
  5
14
330
5
100
AcDbSymbolTableRecord
100
AcDbLinetypeTableRecord
  2
ByBlock
 70
     0
  3

 72
    65
 73
     0
 40
0.0
  0
LTYPE
  5
15
330
5
100
AcDbSymbolTableRecord
100
AcDbLinetypeTableRecord
  2
ByLayer
 70
     0
  3

 72
    65
 73
     0
 40
0.0
  0
LTYPE
  5
16
330
5
100
AcDbSymbolTableRecord
100
AcDbLinetypeTableRecord
  2
Continuous
 70
     0
  3
Solid line
 72
    65
 73
     0
 40
0.0
  0
LTYPE
  5
43
330
5
100
AcDbSymbolTableRecord
100
AcDbLinetypeTableRecord
  2
CENTER2
 70
     0
  3
___ _ ___ _ ___ _ ___ _ ___ _ ___ _ ___ _ ___ _
 72
    65
 73
     4
 40
1.125
 49
0.75
 74
     4
 75
     0
340
0
 46
0.0
 50
0.0
 44
0.0
 45
0.0
 49
-0.125
 74
     4
 75
     0
340
0
 46
0.0
 50
0.0
 44
0.0
 45
0.0
 49
0.125
 74
     4
 75
     0
340
0
 46
0.0
 50
0.0
 44
0.0
 45
0.0
 49
-0.125
 74
     4
 75
     0
340
0
 46
0.0
 50
0.0
 44
0.0
 45
0.0
  0
ENDTAB
  0
TABLE
  2
LAYER
  5
2
330
0
100
AcDbSymbolTable
 70
    17
  0
LAYER
  5
10
330
2
100
AcDbSymbolTableRecord
100
AcDbLayerTableRecord
  2
0
 70
     0
 62
     7
  6
Continuous
370
    -3
390
F
  0
LAYER
  5
2A
330
2
100
AcDbSymbolTableRecord
100
AcDbLayerTableRecord
  2
Layer2
 70
     0
 62
     7
  6
Continuous
370
    -3
390
F
  0
LAYER
  5
35
330
2
100
AcDbSymbolTableRecord
100
AcDbLayerTableRecord
  2
Layer9
 70
     0
 62
     7
  6
Continuous
370
    -3
390
F
  0
LAYER
  5
45
330
2
100
AcDbSymbolTableRecord
100
AcDbLayerTableRecord
  2
Layer1
 70
     0
 62
     7
  6
Continuous
370
    -3
390
F
  0
LAYER
  5
5A
330
2
100
AcDbSymbolTableRecord
100
AcDbLayerTableRecord
  2
Layer4
 70
     0
 62
     7
  6
Continuous
370
    -3
390
F
  0
LAYER
  5
6C
330
2
100
AcDbSymbolTableRecord
100
AcDbLayerTableRecord
  2
Layer5
 70
     0
 62
     7
  6
Continuous
370
    -3
390
F
  0
LAYER
  5
80
330
2
100
AcDbSymbolTableRecord
100
AcDbLayerTableRecord
  2
Layer8
 70
     0
 62
     7
  6
Continuous
370
    -3
390
F
  0
LAYER
  5
A0
330
2
100
AcDbSymbolTableRecord
100
AcDbLayerTableRecord
  2
Layer6
 70
     0
 62
     7
  6
Continuous
370
    -3
390
F
  0
LAYER
  5
E5
330
2
100
AcDbSymbolTableRecord
100
AcDbLayerTableRecord
  2
Layer7
 70
     0
 62
     7
  6
Continuous
370
    -3
390
F
  0
LAYER
  5
105
330
2
100
AcDbSymbolTableRecord
100
AcDbLayerTableRecord
  2
Layer10
 70
     0
 62
     7
  6
Continuous
370
    -3
390
F
  0
LAYER
  5
10A
330
2
100
AcDbSymbolTableRecord
100
AcDbLayerTableRecord
  2
Layer3
 70
     0
 62
     7
  6
Continuous
370
    -3
390
F
  0
LAYER
  5
10E
330
2
100
AcDbSymbolTableRecord
100
AcDbLayerTableRecord
  2
Layer11
 70
     0
 62
     7
  6
Continuous
370
    -3
390
F
  0
LAYER
  5
127
330
2
100
AcDbSymbolTableRecord
100
AcDbLayerTableRecord
  2
Layer12
 70
     0
 62
     7
  6
Continuous
370
    -3
390
F
  0
LAYER
  5
136
330
2
100
AcDbSymbolTableRecord
100
AcDbLayerTableRecord
  2
Default
 70
     0
 62
     7
  6
Continuous
370
    -3
390
F
  0
LAYER
  5
145
330
2
100
AcDbSymbolTableRecord
100
AcDbLayerTableRecord
  2
10
 70
     0
 62
     7
  6
Continuous
370
    -3
390
F
  0
LAYER
  5
157
330
2
100
AcDbSymbolTableRecord
100
AcDbLayerTableRecord
  2
250
 70
     0
 62
     7
  6
Continuous
370
    -3
390
F
  0
LAYER
  5
2E3
330
2
100
AcDbSymbolTableRecord
100
AcDbLayerTableRecord
  2
Standard
 70
     0
 62
     7
  6
Continuous
370
    -3
390
F
  0
ENDTAB
  0
TABLE
  2
STYLE
  5
3
330
0
100
AcDbSymbolTable
 70
     3
  0
STYLE
  5
11
330
3
100
AcDbSymbolTableRecord
100
AcDbTextStyleTableRecord
  2
Standard
 70
     0
 40
0.0
 41
1.0
 50
0.0
 71
     0
 42
0.2
  3
txt
  4

  0
STYLE
  5
134
330
3
100
AcDbSymbolTableRecord
100
AcDbTextStyleTableRecord
  2
SEACAD_seiso_ttf
 70
     0
 40
0.2
 41
1.0
 50
0.0
 71
     0
 42
0.2
  3
seiso.ttf
  4

  0
STYLE
  5
13B
330
3
100
AcDbSymbolTableRecord
100
AcDbTextStyleTableRecord
  2
SEACAD_arial_ttf
 70
     0
 40
0.2
 41
1.0
 50
0.0
 71
     0
 42
0.2
  3
arial.ttf
  4

  0
ENDTAB
  0
TABLE
  2
VIEW
  5
6
330
0
100
AcDbSymbolTable
 70
     0
  0
ENDTAB
  0
TABLE
  2
UCS
  5
7
330
0
100
AcDbSymbolTable
 70
     0
  0
ENDTAB
  0
TABLE
  2
APPID
  5
9
330
0
100
AcDbSymbolTable
 70
     1
  0
APPID
  5
12
330
9
100
AcDbSymbolTableRecord
100
AcDbRegAppTableRecord
  2
ACAD
 70
     0
  0
ENDTAB
  0
TABLE
  2
DIMSTYLE
  5
A
330
0
100
AcDbSymbolTable
 70
     1
100
AcDbDimStyleTable
  0
DIMSTYLE
105
27
330
A
100
AcDbSymbolTableRecord
100
AcDbDimStyleTableRecord
  2
Standard
 70
     0
340
11
  0
ENDTAB
  0
TABLE
  2
BLOCK_RECORD
  5
1
330
0
100
AcDbSymbolTable
 70
     9
  0
BLOCK_RECORD
  5
1F
330
1
100
AcDbSymbolTableRecord
100
AcDbBlockTableRecord
  2
*Model_Space
340
22
  0
BLOCK_RECORD
  5
1B
330
1
100
AcDbSymbolTableRecord
100
AcDbBlockTableRecord
  2
*Paper_Space
340
1E
  0
BLOCK_RECORD
  5
190
330
1
100
AcDbSymbolTableRecord
100
AcDbBlockTableRecord
  2
GDimGGroup
340
0
102
{BLKREFS
331
191
102
}
  0
BLOCK_RECORD
  5
19F
330
1
100
AcDbSymbolTableRecord
100
AcDbBlockTableRecord
  2
GDimGGroup1
340
0
102
{BLKREFS
331
1A0
102
}
  0
BLOCK_RECORD
  5
1AC
330
1
100
AcDbSymbolTableRecord
100
AcDbBlockTableRecord
  2
GDimGGroup2
340
0
102
{BLKREFS
331
1AD
102
}
  0
BLOCK_RECORD
  5
1B9
330
1
100
AcDbSymbolTableRecord
100
AcDbBlockTableRecord
  2
GDimGGroup3
340
0
102
{BLKREFS
331
1BA
102
}
  0
BLOCK_RECORD
  5
1C6
330
1
100
AcDbSymbolTableRecord
100
AcDbBlockTableRecord
  2
GDimGGroup4
340
0
102
{BLKREFS
331
1C7
102
}
  0
BLOCK_RECORD
  5
1D3
330
1
100
AcDbSymbolTableRecord
100
AcDbBlockTableRecord
  2
GDimGGroup5
340
0
102
{BLKREFS
331
1D4
102
}
  0
BLOCK_RECORD
  5
1E1
330
1
100
AcDbSymbolTableRecord
100
AcDbBlockTableRecord
  2
GDimGGroup6
340
0
102
{BLKREFS
331
1E2
102
}
  0
BLOCK_RECORD
  5
1EF
330
1
100
AcDbSymbolTableRecord
100
AcDbBlockTableRecord
  2
GDimGGroup7
340
0
102
{BLKREFS
331
1F0
102
}
  0
ENDTAB
  0
ENDSEC
  0
SECTION
  2
BLOCKS
  0
BLOCK
  5
20
330
1F
100
AcDbEntity
  8
0
100
AcDbBlockBegin
  2
*Model_Space
 70
     0
 71
     0
 10
0.0
 20
0.0
 30
0.0
  3
*Model_Space
  1

  0
ENDBLK
  5
21
330
1F
100
AcDbEntity
  8
0
100
AcDbBlockEnd
  0
BLOCK
  5
1C
330
1B
100
AcDbEntity
 67
     1
  8
0
100
AcDbBlockBegin
  2
*Paper_Space
 70
     0
 71
     0
 10
0.0
 20
0.0
 30
0.0
  3
*Paper_Space
  1

  0
ENDBLK
  5
1D
330
1B
100
AcDbEntity
 67
     1
  8
0
100
AcDbBlockEnd
  0
BLOCK
  5
19D
330
190
100
AcDbEntity
  8
0
100
AcDbBlockBegin
  2
GDimGGroup
 70
     0
 71
     0
 10
0.0
 20
0.0
 30
0.0
  3
GDimGGroup
  1

  0
HATCH
  5
192
330
190
100
AcDbEntity
  8
Layer3
  6
Continuous
 62
   136
 48
25.4
100
AcDbHatch
 10
0.0
 20
0.0
 30
0.0
210
0.0
220
0.0
230
1.0
  2
SOLID
 70
     1
 71
     0
 91
        1
 92
        1
 93
        3
 72
     1
 10
53.22958053919322
 20
292.5698344986943
 11
55.22958055657792
 21
292.5698344986943
 72
     1
 10
55.22958055657792
 20
292.5698344986943
 11
54.22958054788557
 21
298.5698345508483
 72
     1
 10
54.22958054788557
 20
298.5698345508483
 11
53.22958053919322
 21
292.5698344986943
 97
        0
 75
     0
 76
     1
 98
        0
  0
LWPOLYLINE
  5
193
330
190
100
AcDbEntity
  8
Layer3
  6
Continuous
 62
   136
 48
25.4
370
    20
100
AcDbPolyline
 90
        4
 70
     1
 43
0.00025
 10
53.2295805392
 20
292.5698344987
 10
54.2295805479
 20
298.5698345508
 10
55.2295805566
 20
292.5698344987
 10
53.2295805392
 20
292.5698344987
  0
HATCH
  5
194
330
190
100
AcDbEntity
  8
Layer3
  6
Continuous
 62
   136
 48
25.4
100
AcDbHatch
 10
0.0
 20
0.0
 30
0.0
210
0.0
220
0.0
230
1.0
  2
SOLID
 70
     1
 71
     0
 91
        1
 92
        1
 93
        3
 72
     1
 10
53.22958053919322
 20
249.5999294158113
 11
54.22958054788557
 21
243.5999293636572
 72
     1
 10
54.22958054788557
 20
243.5999293636572
 11
55.22958055657792
 21
249.5999294158113
 72
     1
 10
55.22958055657792
 20
249.5999294158113
 11
53.22958053919322
 21
249.5999294158113
 97
        0
 75
     0
 76
     1
 98
        0
  0
LWPOLYLINE
  5
195
330
190
100
AcDbEntity
  8
Layer3
  6
Continuous
 62
   136
 48
25.4
370
    20
100
AcDbPolyline
 90
        4
 70
     1
 43
0.00025
 10
53.2295805392
 20
249.5999294158
 10
54.2295805479
 20
243.5999293637
 10
55.2295805566
 20
249.5999294158
 10
53.2295805392
 20
249.5999294158
  0
LINE
  5
196
330
190
100
AcDbEntity
  8
Layer3
  6
Continuous
 62
     7
 48
25.4
100
AcDbLine
 10
67.4613860736
 20
298.5698345508
 30
0.0
 11
51.2295805218
 21
298.5698345508
 31
0.0
  0
LINE
  5
197
330
190
100
AcDbEntity
  8
Layer3
  6
Continuous
 62
     7
 48
25.4
100
AcDbLine
 10
67.4613860736
 20
243.5999293637
 30
0.0
 11
51.2295805218
 21
243.5999293637
 31
0.0
  0
LINE
  5
198
330
190
100
AcDbEntity
  8
Layer3
  6
Continuous
 62
     7
 48
25.4
100
AcDbLine
 10
54.2295805479
 20
298.5698345508
 30
0.0
 11
54.2295805479
 21
276.1848817971
 31
0.0
  0
LINE
  5
199
330
190
100
AcDbEntity
  8
Layer3
  6
Continuous
 62
     7
 48
25.4
100
AcDbLine
 10
54.2295805479
 20
265.9848802548
 30
0.0
 11
54.2295805479
 21
243.5999293637
 31
0.0
  0
TEXT
  5
19A
330
190
100
AcDbEntity
  8
Layer3
  6
Continuous
 62
     7
 48
25.4
100
AcDbText
 10
40.0483448499
 20
268.0848811474
 30
0.0
 40
6.0
  1
150
  7
SEACAD_arial_ttf
 11
40.0483448499
 21
274.0848811474
 31
0.0
100
AcDbText
 73
     3
  0
TEXT
  5
19B
330
190
100
AcDbEntity
  8
Layer3
  6
Continuous
 62
     7
 48
25.4
100
AcDbText
 10
54.1353013717
 20
268.0848811474
 30
0.0
 40
6.0
  1
±
  7
SEACAD_arial_ttf
 11
54.1353013717
 21
274.0848811474
 31
0.0
100
AcDbText
 73
     3
  0
TEXT
  5
19C
330
190
100
AcDbEntity
  8
Layer3
  6
Continuous
 62
     7
 48
25.4
100
AcDbText
 10
58.700518763
 20
268.0848811474
 30
0.0
 40
6.0
  1
15
  7
SEACAD_arial_ttf
 11
58.700518763
 21
274.0848811474
 31
0.0
100
AcDbText
 73
     3
  0
ENDBLK
  5
19E
330
190
100
AcDbEntity
  8
0
100
AcDbBlockEnd
  0
BLOCK
  5
1AA
330
19F
100
AcDbEntity
  8
0
100
AcDbBlockBegin
  2
GDimGGroup1
 70
     0
 71
     0
 10
0.0
 20
0.0
 30
0.0
  3
GDimGGroup1
  1

  0
HATCH
  5
1A1
330
19F
100
AcDbEntity
  8
Layer3
  6
Continuous
 62
   136
 48
25.4
100
AcDbHatch
 10
0.0
 20
0.0
 30
0.0
210
0.0
220
0.0
230
1.0
  2
SOLID
 70
     1
 71
     0
 91
        1
 92
        1
 93
        3
 72
     1
 10
164.3042675610603
 20
320.0147755294123
 11
163.3042675523679
 21
326.0147755815664
 72
     1
 10
163.304267552368
 20
326.0147755815664
 11
162.3042675436756
 21
320.0147755294123
 72
     1
 10
162.3042675436756
 20
320.0147755294123
 11
164.3042675610603
 21
320.0147755294123
 97
        0
 75
     0
 76
     1
 98
        0
  0
LWPOLYLINE
  5
1A2
330
19F
100
AcDbEntity
  8
Layer3
  6
Continuous
 62
   136
 48
25.4
370
    20
100
AcDbPolyline
 90
        4
 70
     1
 43
0.00025
 10
164.3042675611
 20
320.0147755294
 10
163.3042675524
 20
326.0147755816
 10
162.3042675437
 20
320.0147755294
 10
164.3042675611
 20
320.0147755294
  0
HATCH
  5
1A3
330
19F
100
AcDbEntity
  8
Layer3
  6
Continuous
 62
   136
 48
25.4
100
AcDbHatch
 10
0.0
 20
0.0
 30
0.0
210
0.0
220
0.0
230
1.0
  2
SOLID
 70
     1
 71
     0
 91
        1
 92
        1
 93
        3
 72
     1
 10
164.3042675610603
 20
222.0752245637223
 11
162.3042675436756
 21
222.0752245637223
 72
     1
 10
162.3042675436756
 20
222.0752245637223
 11
163.304267552368
 21
216.0752245115683
 72
     1
 10
163.304267552368
 20
216.0752245115683
 11
164.3042675610603
 21
222.0752245637223
 97
        0
 75
     0
 76
     1
 98
        0
  0
LWPOLYLINE
  5
1A4
330
19F
100
AcDbEntity
  8
Layer3
  6
Continuous
 62
   136
 48
25.4
370
    20
100
AcDbPolyline
 90
        4
 70
     1
 43
0.00025
 10
164.3042675611
 20
222.0752245637
 10
163.3042675524
 20
216.0752245116
 10
162.3042675437
 20
222.0752245637
 10
164.3042675611
 20
222.0752245637
  0
LINE
  5
1A5
330
19F
100
AcDbEntity
  8
Layer3
  6
Continuous
 62
     7
 48
25.4
100
AcDbLine
 10
121.5012484311
 20
326.0147755816
 30
0.0
 11
166.3042675784
 21
326.0147755816
 31
0.0
  0
LINE
  5
1A6
330
19F
100
AcDbEntity
  8
Layer3
  6
Continuous
 62
     7
 48
25.4
100
AcDbLine
 10
121.4853476815
 20
216.0752245116
 30
0.0
 11
166.3042675784
 21
216.0752245116
 31
0.0
  0
LINE
  5
1A7
330
19F
100
AcDbEntity
  8
Layer3
  6
Continuous
 62
     7
 48
25.4
100
AcDbLine
 10
163.3042675524
 20
326.0147755816
 30
0.0
 11
163.3042675524
 21
276.1449998095
 31
0.0
  0
LINE
  5
1A8
330
19F
100
AcDbEntity
  8
Layer3
  6
Continuous
 62
     7
 48
25.4
100
AcDbLine
 10
163.3042675524
 20
265.9450002837
 30
0.0
 11
163.3042675524
 21
216.0752245116
 31
0.0
  0
TEXT
  5
1A9
330
19F
100
AcDbEntity
  8
Layer3
  6
Continuous
 62
     7
 48
25.4
100
AcDbText
 10
156.2607892915
 20
268.0449991598
 30
0.0
 40
6.0
  1
330
  7
SEACAD_arial_ttf
 11
156.2607892915
 21
274.0449991598
 31
0.0
100
AcDbText
 73
     3
  0
ENDBLK
  5
1AB
330
19F
100
AcDbEntity
  8
0
100
AcDbBlockEnd
  0
BLOCK
  5
1B7
330
1AC
100
AcDbEntity
  8
0
100
AcDbBlockBegin
  2
GDimGGroup2
 70
     0
 71
     0
 10
0.0
 20
0.0
 30
0.0
  3
GDimGGroup2
  1

  0
HATCH
  5
1AE
330
1AC
100
AcDbEntity
  8
Layer11
  6
Continuous
 62
   136
 48
25.4
100
AcDbHatch
 10
0.0
 20
0.0
 30
0.0
210
0.0
220
0.0
230
1.0
  2
SOLID
 70
     1
 71
     0
 91
        1
 92
        1
 93
        3
 72
     1
 10
80.86077193950453
 20
148.2847065784426
 11
80.86077193950453
 21
150.2847065958273
 72
     1
 10
80.86077193950453
 20
150.2847065958273
 11
74.86077188735047
 21
149.2847065871349
 72
     1
 10
74.86077188735047
 20
149.2847065871349
 11
80.86077193950453
 21
148.2847065784426
 97
        0
 75
     0
 76
     1
 98
        0
  0
LWPOLYLINE
  5
1AF
330
1AC
100
AcDbEntity
  8
Layer11
  6
Continuous
 62
   136
 48
25.4
370
    20
100
AcDbPolyline
 90
        4
 70
     1
 43
0.00025
 10
80.8607719395
 20
148.2847065784
 10
74.8607718874
 20
149.2847065871
 10
80.8607719395
 20
150.2847065958
 10
80.8607719395
 20
148.2847065784
  0
HATCH
  5
1B0
330
1AC
100
AcDbEntity
  8
Layer11
  6
Continuous
 62
   136
 48
25.4
100
AcDbHatch
 10
0.0
 20
0.0
 30
0.0
210
0.0
220
0.0
230
1.0
  2
SOLID
 70
     1
 71
     0
 91
        1
 92
        1
 93
        3
 72
     1
 10
103.2910587217944
 20
148.2847065784426
 11
109.2910587739485
 21
149.2847065871349
 72
     1
 10
109.2910587739485
 20
149.2847065871349
 11
103.2910587217944
 21
150.2847065958273
 72
     1
 10
103.2910587217944
 20
150.2847065958273
 11
103.2910587217944
 21
148.2847065784426
 97
        0
 75
     0
 76
     1
 98
        0
  0
LWPOLYLINE
  5
1B1
330
1AC
100
AcDbEntity
  8
Layer11
  6
Continuous
 62
   136
 48
25.4
370
    20
100
AcDbPolyline
 90
        4
 70
     1
 43
0.00025
 10
103.2910587218
 20
148.2847065784
 10
109.2910587739
 20
149.2847065871
 10
103.2910587218
 20
150.2847065958
 10
103.2910587218
 20
148.2847065784
  0
LINE
  5
1B2
330
1AC
100
AcDbEntity
  8
Layer11
  6
Continuous
 62
     7
 48
25.4
100
AcDbLine
 10
74.8607718874
 20
168.655912528
 30
0.0
 11
74.8607718874
 21
146.2847065611
 31
0.0
  0
LINE
  5
1B3
330
1AC
100
AcDbEntity
  8
Layer11
  6
Continuous
 62
     7
 48
25.4
100
AcDbLine
 10
109.2910587739
 20
171.2574480453
 30
0.0
 11
109.2910587739
 21
146.2847065611
 31
0.0
  0
LINE
  5
1B4
330
1AC
100
AcDbEntity
  8
Layer11
  6
Continuous
 62
     7
 48
25.4
100
AcDbLine
 10
74.8607718874
 20
149.2847065871
 30
0.0
 11
82.9324375394
 21
149.2847065871
 31
0.0
  0
LINE
  5
1B5
330
1AC
100
AcDbEntity
  8
Layer11
  6
Continuous
 62
     7
 48
25.4
100
AcDbLine
 10
101.2193940532
 20
149.2847065871
 30
0.0
 11
109.2910587739
 21
149.2847065871
 31
0.0
  0
TEXT
  5
1B6
330
1AC
100
AcDbEntity
  8
Layer11
  6
Continuous
 62
     7
 48
25.4
100
AcDbText
 10
85.0324375157
 20
146.2847065871
 30
0.0
 40
6.0
  1
103
  7
SEACAD_arial_ttf
 11
85.0324375157
 21
152.2847065871
 31
0.0
100
AcDbText
 73
     3
  0
ENDBLK
  5
1B8
330
1AC
100
AcDbEntity
  8
0
100
AcDbBlockEnd
  0
BLOCK
  5
1C4
330
1B9
100
AcDbEntity
  8
0
100
AcDbBlockBegin
  2
GDimGGroup3
 70
     0
 71
     0
 10
0.0
 20
0.0
 30
0.0
  3
GDimGGroup3
  1

  0
HATCH
  5
1BB
330
1B9
100
AcDbEntity
  8
Layer11
  6
Continuous
 62
   136
 48
25.4
100
AcDbHatch
 10
0.0
 20
0.0
 30
0.0
210
0.0
220
0.0
230
1.0
  2
SOLID
 70
     1
 71
     0
 91
        1
 92
        1
 93
        3
 72
     1
 10
80.86077193950453
 20
134.4039973922462
 11
80.86077193950453
 21
136.4039974096309
 72
     1
 10
80.86077193950453
 20
136.4039974096309
 11
74.86077188735047
 21
135.4039974009386
 72
     1
 10
74.86077188735047
 20
135.4039974009386
 11
80.86077193950453
 21
134.4039973922462
 97
        0
 75
     0
 76
     1
 98
        0
  0
LWPOLYLINE
  5
1BC
330
1B9
100
AcDbEntity
  8
Layer11
  6
Continuous
 62
   136
 48
25.4
370
    20
100
AcDbPolyline
 90
        4
 70
     1
 43
0.00025
 10
80.8607719395
 20
134.4039973922
 10
74.8607718874
 20
135.4039974009
 10
80.8607719395
 20
136.4039974096
 10
80.8607719395
 20
134.4039973922
  0
HATCH
  5
1BD
330
1B9
100
AcDbEntity
  8
Layer11
  6
Continuous
 62
   136
 48
25.4
100
AcDbHatch
 10
0.0
 20
0.0
 30
0.0
210
0.0
220
0.0
230
1.0
  2
SOLID
 70
     1
 71
     0
 91
        1
 92
        1
 93
        3
 72
     1
 10
129.7733472332167
 20
134.4039973922462
 11
135.7733472853707
 21
135.4039974009386
 72
     1
 10
135.7733472853707
 20
135.4039974009386
 11
129.7733472332167
 21
136.4039974096309
 72
     1
 10
129.7733472332167
 20
136.4039974096309
 11
129.7733472332167
 21
134.4039973922462
 97
        0
 75
     0
 76
     1
 98
        0
  0
LWPOLYLINE
  5
1BE
330
1B9
100
AcDbEntity
  8
Layer11
  6
Continuous
 62
   136
 48
25.4
370
    20
100
AcDbPolyline
 90
        4
 70
     1
 43
0.00025
 10
129.7733472332
 20
134.4039973922
 10
135.7733472854
 20
135.4039974009
 10
129.7733472332
 20
136.4039974096
 10
129.7733472332
 20
134.4039973922
  0
LINE
  5
1BF
330
1B9
100
AcDbEntity
  8
Layer11
  6
Continuous
 62
     7
 48
25.4
100
AcDbLine
 10
74.8607718874
 20
168.655912528
 30
0.0
 11
74.8607718874
 21
132.4039973749
 31
0.0
  0
LINE
  5
1C0
330
1B9
100
AcDbEntity
  8
Layer11
  6
Continuous
 62
     7
 48
25.4
100
AcDbLine
 10
135.7733472854
 20
161.0593433941
 30
0.0
 11
135.7733472854
 21
132.4039973749
 31
0.0
  0
LINE
  5
1C1
330
1B9
100
AcDbEntity
  8
Layer11
  6
Continuous
 62
     7
 48
25.4
100
AcDbLine
 10
74.8607718874
 20
135.4039974009
 30
0.0
 11
96.1735805053
 21
135.4039974009
 31
0.0
  0
LINE
  5
1C2
330
1B9
100
AcDbEntity
  8
Layer11
  6
Continuous
 62
     7
 48
25.4
100
AcDbLine
 10
114.4605386674
 20
135.4039974009
 30
0.0
 11
135.7733472854
 21
135.4039974009
 31
0.0
  0
TEXT
  5
1C3
330
1B9
100
AcDbEntity
  8
Layer11
  6
Continuous
 62
     7
 48
25.4
100
AcDbText
 10
98.2735814128
 20
132.4039974009
 30
0.0
 40
6.0
  1
183
  7
SEACAD_arial_ttf
 11
98.2735814128
 21
138.4039974009
 31
0.0
100
AcDbText
 73
     3
  0
ENDBLK
  5
1C5
330
1B9
100
AcDbEntity
  8
0
100
AcDbBlockEnd
  0
BLOCK
  5
1D1
330
1C6
100
AcDbEntity
  8
0
100
AcDbBlockBegin
  2
GDimGGroup4
 70
     0
 71
     0
 10
0.0
 20
0.0
 30
0.0
  3
GDimGGroup4
  1

  0
HATCH
  5
1C8
330
1C6
100
AcDbEntity
  8
Layer12
  6
Continuous
 62
   136
 48
25.4
100
AcDbHatch
 10
0.0
 20
0.0
 30
0.0
210
0.0
220
0.0
230
1.0
  2
SOLID
 70
     1
 71
     0
 91
        1
 92
        1
 93
        3
 72
     1
 10
99.79855872179438
 20
159.161288345437
 11
105.7985587739484
 21
160.1612883541294
 72
     1
 10
105.7985587739484
 20
160.1612883541294
 11
99.79855872179438
 21
161.1612883628217
 72
     1
 10
99.79855872179438
 20
161.1612883628217
 11
99.79855872179438
 21
159.161288345437
 97
        0
 75
     0
 76
     1
 98
        0
  0
LWPOLYLINE
  5
1C9
330
1C6
100
AcDbEntity
  8
Layer12
  6
Continuous
 62
   136
 48
25.4
370
    20
100
AcDbPolyline
 90
        4
 70
     1
 43
0.00025
 10
99.7985587218
 20
159.1612883454
 10
105.7985587739
 20
160.1612883541
 10
99.7985587218
 20
161.1612883628
 10
99.7985587218
 20
159.1612883454
  0
HATCH
  5
1CA
330
1C6
100
AcDbEntity
  8
Layer12
  6
Continuous
 62
   136
 48
25.4
100
AcDbHatch
 10
0.0
 20
0.0
 30
0.0
210
0.0
220
0.0
230
1.0
  2
SOLID
 70
     1
 71
     0
 91
        1
 92
        1
 93
        3
 72
     1
 10
118.7835588261025
 20
159.161288345437
 11
118.7835588261025
 21
161.1612883628217
 72
     1
 10
118.7835588261025
 20
161.1612883628217
 11
112.7835587739485
 21
160.1612883541294
 72
     1
 10
112.7835587739485
 20
160.1612883541294
 11
118.7835588261025
 21
159.161288345437
 97
        0
 75
     0
 76
     1
 98
        0
  0
LWPOLYLINE
  5
1CB
330
1C6
100
AcDbEntity
  8
Layer12
  6
Continuous
 62
   136
 48
25.4
370
    20
100
AcDbPolyline
 90
        4
 70
     1
 43
0.00025
 10
118.7835588261
 20
159.1612883454
 10
112.7835587739
 20
160.1612883541
 10
118.7835588261
 20
161.1612883628
 10
118.7835588261
 20
159.1612883454
  0
LINE
  5
1CC
330
1C6
100
AcDbEntity
  8
Layer12
  6
Continuous
 62
     7
 48
25.4
100
AcDbLine
 10
105.7985587739
 20
173.4177813787
 30
0.0
 11
105.7985587739
 21
157.1612883281
 31
0.0
  0
LINE
  5
1CD
330
1C6
100
AcDbEntity
  8
Layer12
  6
Continuous
 62
     7
 48
25.4
100
AcDbLine
 10
112.7835587739
 20
172.578114712
 30
0.0
 11
112.7835587739
 21
157.1612883281
 31
0.0
  0
LINE
  5
1CE
330
1C6
100
AcDbEntity
  8
Layer12
  6
Continuous
 62
     7
 48
25.4
100
AcDbLine
 10
77.2105208361
 20
160.1612883541
 30
0.0
 11
105.7985587739
 21
160.1612883541
 31
0.0
  0
LINE
  5
1CF
330
1C6
100
AcDbEntity
  8
Layer12
  6
Continuous
 62
     7
 48
25.4
100
AcDbLine
 10
112.7835587739
 20
160.1612883541
 30
0.0
 11
124.7835588783
 21
160.1612883541
 31
0.0
  0
TEXT
  5
1D0
330
1C6
100
AcDbEntity
  8
Layer12
  6
Continuous
 62
     7
 48
25.4
100
AcDbText
 10
79.3105201428
 20
161.6612883541
 30
0.0
 40
6.0
  1
G1/2
  7
SEACAD_arial_ttf
 11
79.3105201428
 21
167.6612883541
 31
0.0
100
AcDbText
 73
     3
  0
ENDBLK
  5
1D2
330
1C6
100
AcDbEntity
  8
0
100
AcDbBlockEnd
  0
BLOCK
  5
1DF
330
1D3
100
AcDbEntity
  8
0
100
AcDbBlockBegin
  2
GDimGGroup5
 70
     0
 71
     0
 10
0.0
 20
0.0
 30
0.0
  3
GDimGGroup5
  1

  0
HATCH
  5
1D5
330
1D3
100
AcDbEntity
  8
Layer3
  6
Continuous
 62
   136
 48
25.4
100
AcDbHatch
 10
0.0
 20
0.0
 30
0.0
210
0.0
220
0.0
230
1.0
  2
SOLID
 70
     1
 71
     0
 91
        1
 92
        1
 93
        3
 72
     1
 10
54.8507836238249
 20
194.7569813925068
 11
55.85078363251725
 21
188.7569813403527
 72
     1
 10
55.85078363251725
 20
188.7569813403527
 11
56.8507836412096
 21
194.7569813925068
 72
     1
 10
56.8507836412096
 20
194.7569813925068
 11
54.8507836238249
 21
194.7569813925068
 97
        0
 75
     0
 76
     1
 98
        0
  0
LWPOLYLINE
  5
1D6
330
1D3
100
AcDbEntity
  8
Layer3
  6
Continuous
 62
   136
 48
25.4
370
    20
100
AcDbPolyline
 90
        4
 70
     1
 43
0.00025
 10
54.8507836238
 20
194.7569813925
 10
55.8507836325
 20
188.7569813404
 10
56.8507836412
 20
194.7569813925
 10
54.8507836238
 20
194.7569813925
  0
HATCH
  5
1D7
330
1D3
100
AcDbEntity
  8
Layer3
  6
Continuous
 62
   136
 48
25.4
100
AcDbHatch
 10
0.0
 20
0.0
 30
0.0
210
0.0
220
0.0
230
1.0
  2
SOLID
 70
     1
 71
     0
 91
        1
 92
        1
 93
        3
 72
     1
 10
54.8507836238249
 20
175.790314621532
 11
56.8507836412096
 21
175.790314621532
 72
     1
 10
56.8507836412096
 20
175.790314621532
 11
55.85078363251725
 21
181.7903146736861
 72
     1
 10
55.85078363251725
 20
181.7903146736861
 11
54.8507836238249
 21
175.790314621532
 97
        0
 75
     0
 76
     1
 98
        0
  0
LWPOLYLINE
  5
1D8
330
1D3
100
AcDbEntity
  8
Layer3
  6
Continuous
 62
   136
 48
25.4
370
    20
100
AcDbPolyline
 90
        4
 70
     1
 43
0.00025
 10
54.8507836238
 20
175.7903146215
 10
55.8507836325
 20
181.7903146737
 10
56.8507836412
 20
175.7903146215
 10
54.8507836238
 20
175.7903146215
  0
LINE
  5
1D9
330
1D3
100
AcDbEntity
  8
Layer3
  6
Continuous
 62
     7
 48
25.4
100
AcDbLine
 10
70.1014718874
 20
188.7569813404
 30
0.0
 11
52.8507836064
 21
188.7569813404
 31
0.0
  0
LINE
  5
1DA
330
1D3
100
AcDbEntity
  8
Layer3
  6
Continuous
 62
     7
 48
25.4
100
AcDbLine
 10
70.1014718874
 20
181.7903146737
 30
0.0
 11
52.8507836064
 21
181.7903146737
 31
0.0
  0
LINE
  5
1DB
330
1D3
100
AcDbEntity
  8
Layer3
  6
Continuous
 62
     7
 48
25.4
100
AcDbLine
 10
55.8507836325
 20
196.8383672062
 30
0.0
 11
28.32904485
 21
196.8383672062
 31
0.0
  0
LINE
  5
1DC
330
1D3
100
AcDbEntity
  8
Layer3
  6
Continuous
 62
     7
 48
25.4
100
AcDbLine
 10
55.8507836325
 20
196.8383672062
 30
0.0
 11
55.8507836325
 21
188.7569813404
 31
0.0
  0
LINE
  5
1DD
330
1D3
100
AcDbEntity
  8
Layer3
  6
Continuous
 62
     7
 48
25.4
100
AcDbLine
 10
55.8507836325
 20
181.7903146737
 30
0.0
 11
55.8507836325
 21
169.7903145694
 31
0.0
  0
TEXT
  5
1DE
330
1D3
100
AcDbEntity
  8
Layer3
  6
Continuous
 62
     7
 48
25.4
100
AcDbText
 10
30.4290444736
 20
198.3383672062
 30
0.0
 40
6.0
  1
PJ1/2
  7
SEACAD_arial_ttf
 11
30.4290444736
 21
204.3383672062
 31
0.0
100
AcDbText
 73
     3
  0
ENDBLK
  5
1E0
330
1D3
100
AcDbEntity
  8
0
100
AcDbBlockEnd
  0
BLOCK
  5
1ED
330
1E1
100
AcDbEntity
  8
0
100
AcDbBlockBegin
  2
GDimGGroup6
 70
     0
 71
     0
 10
0.0
 20
0.0
 30
0.0
  3
GDimGGroup6
  1

  0
HATCH
  5
1E3
330
1E1
100
AcDbEntity
  8
Default
  6
Continuous
 62
   136
 48
25.4
100
AcDbHatch
 10
0.0
 20
0.0
 30
0.0
210
0.0
220
0.0
230
1.0
  2
SOLID
 70
     1
 71
     0
 91
        1
 92
        1
 93
        3
 72
     1
 10
127.1606662032878
 20
152.3001241669137
 11
132.8488754164933
 21
150.1450657941456
 72
     1
 10
132.8488754164933
 20
150.1450657941456
 11
128.1670748221967
 21
154.0284591348307
 72
     1
 10
128.1670748221967
 20
154.0284591348307
 11
127.1606662032879
 21
152.3001241669137
 97
        0
 75
     0
 76
     1
 98
        0
  0
LWPOLYLINE
  5
1E4
330
1E1
100
AcDbEntity
  8
Default
  6
Continuous
 62
   136
 48
25.4
370
    30
100
AcDbPolyline
 90
        4
 70
     1
 43
0.00035
 10
127.1606662033
 20
152.3001241669
 10
132.8488754165
 20
150.1450657941
 10
128.1670748222
 20
154.0284591348
 10
127.1606662033
 20
152.3001241669
  0
HATCH
  5
1E5
330
1E1
100
AcDbEntity
  8
Default
  6
Continuous
 62
   136
 48
25.4
100
AcDbHatch
 10
0.0
 20
0.0
 30
0.0
210
0.0
220
0.0
230
1.0
  2
SOLID
 70
     1
 71
     0
 91
        1
 92
        1
 93
        3
 72
     1
 10
141.3007155432705
 20
152.2993825434707
 11
135.7733472853707
 21
149.7600517684838
 72
     1
 10
135.7733472853707
 20
149.7600517684838
 11
141.8255056185149
 21
150.3694614449634
 72
     1
 10
141.8255056185149
 20
150.3694614449634
 11
141.3007155432705
 21
152.2993825434707
 97
        0
 75
     0
 76
     1
 98
        0
  0
LWPOLYLINE
  5
1E6
330
1E1
100
AcDbEntity
  8
Default
  6
Continuous
 62
   136
 48
25.4
370
    30
100
AcDbPolyline
 90
        4
 70
     1
 43
0.00035
 10
141.3007155433
 20
152.2993825435
 10
135.7733472854
 20
149.7600517685
 10
141.8255056185
 20
150.369461445
 10
141.3007155433
 20
152.2993825435
  0
LINE
  5
1E7
330
1E1
100
AcDbEntity
  8
Default
  6
Continuous
 62
     7
 48
25.4
100
AcDbLine
 10
135.7733472854
 20
161.0593433941
 30
0.0
 11
132.072418395
 21
147.2472887399
 31
0.0
  0
LINE
  5
1E8
330
1E1
100
AcDbEntity
  8
Default
  6
Continuous
 62
     7
 48
25.4
100
AcDbLine
 10
135.7733472854
 20
161.0593433941
 30
0.0
 11
135.7733472854
 21
146.7600522081
 31
0.0
  0
LINE
  5
1E9
330
1E1
100
AcDbEntity
  8
Default
  6
Continuous
 62
     7
 48
25.4
100
AcDbLine
 10
145.589640304
 20
155.4634178574
 30
0.0
 11
163.1722486909
 21
155.4634178574
 31
0.0
  0
ARC
  5
1EA
330
1E1
100
AcDbEntity
  8
Default
  6
Continuous
 62
     7
 48
25.4
100
AcDbCircle
 10
135.7733472854
 20
161.0593433941
 30
0.0
 40
11.29929162561887
100
AcDbArc
 50
194.1511082694
 51
255.0
  0
ARC
  5
1EB
330
1E1
100
AcDbEntity
  8
Default
  6
Continuous
 62
     7
 48
25.4
100
AcDbCircle
 10
135.7733472854
 20
161.0593433941
 30
0.0
 40
11.2992916256189
100
AcDbArc
 50
270.0
 51
330.3140469375
  0
TEXT
  5
1EC
330
1E1
100
AcDbEntity
  8
Default
  6
Continuous
 62
     7
 48
25.4
100
AcDbText
 10
148.2896403325
 20
156.9634178574
 30
0.0
 40
6.0
  1
15°
  7
SEACAD_arial_ttf
 11
148.2896403325
 21
162.9634178574
 31
0.0
100
AcDbText
 73
     3
  0
ENDBLK
  5
1EE
330
1E1
100
AcDbEntity
  8
0
100
AcDbBlockEnd
  0
BLOCK
  5
1FA
330
1EF
100
AcDbEntity
  8
0
100
AcDbBlockBegin
  2
GDimGGroup7
 70
     0
 71
     0
 10
0.0
 20
0.0
 30
0.0
  3
GDimGGroup7
  1

  0
HATCH
  5
1F1
330
1EF
100
AcDbEntity
  8
Default
  6
Continuous
 62
   136
 48
25.4
100
AcDbHatch
 10
0.0
 20
0.0
 30
0.0
210
0.0
220
0.0
230
1.0
  2
SOLID
 70
     1
 71
     0
 91
        1
 92
        1
 93
        3
 72
     1
 10
198.1128539688999
 20
148.4393252435538
 11
204.112854021054
 21
149.4393252522462
 72
     1
 10
204.112854021054
 20
149.4393252522462
 11
198.1128539688999
 21
150.4393252609386
 72
     1
 10
198.1128539688999
 20
150.4393252609386
 11
198.1128539688999
 21
148.4393252435538
 97
        0
 75
     0
 76
     1
 98
        0
  0
LWPOLYLINE
  5
1F2
330
1EF
100
AcDbEntity
  8
Default
  6
Continuous
 62
   136
 48
25.4
370
    30
100
AcDbPolyline
 90
        4
 70
     1
 43
0.00035
 10
198.1128539689
 20
148.4393252436
 10
204.1128540211
 20
149.4393252522
 10
198.1128539689
 20
150.4393252609
 10
198.1128539689
 20
148.4393252436
  0
HATCH
  5
1F3
330
1EF
100
AcDbEntity
  8
Default
  6
Continuous
 62
   136
 48
25.4
100
AcDbHatch
 10
0.0
 20
0.0
 30
0.0
210
0.0
220
0.0
230
1.0
  2
SOLID
 70
     1
 71
     0
 91
        1
 92
        1
 93
        3
 72
     1
 10
230.8597527175468
 20
148.4393252435538
 11
230.8597527175468
 21
150.4393252609386
 72
     1
 10
230.8597527175468
 20
150.4393252609386
 11
224.8597526653928
 21
149.4393252522462
 72
     1
 10
224.8597526653928
 20
149.4393252522462
 11
230.8597527175468
 21
148.4393252435538
 97
        0
 75
     0
 76
     1
 98
        0
  0
LWPOLYLINE
  5
1F4
330
1EF
100
AcDbEntity
  8
Default
  6
Continuous
 62
   136
 48
25.4
370
    30
100
AcDbPolyline
 90
        4
 70
     1
 43
0.00035
 10
230.8597527175
 20
148.4393252436
 10
224.8597526654
 20
149.4393252522
 10
230.8597527175
 20
150.4393252609
 10
230.8597527175
 20
148.4393252436
  0
LINE
  5
1F5
330
1EF
100
AcDbEntity
  8
Default
  6
Continuous
 62
     7
 48
25.4
100
AcDbLine
 10
204.1128540211
 20
171.8034480453
 30
0.0
 11
204.1128540211
 21
146.4393252262
 31
0.0
  0
LINE
  5
1F6
330
1EF
100
AcDbEntity
  8
Default
  6
Continuous
 62
     7
 48
25.4
100
AcDbLine
 10
224.8597526654
 20
166.736247465
 30
0.0
 11
224.8597526654
 21
146.4393252262
 31
0.0
  0
LINE
  5
1F7
330
1EF
100
AcDbEntity
  8
Default
  6
Continuous
 62
     7
 48
25.4
100
AcDbLine
 10
192.1128539167
 20
149.4393252522
 30
0.0
 11
204.1128540211
 21
149.4393252522
 31
0.0
  0
LINE
  5
1F8
330
1EF
100
AcDbEntity
  8
Default
  6
Continuous
 62
     7
 48
25.4
100
AcDbLine
 10
224.8597526654
 20
149.4393252522
 30
0.0
 11
236.8597527697
 21
149.4393252522
 31
0.0
  0
TEXT
  5
1F9
330
1EF
100
AcDbEntity
  8
Default
  6
Continuous
 62
     7
 48
25.4
100
AcDbText
 10
209.7906508002
 20
146.4393252522
 30
0.0
 40
6.0
  1
62
  7
SEACAD_arial_ttf
 11
209.7906508002
 21
152.4393252522
 31
0.0
100
AcDbText
 73
     3
  0
ENDBLK
  5
1FB
330
1EF
100
AcDbEntity
  8
0
100
AcDbBlockEnd
  0
ENDSEC
  0
SECTION
  2
ENTITIES
  0
LINE
  5
2B
330
1F
100
AcDbEntity
  8
Layer2
  6
Continuous
 62
     7
 48
25.4
100
AcDbLine
 10
70.1014718874
 20
181.7903146737
 30
0.0
 11
70.1014718874
 21
188.7569813404
 31
0.0
  0
LINE
  5
2C
330
1F
100
AcDbEntity
  8
Layer2
  6
Continuous
 62
     7
 48
25.4
100
AcDbLine
 10
70.1014718874
 20
188.7569813404
 30
0.0
 11
74.8607718874
 21
188.7569813404
 31
0.0
  0
LINE
  5
2D
330
1F
100
AcDbEntity
  8
Layer2
  6
Continuous
 62
     7
 48
25.4
100
AcDbLine
 10
70.1014718874
 20
181.7903146737
 30
0.0
 11
74.8607718874
 21
181.7903146737
 31
0.0
  0
LINE
  5
2E
330
1F
100
AcDbEntity
  8
Layer2
  6
Continuous
 62
     7
 48
25.4
100
AcDbLine
 10
69.704138554
 20
182.187648007
 30
0.0
 11
74.8607718874
 21
182.187648007
 31
0.0
  0
LINE
  5
2F
330
1F
100
AcDbEntity
  8
Layer2
  6
Continuous
 62
     7
 48
25.4
100
AcDbLine
 10
69.6940718874
 20
182.4741146737
 30
0.0
 11
69.6940718874
 21
188.067848007
 31
0.0
  0
LINE
  5
30
330
1F
100
AcDbEntity
  8
Layer2
  6
Continuous
 62
     7
 48
25.4
100
AcDbLine
 10
69.6940718874
 20
182.4741146737
 30
0.0
 11
69.6940718874
 21
182.1977146737
 31
0.0
  0
LINE
  5
31
330
1F
100
AcDbEntity
  8
Layer2
  6
Continuous
 62
     7
 48
25.4
100
AcDbLine
 10
69.6940718874
 20
188.344248007
 30
0.0
 11
70.1014718874
 21
188.751648007
 31
0.0
  0
LINE
  5
32
330
1F
100
AcDbEntity
  8
Layer2
  6
Continuous
 62
     7
 48
25.4
100
AcDbLine
 10
69.6940718874
 20
188.067848007
 30
0.0
 11
69.6940718874
 21
188.344248007
 31
0.0
  0
LINE
  5
33
330
1F
100
AcDbEntity
  8
Layer2
  6
Continuous
 62
     7
 48
25.4
100
AcDbLine
 10
69.6940718874
 20
182.1977146737
 30
0.0
 11
70.1014718874
 21
181.7903146737
 31
0.0
  0
LINE
  5
34
330
1F
100
AcDbEntity
  8
Layer2
  6
Continuous
 62
     7
 48
25.4
100
AcDbLine
 10
69.704138554
 20
188.3543146737
 30
0.0
 11
74.8607718874
 21
188.3543146737
 31
0.0
  0
ARC
  5
36
330
1F
100
AcDbEntity
  8
Layer9
  6
Continuous
 62
     7
 48
25.4
100
AcDbCircle
 10
124.1559538749
 20
172.2574480514
 30
0.0
 40
23.33333333332427
100
AcDbArc
 50
172.9017349336
 51
178.2399242508
  0
ARC
  5
37
330
1F
100
AcDbEntity
  8
Layer9
  6
Continuous
 62
     7
 48
25.4
100
AcDbCircle
 10
113.1559538749
 20
84.4241147181
 30
0.0
 40
82.50000000001582
100
AcDbArc
 50
76.9018275754
 51
90.0
  0
LINE
  5
38
330
1F
100
AcDbEntity
  8
Layer9
  6
Continuous
 62
     7
 48
25.4
100
AcDbLine
 10
113.1559538749
 20
166.9241147181
 30
0.0
 11
101.7060095542
 21
166.9241147181
 31
0.0
  0
ARC
  5
39
330
1F
100
AcDbEntity
  8
Layer9
  6
Continuous
 62
     7
 48
25.4
100
AcDbCircle
 10
101.7060095542
 20
167.2574480514
 30
0.0
 40
0.3333333333333334
100
AcDbArc
 50
192.5558577986
 51
270.0
  0
ARC
  5
3A
330
1F
100
AcDbEntity
  8
Layer9
  6
Continuous
 62
     7
 48
25.4
100
AcDbCircle
 10
124.1559538749
 20
172.2574480514
 30
0.0
 40
23.33333333333541
100
AcDbArc
 50
178.2399242508
 51
192.5558577986
  0
LINE
  5
3B
330
1F
100
AcDbEntity
  8
Layer9
  6
Continuous
 62
     7
 48
25.4
100
AcDbLine
 10
101.7060095542
 20
177.5907813848
 30
0.0
 11
104.4409189206
 21
177.5907813848
 31
0.0
  0
ARC
  5
3C
330
1F
100
AcDbEntity
  8
Layer9
  6
Continuous
 62
     7
 48
25.4
100
AcDbCircle
 10
101.7060095542
 20
177.2574480514
 30
0.0
 40
0.3333333333333336
100
AcDbArc
 50
90.0
 51
167.4441422014
  0
ARC
  5
3D
330
1F
100
AcDbEntity
  8
Layer9
  6
Continuous
 62
     7
 48
25.4
100
AcDbCircle
 10
124.1559538749
 20
172.2574480514
 30
0.0
 40
23.33333333332551
100
AcDbArc
 50
167.4441422014
 51
172.9017349336
  0
ARC
  5
3E
330
1F
100
AcDbEntity
  8
Layer9
  6
Continuous
 62
     7
 48
25.4
100
AcDbCircle
 10
145.5990991099
 20
171.4038255996
 30
0.0
 40
0.3333333333333582
100
AcDbArc
 50
351.5451534656
 51
69.5446505317
  0
ARC
  5
3F
330
1F
100
AcDbEntity
  8
Layer9
  6
Continuous
 62
     7
 48
25.4
100
AcDbCircle
 10
122.8490621583
 20
174.7855143348
 30
0.0
 40
23.33333333333334
100
AcDbArc
 50
326.4338453886
 51
351.5451534656
  0
ARC
  5
40
330
1F
100
AcDbEntity
  8
Layer9
  6
Continuous
 62
     7
 48
25.4
100
AcDbCircle
 10
142.0137659562
 20
162.0688273315
 30
0.0
 40
0.333333333333328
100
AcDbArc
 50
249.6224753373
 51
326.4338453886
  0
ARC
  5
41
330
1F
100
AcDbEntity
  8
Layer9
  6
Continuous
 62
     7
 48
25.4
100
AcDbCircle
 10
113.1128045484
 20
84.263079249
 30
0.0
 40
82.6666666966229
100
AcDbArc
 50
69.6224753373
 51
70.3080083252
  0
ARC
  5
42
330
1F
100
AcDbEntity
  8
Layer9
  6
Continuous
 62
     7
 48
25.4
100
AcDbCircle
 10
113.1559538749
 20
84.4241147181
 30
0.0
 40
93.1666666666687
100
AcDbArc
 50
69.5446505317
 51
89.4044176453
  0
LINE
  5
44
330
1F
100
AcDbEntity
  8
Layer2
  6
CENTER2
 62
     7
 48
25.4
100
AcDbLine
 10
67.4870159598
 20
185.2574480453
 30
0.0
 11
74.8607718874
 21
185.2574480453
 31
0.0
  0
LINE
  5
46
330
1F
100
AcDbEntity
  8
Layer1
  6
Continuous
 62
     7
 48
25.4
100
AcDbLine
 10
112.943524733
 20
234.2586287745
 30
0.0
 11
113.3251427238
 21
236.2218831414
 31
0.0
  0
LINE
  5
47
330
1F
100
AcDbEntity
  8
Layer1
  6
Continuous
 62
     7
 48
25.4
100
AcDbLine
 10
112.943524733
 20
307.913173584
 30
0.0
 11
113.2707337942
 21
307.9767765824
 31
0.0
  0
SPLINE
  5
48
330
1F
100
AcDbEntity
  8
Layer1
  6
Continuous
 62
     7
 48
25.4
100
AcDbSpline
210
0.0
220
0.0
230
1.0
 70
    24
 71
     1
 72
     4
 73
     2
 74
     0
 42
0.0000000001
 43
0.0000000001
 40
0.0
 40
0.0
 40
1.0
 40
1.0
 10
112.943524733048
 20
234.2586287744681
 30
0.0
 10
113.3251427238011
 20
236.2218831413636
 30
0.0
  0
ARC
  5
49
330
1F
100
AcDbEntity
  8
Layer1
  6
Continuous
 62
     7
 48
25.4
100
AcDbCircle
 10
97.7948413158
 20
288.4192345125
 30
0.0
 40
1.333333333333294
100
AcDbArc
 50
6.0178740173
 51
90.0
  0
LINE
  5
4A
330
1F
100
AcDbEntity
  8
Layer1
  6
Continuous
 62
     7
 48
25.4
100
AcDbLine
 10
97.7948413158
 20
289.7525678459
 30
0.0
 11
95.9892872619
 21
289.7525678459
 31
0.0
  0
ARC
  5
4B
330
1F
100
AcDbEntity
  8
Layer1
  6
Continuous
 62
     7
 48
25.4
100
AcDbCircle
 10
95.9892872619
 20
289.9192345125
 30
0.0
 40
0.1666666666666668
100
AcDbArc
 50
180.0
 51
270.0
  0
LINE
  5
4C
330
1F
100
AcDbEntity
  8
Layer1
  6
Continuous
 62
     7
 48
25.4
100
AcDbLine
 10
95.8226205953
 20
251.7525678459
 30
0.0
 11
95.8226205953
 21
252.2525678459
 31
0.0
  0
ARC
  5
4D
330
1F
100
AcDbEntity
  8
Layer1
  6
Continuous
 62
     7
 48
25.4
100
AcDbCircle
 10
95.9892872619
 20
252.2525678459
 30
0.0
 40
0.1666666666666761
100
AcDbArc
 50
90.0
 51
180.0
  0
LINE
  5
4E
330
1F
100
AcDbEntity
  8
Layer1
  6
Continuous
 62
     7
 48
25.4
100
AcDbLine
 10
95.9892872619
 20
252.4192345125
 30
0.0
 11
97.7948413158
 21
252.4192345125
 31
0.0
  0
ARC
  5
4F
330
1F
100
AcDbEntity
  8
Layer1
  6
Continuous
 62
     7
 48
25.4
100
AcDbCircle
 10
97.7948413158
 20
253.7525678459
 30
0.0
 40
1.333333333333334
100
AcDbArc
 50
270.0
 51
353.9821259827
  0
ARC
  5
50
330
1F
100
AcDbEntity
  8
Layer1
  6
Continuous
 62
     7
 48
25.4
100
AcDbCircle
 10
-66.6273794047
 20
271.0859011792
 30
0.0
 40
166.6666666666635
100
AcDbArc
 50
353.9821259827
 51
6.0178740173
  0
LINE
  5
51
330
1F
100
AcDbEntity
  8
Layer1
  6
Continuous
 62
     7
 48
25.4
100
AcDbLine
 10
99.5279532259
 20
305.3054506471
 30
0.0
 11
99.7810931598
 21
304.0031585838
 31
0.0
  0
ARC
  5
52
330
1F
100
AcDbEntity
  8
Layer1
  6
Continuous
 62
     7
 48
25.4
100
AcDbCircle
 10
98.471519924
 20
303.7525678459
 30
0.0
 40
1.333333333333334
100
AcDbArc
 50
270.0
 51
11.1672325773
  0
LINE
  5
53
330
1F
100
AcDbEntity
  8
Layer1
  6
Continuous
 62
     7
 48
25.4
100
AcDbLine
 10
95.9892872619
 20
302.4192345125
 30
0.0
 11
98.471519924
 21
302.4192345125
 31
0.0
  0
ARC
  5
54
330
1F
100
AcDbEntity
  8
Layer1
  6
Continuous
 62
     7
 48
25.4
100
AcDbCircle
 10
95.9892872619
 20
302.2525678459
 30
0.0
 40
0.1666666666666668
100
AcDbArc
 50
90.0
 51
180.0
  0
LINE
  5
55
330
1F
100
AcDbEntity
  8
Layer1
  6
Continuous
 62
     7
 48
25.4
100
AcDbLine
 10
95.8226205953
 20
302.2525678459
 30
0.0
 11
95.8226205953
 21
289.9192345125
 31
0.0
  0
LINE
  5
56
330
1F
100
AcDbEntity
  8
Layer1
  6
Continuous
 62
     7
 48
25.4
100
AcDbLine
 10
113.3251427238
 20
236.2218831414
 30
0.0
 11
113.6428127567
 21
236.1635418035
 31
0.0
  0
LINE
  5
57
330
1F
100
AcDbEntity
  8
Layer1
  6
Continuous
 62
     7
 48
25.4
100
AcDbLine
 10
113.3251427238
 20
236.2218831414
 30
0.0
 11
112.943524733
 21
234.2586287745
 31
0.0
  0
LINE
  5
58
330
1F
100
AcDbEntity
  8
Layer1
  6
Continuous
 62
     7
 48
25.4
100
AcDbLine
 10
99.5279532259
 20
305.3054506471
 30
0.0
 11
112.943524733
 21
307.913173584
 31
0.0
  0
ARC
  5
59
330
1F
100
AcDbEntity
  8
Layer1
  6
Continuous
 62
     7
 48
25.4
100
AcDbCircle
 10
-76.510300795
 20
271.0859011792
 30
0.0
 40
193.3333333333333
100
AcDbArc
 50
348.9996569468
 51
11.0003430532
  0
LINE
  5
5B
330
1F
100
AcDbEntity
  8
Layer4
  6
Continuous
 62
     7
 48
25.4
100
AcDbLine
 10
113.3043741072
 20
308.1531017127
 30
0.0
 11
113.0488791793
 21
308.1034385296
 31
0.0
  0
LINE
  5
5C
330
1F
100
AcDbEntity
  8
Layer4
  6
Continuous
 62
     7
 48
25.4
100
AcDbLine
 10
113.3043741072
 20
308.1531017127
 30
0.0
 11
113.4679411984
 21
308.1848959344
 31
0.0
  0
ARC
  5
5D
330
1F
100
AcDbEntity
  8
Layer4
  6
Continuous
 62
     7
 48
25.4
100
AcDbCircle
 10
114.1718534556
 20
315.2172501326
 30
0.0
 40
0.1666665751506897
100
AcDbArc
 50
308.8277051187
 51
10.9999787074
  0
ARC
  5
5E
330
1F
100
AcDbEntity
  8
Layer4
  6
Continuous
 62
     7
 48
25.4
100
AcDbCircle
 10
116.3662861015
 20
312.4906285923
 30
0.0
 40
3.333333376456577
100
AcDbArc
 50
128.827719107
 51
191.0
  0
LINE
  5
5F
330
1F
100
AcDbEntity
  8
Layer4
  6
Continuous
 62
     7
 48
25.4
100
AcDbLine
 10
113.7315472611
 20
308.575707994
 30
0.0
 11
113.09419549
 21
311.8545986077
 31
0.0
  0
ARC
  5
60
330
1F
100
AcDbEntity
  8
Layer4
  6
Continuous
 62
     7
 48
25.4
100
AcDbCircle
 10
113.4043382
 20
308.5121049956
 30
0.0
 40
0.3333333333333244
100
AcDbArc
 50
281.0
 51
11.0
  0
ARC
  5
61
330
1F
100
AcDbEntity
  8
Layer4
  6
Continuous
 62
     7
 48
25.4
100
AcDbCircle
 10
118.8337297088
 20
242.67174216
 30
0.0
 40
83.33333333345578
100
AcDbArc
 50
96.6149566253
 51
97.307596506
  0
ARC
  5
62
330
1F
100
AcDbEntity
  8
Layer4
  6
Continuous
 62
     7
 48
25.4
100
AcDbCircle
 10
99.6279547581
 20
305.6644612075
 30
0.0
 40
0.1666666666666761
100
AcDbArc
 50
191.0
 51
281.0
  0
LINE
  5
63
330
1F
100
AcDbEntity
  8
Layer4
  6
Continuous
 62
     7
 48
25.4
100
AcDbLine
 10
99.6597562573
 20
305.5008566769
 30
0.0
 11
113.0489296829
 21
308.1034483465
 31
0.0
  0
ARC
  5
64
330
1F
100
AcDbEntity
  8
Layer4
  6
Continuous
 62
     7
 48
25.4
100
AcDbCircle
 10
96.5035713546
 20
322.6114947204
 30
0.0
 40
0.3333332638845907
100
AcDbArc
 50
105.6070183782
 51
190.9999893364
  0
LINE
  5
65
330
1F
100
AcDbEntity
  8
Layer4
  6
Continuous
 62
     7
 48
25.4
100
AcDbLine
 10
96.1763622029
 20
322.5478917044
 30
0.0
 11
99.4643502275
 21
305.6326597083
 31
0.0
  0
ARC
  5
66
330
1F
100
AcDbEntity
  8
Layer4
  6
Continuous
 62
     7
 48
25.4
100
AcDbCircle
 10
118.8337297088
 20
242.6717421601
 30
0.0
 40
83.33333333333168
100
AcDbArc
 50
97.307596506
 51
105.6070333206
  0
LINE
  5
67
330
1F
100
AcDbEntity
  8
Layer4
  6
Continuous
 62
     7
 48
25.4
100
AcDbLine
 10
109.7824366181
 20
325.0490359845
 30
0.0
 11
113.0433525219
 21
308.2730779759
 31
0.0
  0
ARC
  5
68
330
1F
100
AcDbEntity
  8
Layer4
  6
Continuous
 62
     7
 48
25.4
100
AcDbCircle
 10
112.8797479913
 20
308.2412764766
 30
0.0
 40
0.1666666666666761
100
AcDbArc
 50
281.0
 51
11.0
  0
LINE
  5
69
330
1F
100
AcDbEntity
  8
Layer4
  6
Continuous
 62
     7
 48
25.4
100
AcDbLine
 10
114.3354580634
 20
315.2490516469
 30
0.0
 11
112.2745998947
 21
325.8512478151
 31
0.0
  0
ARC
  5
6A
330
1F
100
AcDbEntity
  8
Layer4
  6
Continuous
 62
     7
 48
25.4
100
AcDbCircle
 10
112.1109952912
 20
325.8194463017
 30
0.0
 40
0.1666667793628784
100
AcDbArc
 50
10.9999521097
 51
84.6173695225
  0
ARC
  5
6B
330
1F
100
AcDbEntity
  8
Layer4
  6
Continuous
 62
     7
 48
25.4
100
AcDbCircle
 10
111.5012486546
 20
319.3481089149
 30
0.0
 40
6.666666666666699
100
AcDbArc
 50
84.6173315111
 51
115.1518313316
  0
ARC
  5
6D
330
1F
100
AcDbEntity
  8
Layer5
  6
Continuous
 62
     7
 48
25.4
100
AcDbCircle
 10
83.8607718874
 20
234.7525678459
 30
0.0
 40
0.3333333333332874
100
AcDbArc
 50
270.0
 51
360.0
  0
SPLINE
  5
6E
330
1F
100
AcDbEntity
  8
Layer5
  6
Continuous
 62
     7
 48
25.4
100
AcDbSpline
210
0.0
220
0.0
230
1.0
 70
    12
 71
     3
 72
     8
 73
     4
 74
     0
 42
0.0000000001
 43
0.0000000001
 40
0.0
 40
0.0
 40
0.0
 40
0.0
 40
1.0
 40
1.0
 40
1.0
 40
1.0
 10
84.19410522068377
 20
234.7525678458771
 30
0.0
 41
1.0
 10
84.19410522068377
 20
234.5573057000015
 30
0.0
 41
0.8047378541243653
 10
84.05603403322614
 20
234.4192345125438
 30
0.0
 41
0.8047378541243653
 10
83.86077188735052
 20
234.4192345125438
 30
0.0
 41
1.0
  0
LINE
  5
6F
330
1F
100
AcDbEntity
  8
Layer5
  6
Continuous
 62
     7
 48
25.4
100
AcDbLine
 10
74.8607718874
 20
255.1027379242
 30
0.0
 11
74.8607718874
 21
253.7320345125
 31
0.0
  0
LINE
  5
70
330
1F
100
AcDbEntity
  8
Layer5
  6
Continuous
 62
     7
 48
25.4
100
AcDbLine
 10
74.8607718874
 20
257.5859011792
 30
0.0
 11
74.8607718874
 21
235.8173494661
 31
0.0
  0
ARC
  5
71
330
1F
100
AcDbEntity
  8
Layer5
  6
Continuous
 62
     7
 48
25.4
100
AcDbCircle
 10
83.8607718874
 20
234.7525678459
 30
0.0
 40
0.3333333333332966
100
AcDbArc
 50
270.0
 51
360.0
  0
LINE
  5
72
330
1F
100
AcDbEntity
  8
Layer5
  6
Continuous
 62
     7
 48
25.4
100
AcDbLine
 10
84.1941052207
 20
234.7525678459
 30
0.0
 11
84.1941052207
 21
257.4192345125
 31
0.0
  0
ARC
  5
73
330
1F
100
AcDbEntity
  8
Layer5
  6
Continuous
 62
     7
 48
25.4
100
AcDbCircle
 10
75.027438554
 20
234.5859011792
 30
0.0
 40
0.1666666666666807
100
AcDbArc
 50
180.0
 51
270.0
  0
LINE
  5
74
330
1F
100
AcDbEntity
  8
Layer5
  6
Continuous
 62
     7
 48
25.4
100
AcDbLine
 10
75.027438554
 20
234.4192345125
 30
0.0
 11
83.8607718874
 21
234.4192345125
 31
0.0
  0
ARC
  5
75
330
1F
100
AcDbEntity
  8
Layer5
  6
Continuous
 62
     7
 48
25.4
100
AcDbCircle
 10
75.027438554
 20
257.5859011792
 30
0.0
 40
0.1666666666666807
100
AcDbArc
 50
90.0
 51
180.0
  0
LINE
  5
76
330
1F
100
AcDbEntity
  8
Layer5
  6
Continuous
 62
     7
 48
25.4
100
AcDbLine
 10
75.027438554
 20
257.7525678459
 30
0.0
 11
83.8607718874
 21
257.7525678459
 31
0.0
  0
ARC
  5
77
330
1F
100
AcDbEntity
  8
Layer5
  6
Continuous
 62
     7
 48
25.4
100
AcDbCircle
 10
83.8607718874
 20
257.4192345125
 30
0.0
 40
0.3333333333333521
100
AcDbArc
 50
0.0
 51
90.0
  0
LINE
  5
78
330
1F
100
AcDbEntity
  8
Layer2
  6
Continuous
 62
     7
 48
25.4
100
AcDbLine
 10
70.1068052207
 20
302.0693678459
 30
0.0
 11
74.8607718874
 21
302.0693678459
 31
0.0
  0
LINE
  5
79
330
1F
100
AcDbEntity
  8
Layer2
  6
Continuous
 62
     7
 48
25.4
100
AcDbLine
 10
69.704138554
 20
301.6667011792
 30
0.0
 11
74.8607718874
 21
301.6667011792
 31
0.0
  0
LINE
  5
7A
330
1F
100
AcDbEntity
  8
Layer2
  6
Continuous
 62
     7
 48
25.4
100
AcDbLine
 10
69.6940718874
 20
301.6566345125
 30
0.0
 11
70.1068052207
 21
302.0693678459
 31
0.0
  0
LINE
  5
7B
330
1F
100
AcDbEntity
  8
Layer2
  6
Continuous
 62
     7
 48
25.4
100
AcDbLine
 10
69.6940718874
 20
295.4830345892
 30
0.0
 11
69.6940718874
 21
301.6566345125
 31
0.0
  0
LINE
  5
7C
330
1F
100
AcDbEntity
  8
Layer2
  6
CENTER2
 62
     7
 48
25.4
100
AcDbLine
 10
74.8607718874
 20
298.5698345508
 30
0.0
 11
67.4613860736
 21
298.5698345508
 31
0.0
  0
LINE
  5
7D
330
1F
100
AcDbEntity
  8
Layer2
  6
Continuous
 62
     7
 48
25.4
100
AcDbLine
 10
70.1068052207
 20
295.0703012558
 30
0.0
 11
74.8607718874
 21
295.0703012558
 31
0.0
  0
LINE
  5
7E
330
1F
100
AcDbEntity
  8
Layer2
  6
Continuous
 62
     7
 48
25.4
100
AcDbLine
 10
69.704138554
 20
295.4729679225
 30
0.0
 11
74.8607718874
 21
295.4729679225
 31
0.0
  0
LINE
  5
7F
330
1F
100
AcDbEntity
  8
Layer2
  6
Continuous
 62
     7
 48
25.4
100
AcDbLine
 10
69.6940718874
 20
295.4830345892
 30
0.0
 11
70.1068052207
 21
295.0703012558
 31
0.0
  0
LINE
  5
81
330
1F
100
AcDbEntity
  8
Layer8
  6
Continuous
 62
     7
 48
25.4
100
AcDbLine
 10
95.828920139
 20
301.2525678459
 30
0.0
 11
84.1941052207
 21
301.2525678459
 31
0.0
  0
LINE
  5
82
330
1F
100
AcDbEntity
  8
Layer8
  6
Continuous
 62
     7
 48
25.4
100
AcDbLine
 10
95.8226205953
 20
290.9192345125
 30
0.0
 11
84.1941052207
 21
290.9192345125
 31
0.0
  0
LINE
  5
83
330
1F
100
AcDbEntity
  8
Layer1
  6
Continuous
 62
     7
 48
25.4
100
AcDbLine
 10
95.8226205953
 20
239.9192345125
 30
0.0
 11
95.8226205953
 21
252.2525678459
 31
0.0
  0
ARC
  5
84
330
1F
100
AcDbEntity
  8
Layer1
  6
Continuous
 62
     7
 48
25.4
100
AcDbCircle
 10
95.9892872619
 20
239.9192345125
 30
0.0
 40
0.1666666666666761
100
AcDbArc
 50
180.0
 51
270.0
  0
LINE
  5
85
330
1F
100
AcDbEntity
  8
Layer1
  6
Continuous
 62
     7
 48
25.4
100
AcDbLine
 10
98.471519924
 20
239.7525678459
 30
0.0
 11
95.9892872619
 21
239.7525678459
 31
0.0
  0
ARC
  5
86
330
1F
100
AcDbEntity
  8
Layer1
  6
Continuous
 62
     7
 48
25.4
100
AcDbCircle
 10
98.471519924
 20
238.4192345125
 30
0.0
 40
1.333333333333342
100
AcDbArc
 50
349.1672325772
 51
90.0
  0
LINE
  5
87
330
1F
100
AcDbEntity
  8
Layer1
  6
Continuous
 62
     7
 48
25.4
100
AcDbLine
 10
99.5279532259
 20
236.8663517113
 30
0.0
 11
99.7810931598
 21
238.1686437747
 31
0.0
  0
LINE
  5
88
330
1F
100
AcDbEntity
  8
Layer1
  6
Continuous
 62
     7
 48
25.4
100
AcDbLine
 10
99.5279532259
 20
236.8663517113
 30
0.0
 11
113.2707337942
 21
234.195025776
 31
0.0
  0
LINE
  5
89
330
1F
100
AcDbEntity
  8
Layer1
  6
Continuous
 62
     7
 48
25.4
100
AcDbLine
 10
107.8410535166
 20
178.2574480453
 30
0.0
 11
106.2972032114
 21
178.2574480453
 31
0.0
  0
LINE
  5
8A
330
1F
100
AcDbEntity
  8
Layer1
  6
Continuous
 62
     7
 48
25.4
100
AcDbLine
 10
106.2972032239
 20
192.2574480453
 30
0.0
 11
108.0198321771
 21
192.2574480453
 31
0.0
  0
SPLINE
  5
8B
330
1F
100
AcDbEntity
  8
Layer1
  6
Continuous
 62
     7
 48
25.4
100
AcDbSpline
210
0.0
220
0.0
230
1.0
 70
     8
 71
     3
 72
     8
 73
     4
 74
     0
 42
0.0000000001
 43
0.0000000001
 40
0.0
 40
0.0
 40
0.0
 40
0.0
 40
1.0
 40
1.0
 40
1.0
 40
1.0
 10
106.2972032114025
 20
178.2574480453243
 30
0.0
 10
106.2831443005866
 20
178.2574480667014
 30
0.0
 10
106.2691143913765
 20
178.2574861070256
 30
0.0
 10
106.2551131780166
 20
178.2575621165711
 30
0.0
  0
SPLINE
  5
8C
330
1F
100
AcDbEntity
  8
Layer1
  6
Continuous
 62
     7
 48
25.4
100
AcDbSpline
210
0.0
220
0.0
230
1.0
 70
     8
 71
     3
 72
     8
 73
     4
 74
     0
 42
0.0000000001
 43
0.0000000001
 40
0.0
 40
0.0
 40
0.0
 40
0.0
 40
1.0
 40
1.0
 40
1.0
 40
1.0
 10
108.0198321775249
 20
192.2574480453235
 30
0.0
 10
108.0111582429966
 20
192.2574515848383
 30
0.0
 10
108.0024843689008
 20
192.2574382762298
 30
0.0
 10
107.9938106152644
 20
192.2574081322291
 30
0.0
  0
LINE
  5
8D
330
1F
100
AcDbEntity
  8
Layer1
  6
Continuous
 62
     7
 48
25.4
100
AcDbLine
 10
109.8403116429
 20
192.2574480453
 30
0.0
 11
108.0195793646
 21
192.2574480453
 31
0.0
  0
SPLINE
  5
8E
330
1F
100
AcDbEntity
  8
Layer1
  6
Continuous
 62
     7
 48
25.4
100
AcDbSpline
210
0.0
220
0.0
230
1.0
 70
     8
 71
     3
 72
    11
 73
     7
 74
     0
 42
0.0000000001
 43
0.0000000001
 40
0.0
 40
0.0
 40
0.0
 40
0.0
 40
0.4206436132150891
 40
0.6652391140668346
 40
0.9130316988517189
 40
1.0
 40
1.0
 40
1.0
 40
1.0
 10
114.1243921138903
 20
179.5241202432829
 30
0.0
 10
114.1277328684145
 20
179.8368425513736
 30
0.0
 10
114.1739896858668
 20
180.2580704893575
 30
0.0
 10
114.3203209394052
 20
180.7667520711966
 30
0.0
 10
114.3722503452187
 20
180.877121106143
 30
0.0
 10
114.3778669616709
 20
180.8891211243051
 30
0.0
 10
114.3777919915239
 20
180.8891973645234
 30
0.0
  0
ARC
  5
8F
330
1F
100
AcDbEntity
  8
Layer1
  6
Continuous
 62
     7
 48
25.4
100
AcDbCircle
 10
95.9892872082
 20
179.424114712
 30
0.0
 40
0.1666666666666668
100
AcDbArc
 50
180.0
 51
270.0
  0
ARC
  5
90
330
1F
100
AcDbEntity
  8
Layer1
  6
Continuous
 62
     7
 48
25.4
100
AcDbCircle
 10
113.7910587739
 20
174.5907813787
 30
0.0
 40
0.3333333333333336
100
AcDbArc
 50
270.0
 51
360.0
  0
LINE
  5
91
330
1F
100
AcDbEntity
  8
Layer1
  6
Continuous
 62
     7
 48
25.4
100
AcDbLine
 10
113.7910587739
 20
174.2574480453
 30
0.0
 11
104.7910587739
 21
174.2574480453
 31
0.0
  0
LINE
  5
92
330
1F
100
AcDbEntity
  8
Layer1
  6
Continuous
 62
     7
 48
25.4
100
AcDbLine
 10
95.8226205415
 20
191.0907813787
 30
0.0
 11
95.8226205415
 21
179.424114712
 31
0.0
  0
LINE
  5
93
330
1F
100
AcDbEntity
  8
Layer1
  6
Continuous
 62
     7
 48
25.4
100
AcDbLine
 10
95.9892872082
 20
179.2574480453
 30
0.0
 11
99.4328256367
 21
179.2574480453
 31
0.0
  0
ARC
  5
94
330
1F
100
AcDbEntity
  8
Layer1
  6
Continuous
 62
     7
 48
25.4
100
AcDbCircle
 10
95.9892872082
 20
191.0907813787
 30
0.0
 40
0.1666666666666668
100
AcDbArc
 50
90.0
 51
180.0
  0
LINE
  5
95
330
1F
100
AcDbEntity
  8
Layer1
  6
Continuous
 62
     7
 48
25.4
100
AcDbLine
 10
104.1559538749
 20
177.9896355763
 30
0.0
 11
104.1559538749
 21
177.5907813848
 31
0.0
  0
ARC
  5
96
330
1F
100
AcDbEntity
  8
Layer1
  6
Continuous
 62
     7
 48
25.4
100
AcDbCircle
 10
104.7910587739
 20
174.5907813787
 30
0.0
 40
0.3333333333333336
100
AcDbArc
 50
180.0
 51
270.0
  0
SPLINE
  5
97
330
1F
100
AcDbEntity
  8
Layer1
  6
Continuous
 62
     7
 48
25.4
100
AcDbSpline
210
0.0
220
0.0
230
1.0
 70
     8
 71
     3
 72
     8
 73
     4
 74
     0
 42
0.0000000001
 43
0.0000000001
 40
0.0
 40
0.0
 40
0.0
 40
0.0
 40
1.0
 40
1.0
 40
1.0
 40
1.0
 10
104.1997027928192
 20
178.2574478955633
 30
0.0
 10
104.3630996622371
 20
178.0103481732637
 30
0.0
 10
104.4494422201771
 20
177.7087074081585
 30
0.0
 10
104.4578057590502
 20
177.3750528667749
 30
0.0
  0
LINE
  5
98
330
1F
100
AcDbEntity
  8
Layer1
  6
Continuous
 62
     7
 48
25.4
100
AcDbLine
 10
99.4315802666
 20
191.2574480453
 30
0.0
 11
95.9892872082
 21
191.2574480453
 31
0.0
  0
LINE
  5
99
330
1F
100
AcDbEntity
  8
Layer1
  6
Continuous
 62
     7
 48
25.4
100
AcDbLine
 10
109.6181486412
 20
192.2574203081
 30
0.0
 11
109.3684529179
 21
192.2574300933
 31
0.0
  0
LINE
  5
9A
330
1F
100
AcDbEntity
  8
Layer1
  6
Continuous
 62
     7
 48
25.4
100
AcDbLine
 10
109.788222719
 20
192.2574147043
 30
0.0
 11
109.6181486412
 21
192.2574203081
 31
0.0
  0
LINE
  5
9B
330
1F
100
AcDbEntity
  8
Layer1
  6
Continuous
 62
     7
 48
25.4
100
AcDbLine
 10
108.0057374563
 20
192.2573994749
 30
0.0
 11
107.9937784743
 21
192.2573988812
 31
0.0
  0
LINE
  5
9C
330
1F
100
AcDbEntity
  8
Layer1
  6
Continuous
 62
     7
 48
25.4
100
AcDbLine
 10
114.1243921073
 20
174.5907813787
 30
0.0
 11
114.1243921073
 21
179.5236706075
 31
0.0
  0
SPLINE
  5
9D
330
1F
100
AcDbEntity
  8
Layer1
  6
Continuous
 62
     7
 48
25.4
100
AcDbSpline
210
0.0
220
0.0
230
1.0
 70
     8
 71
     3
 72
     8
 73
     4
 74
     0
 42
0.0000000001
 43
0.0000000001
 40
0.0
 40
0.0
 40
0.0
 40
0.0
 40
1.0
 40
1.0
 40
1.0
 40
1.0
 10
104.1185635451341
 20
178.2574480449689
 30
0.0
 10
104.1363780805618
 20
178.1715168612458
 30
0.0
 10
104.1485751485964
 20
178.0819690792677
 30
0.0
 10
104.1559538758568
 20
177.9896343220255
 30
0.0
  0
LINE
  5
9E
330
1F
100
AcDbEntity
  8
Layer1
  6
Continuous
 62
     7
 48
25.4
100
AcDbLine
 10
104.4577254406
 20
177.3744357847
 30
0.0
 11
104.4577254406
 21
174.5907813787
 31
0.0
  0
SPLINE
  5
9F
330
1F
100
AcDbEntity
  8
Layer1
  6
Continuous
 62
     7
 48
25.4
100
AcDbSpline
210
0.0
220
0.0
230
1.0
 70
     8
 71
     3
 72
    15
 73
    11
 74
     0
 42
0.0000000001
 43
0.0000000001
 40
0.0
 40
0.0
 40
0.0
 40
0.0
 40
0.0377831432868909
 40
0.1758710186988318
 40
0.3207404703489059
 40
0.474843618714432
 40
0.6332681618907001
 40
0.7812627626311343
 40
0.9176013412886094
 40
1.0
 40
1.0
 40
1.0
 40
1.0
 10
114.1355185312167
 20
179.7512341123964
 30
0.0
 10
114.2997720570743
 20
179.8824108272195
 30
0.0
 10
115.0348600526353
 20
180.5302471651332
 30
0.0
 10
116.2139648594722
 20
182.0560684839185
 30
0.0
 10
116.9145609457018
 20
184.4952158360617
 30
0.0
 10
116.7343406518578
 20
187.1823094806038
 30
0.0
 10
115.4980836180009
 20
189.6015963625297
 30
0.0
 10
113.5917970988168
 20
191.3310291179888
 30
0.0
 10
111.542744851331
 20
192.1229624749931
 30
0.0
 10
110.358662789566
 20
192.2513909174658
 30
0.0
 10
109.84031164266
 20
192.2574480113778
 30
0.0
  0
LINE
  5
A1
330
1F
100
AcDbEntity
  8
Layer6
  6
Continuous
 62
     7
 48
25.4
100
AcDbLine
 10
102.9701230734
 20
178.2574480453
 30
0.0
 11
106.2718148813
 21
178.2574480453
 31
0.0
  0
SPLINE
  5
A2
330
1F
100
AcDbEntity
  8
Layer6
  6
Continuous
 62
     7
 48
25.4
100
AcDbSpline
210
0.0
220
0.0
230
1.0
 70
     8
 71
     3
 72
     9
 73
     5
 74
     0
 42
0.0000000001
 43
0.0000000001
 40
0.0
 40
0.0
 40
0.0
 40
0.0
 40
0.5088059134522416
 40
1.0
 40
1.0
 40
1.0
 40
1.0
 10
109.6629645841525
 20
179.1710915865907
 30
0.0
 10
110.5202922445071
 20
179.6586948156449
 30
0.0
 10
111.7603187510159
 20
180.857345739812
 30
0.0
 10
112.6107736721273
 20
182.3718725487359
 30
0.0
 10
112.8650137828823
 20
183.2965616109329
 30
0.0
  0
SPLINE
  5
A3
330
1F
100
AcDbEntity
  8
Layer6
  6
Continuous
 62
     7
 48
25.4
100
AcDbSpline
210
0.0
220
0.0
230
1.0
 70
     8
 71
     3
 72
    18
 73
    14
 74
     0
 42
0.0000000001
 43
0.0000000001
 40
0.0
 40
0.0
 40
0.0
 40
0.0
 40
0.0826830524673021
 40
0.1745143833657531
 40
0.2663754576334584
 40
0.3582676506322869
 40
0.4501837504602709
 40
0.5421110233420039
 40
0.6340342100580698
 40
0.7259389167963145
 40
0.817814751668664
 40
0.9096587849093507
 40
1.0
 40
1.0
 40
1.0
 40
1.0
 10
102.348939021699
 20
192.2285830659119
 30
0.0
 10
101.7353192245761
 20
192.1803221361939
 30
0.0
 10
100.6620950761135
 20
191.9184249374177
 30
0.0
 10
98.98137796190424
 20
191.0783234969865
 30
0.0
 10
97.61992015523532
 20
189.776978699117
 30
0.0
 10
96.61152201239663
 20
188.1455474097924
 30
0.0
 10
96.0887761911013
 20
186.3010022540904
 30
0.0
 10
96.06683889924837
 20
184.3793656535183
 30
0.0
 10
96.54592959115868
 20
182.5237015371523
 30
0.0
 10
97.51761461213096
 20
180.8658104568564
 30
0.0
 10
98.8467584606441
 20
179.5371294004372
 30
0.0
 10
100.558117684131
 20
178.6211136349482
 30
0.0
 10
101.6742757418535
 20
178.3518380389076
 30
0.0
 10
102.3433689246782
 20
178.2869967998295
 30
0.0
  0
LINE
  5
A4
330
1F
100
AcDbEntity
  8
Layer6
  6
Continuous
 62
     7
 48
25.4
100
AcDbLine
 10
106.2718148813
 20
192.2574480453
 30
0.0
 11
102.9701230734
 21
192.2574480453
 31
0.0
  0
SPLINE
  5
A5
330
1F
100
AcDbEntity
  8
Layer6
  6
Continuous
 62
     7
 48
25.4
100
AcDbSpline
210
0.0
220
0.0
230
1.0
 70
     8
 71
     3
 72
     9
 73
     5
 74
     0
 42
0.0000000001
 43
0.0000000001
 40
0.0
 40
0.0
 40
0.0
 40
0.0
 40
0.4939053467703729
 40
1.0
 40
1.0
 40
1.0
 40
1.0
 10
112.8646974586808
 20
187.2180951035691
 30
0.0
 10
112.6051457498669
 20
188.152459096024
 30
0.0
 10
111.7513536362564
 20
189.6751317291805
 30
0.0
 10
110.4963114479655
 20
190.874958153532
 30
0.0
 10
109.6366103935911
 20
191.3589763765777
 30
0.0
  0
ELLIPSE
  5
A6
330
1F
100
AcDbEntity
  8
Layer6
  6
Continuous
 62
     7
 48
25.4
100
AcDbEllipse
 10
106.2718148813
 20
185.2574480453
 30
0.0
 11
-2.058538524825811E-13
 21
7.000000000000009
 31
0.0
210
0.0
220
0.0
230
1.0
 40
0.9809551553
 41
5.771201931128568
 42
6.283185307179556
  0
ELLIPSE
  5
A7
330
1F
100
AcDbEntity
  8
Layer6
  6
Continuous
 62
     7
 48
25.4
100
AcDbEllipse
 10
106.2718148813
 20
185.2574480453
 30
0.0
 11
-2.058538524825811E-13
 21
7.000000000000009
 31
0.0
210
0.0
220
0.0
230
1.0
 40
0.9809551553
 41
3.141592653589759
 42
3.657983308108911
  0
ELLIPSE
  5
A8
330
1F
100
AcDbEntity
  8
Layer6
  6
Continuous
 62
     7
 48
25.4
100
AcDbEllipse
 10
102.9701230734
 20
185.2574480453
 30
0.0
 11
-7.563394355258878E-13
 21
7.000000000000018
 31
0.0
210
0.0
220
0.0
230
1.0
 40
0.9809551553
 41
6.283184713600194
 42
6.373607349053918
  0
ELLIPSE
  5
A9
330
1F
100
AcDbEntity
  8
Layer6
  6
Continuous
 62
     7
 48
25.4
100
AcDbEllipse
 10
102.9701230734
 20
185.2574480453
 30
0.0
 11
-7.563394355258878E-13
 21
7.000000000000018
 31
0.0
210
0.0
220
0.0
230
1.0
 40
0.9809551553
 41
3.050356042953273
 42
3.141592247931316
  0
ARC
  5
AA
330
1F
100
AcDbEntity
  8
Layer6
  6
Continuous
 62
     7
 48
25.4
100
AcDbCircle
 10
103.6087015758
 20
174.6039493968
 30
0.0
 40
13.9005452794226
100
AcDbArc
 50
64.6206139927
 51
66.5502119075
  0
ARC
  5
AB
330
1F
100
AcDbEntity
  8
Layer6
  6
Continuous
 62
     7
 48
25.4
100
AcDbCircle
 10
103.608701562
 20
195.9109467199
 30
0.0
 40
13.90054530768837
100
AcDbArc
 50
293.4497881061
 51
295.3794424169
  0
SPLINE
  5
AC
330
1F
100
AcDbEntity
  8
Layer6
  6
Continuous
 62
     7
 48
25.4
100
AcDbSpline
210
0.0
220
0.0
230
1.0
 70
     8
 71
     3
 72
    14
 73
    10
 74
     0
 42
0.0000000001
 43
0.0000000001
 40
0.0
 40
0.0
 40
0.0
 40
0.0
 40
0.1526980853904336
 40
0.2970187112568709
 40
0.4372617016033142
 40
0.5789652792425259
 40
0.7181677930517638
 40
0.8595556455933224
 40
1.0
 40
1.0
 40
1.0
 40
1.0
 10
112.6473099798753
 20
183.2691653365708
 30
0.0
 10
112.8040760365109
 20
183.2915309839902
 30
0.0
 10
113.1511001074718
 20
183.4007139619262
 30
0.0
 10
113.7952605889891
 20
183.9559352269777
 30
0.0
 10
114.1727895340472
 20
184.8315385288206
 30
0.0
 10
114.1486842847703
 20
185.7939881776662
 30
0.0
 10
113.7322153860451
 20
186.6337434261082
 30
0.0
 10
113.1138968245392
 20
187.1266005029534
 30
0.0
 10
112.7850002295357
 20
187.2286194086633
 30
0.0
 10
112.6445475250948
 20
187.2461354740373
 30
0.0
  0
LINE
  5
AD
330
1F
100
AcDbEntity
  8
Layer6
  6
Continuous
 62
     7
 48
25.4
100
AcDbLine
 10
112.5001821566
 20
187.2574480462
 30
0.0
 11
110.1632916273
 21
187.2574480462
 31
0.0
  0
SPLINE
  5
AE
330
1F
100
AcDbEntity
  8
Layer6
  6
Continuous
 62
     7
 48
25.4
100
AcDbSpline
210
0.0
220
0.0
230
1.0
 70
     8
 71
     3
 72
     8
 73
     4
 74
     0
 42
0.0000000001
 43
0.0000000001
 40
0.0
 40
0.0
 40
0.0
 40
0.0
 40
1.0
 40
1.0
 40
1.0
 40
1.0
 10
113.0962544537585
 20
183.2977402826516
 30
0.0
 10
113.1036001913065
 20
183.2973890457594
 30
0.0
 10
113.1104842144372
 20
183.2976350691206
 30
0.0
 10
113.1170613487053
 20
183.298473111368
 30
0.0
  0
SPLINE
  5
AF
330
1F
100
AcDbEntity
  8
Layer6
  6
Continuous
 62
     7
 48
25.4
100
AcDbSpline
210
0.0
220
0.0
230
1.0
 70
     8
 71
     3
 72
    10
 73
     6
 74
     0
 42
0.0000000001
 43
0.0000000001
 40
0.0
 40
0.0
 40
0.0
 40
0.0
 40
0.1689458231000605
 40
0.5934803658732804
 40
1.0
 40
1.0
 40
1.0
 40
1.0
 10
113.1222986179736
 20
183.2992765900736
 30
0.0
 10
113.1300810813708
 20
183.3006768667415
 30
0.0
 10
113.1560516476853
 20
183.3086413427207
 30
0.0
 10
113.1974394641016
 20
183.3398940867535
 30
0.0
 10
113.2116492053965
 20
183.371881278772
 30
0.0
 10
113.2171006582497
 20
183.3907646919672
 30
0.0
  0
SPLINE
  5
B0
330
1F
100
AcDbEntity
  8
Layer6
  6
Continuous
 62
     7
 48
25.4
100
AcDbSpline
210
0.0
220
0.0
230
1.0
 70
     8
 71
     3
 72
     8
 73
     4
 74
     0
 42
0.0000000001
 43
0.0000000001
 40
0.0
 40
0.0
 40
0.0
 40
0.0
 40
1.0
 40
1.0
 40
1.0
 40
1.0
 10
113.2175434036152
 20
183.390655163074
 30
0.0
 10
113.2286091042907
 20
183.4323510000347
 30
0.0
 10
113.2392027517012
 20
183.473784957676
 30
0.0
 10
113.2493402969036
 20
183.5149736673139
 30
0.0
  0
SPLINE
  5
B1
330
1F
100
AcDbEntity
  8
Layer6
  6
Continuous
 62
     7
 48
25.4
100
AcDbSpline
210
0.0
220
0.0
230
1.0
 70
     8
 71
     3
 72
     8
 73
     4
 74
     0
 42
0.0000000001
 43
0.0000000001
 40
0.0
 40
0.0
 40
0.0
 40
0.0
 40
1.0
 40
1.0
 40
1.0
 40
1.0
 10
113.2486732388295
 20
187.0009842106823
 30
0.0
 10
113.2384301753409
 20
187.0417511841216
 30
0.0
 10
113.2277224142282
 20
187.0827490628175
 30
0.0
 10
113.2165334927882
 20
187.1239928588572
 30
0.0
  0
SPLINE
  5
B2
330
1F
100
AcDbEntity
  8
Layer6
  6
Continuous
 62
     7
 48
25.4
100
AcDbSpline
210
0.0
220
0.0
230
1.0
 70
     8
 71
     3
 72
     8
 73
     4
 74
     0
 42
0.0000000001
 43
0.0000000001
 40
0.0
 40
0.0
 40
0.0
 40
0.0
 40
1.0
 40
1.0
 40
1.0
 40
1.0
 10
113.0976849951018
 20
187.2178463519093
 30
0.0
 10
112.9826945432738
 20
187.2181319620767
 30
0.0
 10
112.8809389297751
 20
187.218355843787
 30
0.0
 10
112.7794521200759
 20
187.2184066009766
 30
0.0
  0
LINE
  5
B3
330
1F
100
AcDbEntity
  8
Layer6
  6
Continuous
 62
     7
 48
25.4
100
AcDbLine
 10
110.1632916273
 20
183.2574480462
 30
0.0
 11
112.5008274813
 21
183.2574480462
 31
0.0
  0
SPLINE
  5
B4
330
1F
100
AcDbEntity
  8
Layer6
  6
Continuous
 62
     7
 48
25.4
100
AcDbSpline
210
0.0
220
0.0
230
1.0
 70
     8
 71
     3
 72
    10
 73
     6
 74
     0
 42
0.0000000001
 43
0.0000000001
 40
0.0
 40
0.0
 40
0.0
 40
0.0
 40
0.3885945632572801
 40
0.8233532412903362
 40
1.0
 40
1.0
 40
1.0
 40
1.0
 10
113.216893147529
 20
187.1239752608034
 30
0.0
 10
113.2121811307723
 20
187.1420729590656
 30
0.0
 10
113.1981492495124
 20
187.1738554013933
 30
0.0
 10
113.1574907646225
 20
187.2056163811195
 30
0.0
 10
113.1308078877779
 20
187.2140914199357
 30
0.0
 10
113.1226746402552
 20
187.2155898936941
 30
0.0
  0
SPLINE
  5
B5
330
1F
100
AcDbEntity
  8
Layer6
  6
Continuous
 62
     7
 48
25.4
100
AcDbSpline
210
0.0
220
0.0
230
1.0
 70
     8
 71
     3
 72
     8
 73
     4
 74
     0
 42
0.0000000001
 43
0.0000000001
 40
0.0
 40
0.0
 40
0.0
 40
0.0
 40
1.0
 40
1.0
 40
1.0
 40
1.0
 10
113.1167422574921
 20
187.216504033422
 30
0.0
 10
113.1102051750924
 20
187.2173182699559
 30
0.0
 10
113.1033683858852
 20
187.2175451238512
 30
0.0
 10
113.0961015886212
 20
187.2171670475495
 30
0.0
  0
SPLINE
  5
B6
330
1F
100
AcDbEntity
  8
Layer6
  6
Continuous
 62
     7
 48
25.4
100
AcDbSpline
210
0.0
220
0.0
230
1.0
 70
     8
 71
     3
 72
     8
 73
     4
 74
     0
 42
0.0000000001
 43
0.0000000001
 40
0.0
 40
0.0
 40
0.0
 40
0.0
 40
1.0
 40
1.0
 40
1.0
 40
1.0
 10
112.493930434021
 20
183.2594587983196
 30
0.0
 10
112.5364080625693
 20
183.258393929213
 30
0.0
 10
112.5866423517359
 20
183.2601237431613
 30
0.0
 10
112.6424548819865
 20
183.2671807414457
 30
0.0
  0
SPLINE
  5
B7
330
1F
100
AcDbEntity
  8
Layer6
  6
Continuous
 62
     7
 48
25.4
100
AcDbSpline
210
0.0
220
0.0
230
1.0
 70
     8
 71
     3
 72
     8
 73
     4
 74
     0
 42
0.0000000001
 43
0.0000000001
 40
0.0
 40
0.0
 40
0.0
 40
0.0
 40
1.0
 40
1.0
 40
1.0
 40
1.0
 10
112.6405015773979
 20
187.2479035047331
 30
0.0
 10
112.5853917881394
 20
187.2547749759876
 30
0.0
 10
112.5357198958919
 20
187.2564799544502
 30
0.0
 10
112.4937044175301
 20
187.2554732497211
 30
0.0
  0
SPLINE
  5
B8
330
1F
100
AcDbEntity
  8
Layer6
  6
Continuous
 62
     7
 48
25.4
100
AcDbSpline
210
0.0
220
0.0
230
1.0
 70
     8
 71
     3
 72
    12
 73
     8
 74
     0
 42
0.0000000001
 43
0.0000000001
 40
0.0
 40
0.0
 40
0.0
 40
0.0
 40
0.1879858179853891
 40
0.3920288775159141
 40
0.5962228239941552
 40
0.8003464587741906
 40
1.0
 40
1.0
 40
1.0
 40
1.0
 10
109.76521093585
 20
187.2154773488978
 30
0.0
 10
109.4036583466431
 20
187.1472753174284
 30
0.0
 10
108.7994949678571
 20
186.8161675215454
 30
0.0
 10
108.1747548771782
 20
185.8605980948068
 30
0.0
 10
108.1621386858255
 20
184.7005349024292
 30
0.0
 10
108.7772526097022
 20
183.7056116541428
 30
0.0
 10
109.4021887495341
 20
183.3734032075757
 30
0.0
 10
109.7845692070293
 20
183.2954549236513
 30
0.0
  0
ELLIPSE
  5
B9
330
1F
100
AcDbEntity
  8
Layer6
  6
Continuous
 62
     7
 48
25.4
100
AcDbEllipse
 10
110.1632916273
 20
185.2574480462
 30
0.0
 11
-1.653769713764556E-13
 21
-2.000000000000005
 31
0.0
210
0.0
220
0.0
230
1.0
 40
0.9809551553
 41
0.0
 42
0.1998138644539826
  0
ELLIPSE
  5
BA
330
1F
100
AcDbEntity
  8
Layer6
  6
Continuous
 62
     7
 48
25.4
100
AcDbEllipse
 10
110.1632916273
 20
185.2574480462
 30
0.0
 11
-1.653769713764556E-13
 21
-2.000000000000005
 31
0.0
210
0.0
220
0.0
230
1.0
 40
0.9809551553
 41
2.952456930644301
 42
3.345294563213318
  0
ELLIPSE
  5
BB
330
1F
100
AcDbEntity
  8
Layer6
  6
Continuous
 62
     7
 48
25.4
100
AcDbEllipse
 10
110.1632916273
 20
185.2574480462
 30
0.0
 11
-1.653769713764556E-13
 21
-2.000000000000005
 31
0.0
210
0.0
220
0.0
230
1.0
 40
0.9809551553
 41
6.089510691014738
 42
6.283185307179586
  0
SPLINE
  5
BC
330
1F
100
AcDbEntity
  8
Layer6
  6
Continuous
 62
     7
 48
25.4
100
AcDbSpline
210
0.0
220
0.0
230
1.0
 70
     8
 71
     3
 72
     8
 73
     4
 74
     0
 42
0.0000000001
 43
0.0000000001
 40
0.0
 40
0.0
 40
0.0
 40
0.0
 40
1.0
 40
1.0
 40
1.0
 40
1.0
 10
112.7778542129164
 20
183.2964341557811
 30
0.0
 10
112.8795009787108
 20
183.29654900503
 30
0.0
 10
112.9819837870695
 20
183.2968919087569
 30
0.0
 10
113.0976120151279
 20
183.297069420336
 30
0.0
  0
LINE
  5
BD
330
1F
100
AcDbEntity
  8
Layer9
  6
Continuous
 62
     7
 48
25.4
100
AcDbLine
 10
116.629249947
 20
264.7339824835
 30
0.0
 11
144.3024619723
 21
264.7339824835
 31
0.0
  0
SPLINE
  5
BE
330
1F
100
AcDbEntity
  8
Layer9
  6
Continuous
 62
     7
 48
25.4
100
AcDbSpline
210
0.0
220
0.0
230
1.0
 70
     8
 71
     3
 72
    18
 73
    14
 74
     0
 42
0.0000000001
 43
0.0000000001
 40
0.0
 40
0.0
 40
0.0
 40
0.0
 40
0.0793470487688382
 40
0.1727270737722295
 40
0.2682261520700779
 40
0.3620912240962733
 40
0.4550587812377028
 40
0.5477487446656127
 40
0.6406384563430666
 40
0.7343416399549293
 40
0.8297191100506384
 40
0.9247839099325715
 40
1.0
 40
1.0
 40
1.0
 40
1.0
 10
144.3026747123634
 20
264.7345579451826
 30
0.0
 10
144.54282467059
 20
264.7345227282222
 30
0.0
 10
144.9727734478739
 20
264.8984372806813
 30
0.0
 10
145.5425831256167
 20
265.5310189298716
 30
0.0
 10
145.986959498353
 20
266.542552423604
 30
0.0
 10
146.3092180773705
 20
267.8482294055376
 30
0.0
 10
146.4689257414769
 20
269.3241455350698
 30
0.0
 10
146.4663316745285
 20
270.8575704008735
 30
0.0
 10
146.3016803439866
 20
272.3293859998694
 30
0.0
 10
145.9759599447423
 20
273.6235527306966
 30
0.0
 10
145.5249998128835
 20
274.6356022425143
 30
0.0
 10
144.9571240919928
 20
275.2403701737916
 30
0.0
 10
144.5285205447613
 20
275.4088601081896
 30
0.0
 10
144.3015981298448
 20
275.4003579404737
 30
0.0
  0
LINE
  5
BF
330
1F
100
AcDbEntity
  8
Layer9
  6
Continuous
 62
     7
 48
25.4
100
AcDbLine
 10
144.3024345967
 20
275.4006491502
 30
0.0
 11
116.6294357884
 21
275.4006491502
 31
0.0
  0
ARC
  5
C0
330
1F
100
AcDbEntity
  8
Layer5
  6
Continuous
 62
     7
 48
25.4
100
AcDbCircle
 10
83.8607718874
 20
284.7525678459
 30
0.0
 40
0.3333333333332874
100
AcDbArc
 50
270.0
 51
360.0
  0
SPLINE
  5
C1
330
1F
100
AcDbEntity
  8
Layer5
  6
Continuous
 62
     7
 48
25.4
100
AcDbSpline
210
0.0
220
0.0
230
1.0
 70
    12
 71
     3
 72
     8
 73
     4
 74
     0
 42
0.0000000001
 43
0.0000000001
 40
0.0
 40
0.0
 40
0.0
 40
0.0
 40
1.0
 40
1.0
 40
1.0
 40
1.0
 10
84.19410522068371
 20
284.7525678458771
 30
0.0
 41
1.0
 10
84.19410522068371
 20
284.5573057000015
 30
0.0
 41
0.8047378541243653
 10
84.05603403322608
 20
284.4192345125438
 30
0.0
 41
0.8047378541243653
 10
83.86077188735047
 20
284.4192345125438
 30
0.0
 41
1.0
  0
LINE
  5
C2
330
1F
100
AcDbEntity
  8
Layer5
  6
Continuous
 62
     7
 48
25.4
100
AcDbLine
 10
74.8607718874
 20
284.5859011792
 30
0.0
 11
74.8607718874
 21
294.5703012558
 31
0.0
  0
LINE
  5
C3
330
1F
100
AcDbEntity
  8
Layer5
  6
Continuous
 62
     7
 48
25.4
100
AcDbLine
 10
74.8607718874
 20
307.5859011792
 30
0.0
 11
74.8607718874
 21
285.8173494661
 31
0.0
  0
ARC
  5
C4
330
1F
100
AcDbEntity
  8
Layer5
  6
Continuous
 62
     7
 48
25.4
100
AcDbCircle
 10
83.8607718874
 20
284.7525678459
 30
0.0
 40
0.3333333333332966
100
AcDbArc
 50
270.0
 51
360.0
  0
LINE
  5
C5
330
1F
100
AcDbEntity
  8
Layer5
  6
Continuous
 62
     7
 48
25.4
100
AcDbLine
 10
84.1941052207
 20
284.7525678459
 30
0.0
 11
84.1941052207
 21
307.4192345125
 31
0.0
  0
ARC
  5
C6
330
1F
100
AcDbEntity
  8
Layer5
  6
Continuous
 62
     7
 48
25.4
100
AcDbCircle
 10
75.027438554
 20
284.5859011792
 30
0.0
 40
0.1666666666666807
100
AcDbArc
 50
180.0
 51
270.0
  0
LINE
  5
C7
330
1F
100
AcDbEntity
  8
Layer5
  6
Continuous
 62
     7
 48
25.4
100
AcDbLine
 10
75.027438554
 20
284.4192345125
 30
0.0
 11
83.8607718874
 21
284.4192345125
 31
0.0
  0
ARC
  5
C8
330
1F
100
AcDbEntity
  8
Layer5
  6
Continuous
 62
     7
 48
25.4
100
AcDbCircle
 10
75.027438554
 20
307.5859011792
 30
0.0
 40
0.1666666666666807
100
AcDbArc
 50
90.0
 51
180.0
  0
LINE
  5
C9
330
1F
100
AcDbEntity
  8
Layer5
  6
Continuous
 62
     7
 48
25.4
100
AcDbLine
 10
75.027438554
 20
307.7525678459
 30
0.0
 11
83.8607718874
 21
307.7525678459
 31
0.0
  0
ARC
  5
CA
330
1F
100
AcDbEntity
  8
Layer5
  6
Continuous
 62
     7
 48
25.4
100
AcDbCircle
 10
83.8607718874
 20
307.4192345125
 30
0.0
 40
0.3333333333333521
100
AcDbArc
 50
0.0
 51
90.0
  0
ARC
  5
CB
330
1F
100
AcDbEntity
  8
Layer5
  6
Continuous
 62
     7
 48
25.4
100
AcDbCircle
 10
83.8607718874
 20
173.924114712
 30
0.0
 40
0.3333333333332874
100
AcDbArc
 50
270.0
 51
360.0
  0
SPLINE
  5
CC
330
1F
100
AcDbEntity
  8
Layer5
  6
Continuous
 62
     7
 48
25.4
100
AcDbSpline
210
0.0
220
0.0
230
1.0
 70
    12
 71
     3
 72
     8
 73
     4
 74
     0
 42
0.0000000001
 43
0.0000000001
 40
0.0
 40
0.0
 40
0.0
 40
0.0
 40
1.0
 40
1.0
 40
1.0
 40
1.0
 10
84.19410522068371
 20
173.9241147119909
 30
0.0
 41
1.0
 10
84.19410522068371
 20
173.7288525661153
 30
0.0
 41
0.8047378541243653
 10
84.05603403322608
 20
173.5907813786576
 30
0.0
 41
0.8047378541243653
 10
83.86077188735047
 20
173.5907813786576
 30
0.0
 41
1.0
  0
LINE
  5
CD
330
1F
100
AcDbEntity
  8
Layer5
  6
Continuous
 62
     7
 48
25.4
100
AcDbLine
 10
74.8607718874
 20
173.7574480453
 30
0.0
 11
74.8607718874
 21
185.2574480453
 31
0.0
  0
LINE
  5
CE
330
1F
100
AcDbEntity
  8
Layer5
  6
Continuous
 62
     7
 48
25.4
100
AcDbLine
 10
74.8607718874
 20
194.2742847903
 30
0.0
 11
74.8607718874
 21
192.9035813787
 31
0.0
  0
LINE
  5
CF
330
1F
100
AcDbEntity
  8
Layer5
  6
Continuous
 62
     7
 48
25.4
100
AcDbLine
 10
74.8607718874
 20
196.7574480453
 30
0.0
 11
74.8607718874
 21
174.9888963322
 31
0.0
  0
ARC
  5
D0
330
1F
100
AcDbEntity
  8
Layer5
  6
Continuous
 62
     7
 48
25.4
100
AcDbCircle
 10
83.8607718874
 20
173.924114712
 30
0.0
 40
0.3333333333332966
100
AcDbArc
 50
270.0
 51
360.0
  0
LINE
  5
D1
330
1F
100
AcDbEntity
  8
Layer5
  6
Continuous
 62
     7
 48
25.4
100
AcDbLine
 10
84.1941052207
 20
173.924114712
 30
0.0
 11
84.1941052207
 21
196.5907813787
 31
0.0
  0
ARC
  5
D2
330
1F
100
AcDbEntity
  8
Layer5
  6
Continuous
 62
     7
 48
25.4
100
AcDbCircle
 10
75.027438554
 20
173.7574480453
 30
0.0
 40
0.1666666666666807
100
AcDbArc
 50
180.0
 51
270.0
  0
LINE
  5
D3
330
1F
100
AcDbEntity
  8
Layer5
  6
Continuous
 62
     7
 48
25.4
100
AcDbLine
 10
75.027438554
 20
173.5907813787
 30
0.0
 11
83.8607718874
 21
173.5907813787
 31
0.0
  0
ARC
  5
D4
330
1F
100
AcDbEntity
  8
Layer5
  6
Continuous
 62
     7
 48
25.4
100
AcDbCircle
 10
75.027438554
 20
196.7574480453
 30
0.0
 40
0.1666666666666807
100
AcDbArc
 50
90.0
 51
180.0
  0
LINE
  5
D5
330
1F
100
AcDbEntity
  8
Layer5
  6
Continuous
 62
     7
 48
25.4
100
AcDbLine
 10
75.027438554
 20
196.924114712
 30
0.0
 11
83.8607718874
 21
196.924114712
 31
0.0
  0
ARC
  5
D6
330
1F
100
AcDbEntity
  8
Layer5
  6
Continuous
 62
     7
 48
25.4
100
AcDbCircle
 10
83.8607718874
 20
196.5907813787
 30
0.0
 40
0.3333333333333521
100
AcDbArc
 50
0.0
 51
90.0
  0
LINE
  5
D7
330
1F
100
AcDbEntity
  8
Layer2
  6
Continuous
 62
     7
 48
25.4
100
AcDbLine
 10
70.1068052207
 20
295.0703012558
 30
0.0
 11
70.1068052207
 21
302.0693678459
 31
0.0
  0
LINE
  5
D8
330
1F
100
AcDbEntity
  8
Layer8
  6
Continuous
 62
     7
 48
25.4
100
AcDbLine
 10
95.828920139
 20
251.2525678459
 30
0.0
 11
84.1941052207
 21
251.2525678459
 31
0.0
  0
LINE
  5
D9
330
1F
100
AcDbEntity
  8
Layer8
  6
Continuous
 62
     7
 48
25.4
100
AcDbLine
 10
95.8226205953
 20
240.9192345125
 30
0.0
 11
84.1941052207
 21
240.9192345125
 31
0.0
  0
LINE
  5
DA
330
1F
100
AcDbEntity
  8
Layer8
  6
Continuous
 62
     7
 48
25.4
100
AcDbLine
 10
95.828920139
 20
190.4328198226
 30
0.0
 11
84.1941052207
 21
190.4328198226
 31
0.0
  0
LINE
  5
DB
330
1F
100
AcDbEntity
  8
Layer8
  6
Continuous
 62
     7
 48
25.4
100
AcDbLine
 10
95.8226205953
 20
180.0994864892
 30
0.0
 11
84.1941052207
 21
180.0994864892
 31
0.0
  0
LINE
  5
DC
330
1F
100
AcDbEntity
  8
Layer2
  6
Continuous
 62
     7
 48
25.4
100
AcDbLine
 10
70.1068052207
 20
240.1003960686
 30
0.0
 11
74.8607718874
 21
240.1003960686
 31
0.0
  0
LINE
  5
DD
330
1F
100
AcDbEntity
  8
Layer2
  6
Continuous
 62
     7
 48
25.4
100
AcDbLine
 10
69.704138554
 20
240.5030627353
 30
0.0
 11
74.8607718874
 21
240.5030627353
 31
0.0
  0
LINE
  5
DE
330
1F
100
AcDbEntity
  8
Layer2
  6
Continuous
 62
     7
 48
25.4
100
AcDbLine
 10
69.6940718874
 20
240.513129402
 30
0.0
 11
70.1068052207
 21
240.1003960686
 31
0.0
  0
LINE
  5
DF
330
1F
100
AcDbEntity
  8
Layer2
  6
Continuous
 62
     7
 48
25.4
100
AcDbLine
 10
69.6940718874
 20
246.6867293254
 30
0.0
 11
69.6940718874
 21
240.513129402
 31
0.0
  0
LINE
  5
E0
330
1F
100
AcDbEntity
  8
Layer2
  6
CENTER2
 62
     7
 48
25.4
100
AcDbLine
 10
74.8607718874
 20
243.5999293637
 30
0.0
 11
67.4613860736
 21
243.5999293637
 31
0.0
  0
LINE
  5
E1
330
1F
100
AcDbEntity
  8
Layer2
  6
Continuous
 62
     7
 48
25.4
100
AcDbLine
 10
70.1068052207
 20
247.0994626587
 30
0.0
 11
74.8607718874
 21
247.0994626587
 31
0.0
  0
LINE
  5
E2
330
1F
100
AcDbEntity
  8
Layer2
  6
Continuous
 62
     7
 48
25.4
100
AcDbLine
 10
69.704138554
 20
246.696795992
 30
0.0
 11
74.8607718874
 21
246.696795992
 31
0.0
  0
LINE
  5
E3
330
1F
100
AcDbEntity
  8
Layer2
  6
Continuous
 62
     7
 48
25.4
100
AcDbLine
 10
69.6940718874
 20
246.6867293254
 30
0.0
 11
70.1068052207
 21
247.0994626587
 31
0.0
  0
LINE
  5
E4
330
1F
100
AcDbEntity
  8
Layer2
  6
Continuous
 62
     7
 48
25.4
100
AcDbLine
 10
70.1068052207
 20
247.0994626587
 30
0.0
 11
70.1068052207
 21
240.1003960686
 31
0.0
  0
LINE
  5
E6
330
1F
100
AcDbEntity
  8
Layer7
  6
Continuous
 62
     7
 48
25.4
100
AcDbLine
 10
140.343263327
 20
160.0838868236
 30
0.0
 11
140.9354357181
 21
162.293904274
 31
0.0
  0
LINE
  5
E7
330
1F
100
AcDbEntity
  8
Layer7
  6
Continuous
 62
     7
 48
25.4
100
AcDbLine
 10
131.3279556149
 20
162.4995312445
 30
0.0
 11
131.6681625236
 21
162.1593243358
 31
0.0
  0
LINE
  5
E8
330
1F
100
AcDbEntity
  8
Layer7
  6
Continuous
 62
     7
 48
25.4
100
AcDbLine
 10
131.9747117263
 20
164.9132579121
 30
0.0
 11
131.3279556149
 21
162.4995312445
 31
0.0
  0
LINE
  5
E9
330
1F
100
AcDbEntity
  8
Layer7
  6
Continuous
 62
     7
 48
25.4
100
AcDbLine
 10
131.6681625236
 20
162.1593243358
 30
0.0
 11
139.8785320471
 21
159.9593624524
 31
0.0
  0
ARC
  5
EA
330
1F
100
AcDbEntity
  8
Layer7
  6
Continuous
 62
     7
 48
25.4
100
AcDbCircle
 10
137.8735821854
 20
168.8975267488
 30
0.0
 40
8.062369124245652
100
AcDbArc
 50
242.5943583556
 51
267.4056416444
  0
LINE
  5
EB
330
1F
100
AcDbEntity
  8
Layer7
  6
Continuous
 62
     7
 48
25.4
100
AcDbLine
 10
134.1625768635
 20
161.7399967701
 30
0.0
 11
131.3279556149
 21
162.4995312445
 31
0.0
  0
LINE
  5
EC
330
1F
100
AcDbEntity
  8
Layer7
  6
Continuous
 62
     7
 48
25.4
100
AcDbLine
 10
137.5086420784
 20
160.8434212979
 30
0.0
 11
140.343263327
 21
160.0838868236
 31
0.0
  0
ELLIPSE
  5
ED
330
1F
100
AcDbEntity
  8
Layer7
  6
Continuous
 62
     7
 48
25.4
100
AcDbEllipse
 10
135.5571852951
 20
160.2526158636
 30
0.0
 11
4.507653856015646
 21
-1.207822210478433
 31
0.0
210
0.0
220
0.0
230
1.0
 40
0.5773505684
 41
1.190545120101975
 42
1.951047533487826
  0
LINE
  5
EE
330
1F
100
AcDbEntity
  8
Layer7
  6
Continuous
 62
     7
 48
25.4
100
AcDbLine
 10
134.5316797531
 20
163.1175075073
 30
0.0
 11
137.877744968
 21
162.2209320352
 31
0.0
  0
LINE
  5
EF
330
1F
100
AcDbEntity
  8
Layer7
  6
Continuous
 62
     7
 48
25.4
100
AcDbLine
 10
134.5316797531
 20
163.1175075073
 30
0.0
 11
134.1625768635
 21
161.7399967701
 31
0.0
  0
LINE
  5
F0
330
1F
100
AcDbEntity
  8
Layer7
  6
Continuous
 62
     7
 48
25.4
100
AcDbLine
 10
137.877744968
 20
162.2209320352
 30
0.0
 11
137.5086420784
 21
160.8434212979
 31
0.0
  0
LINE
  5
F1
330
1F
100
AcDbEntity
  8
Layer7
  6
Continuous
 62
     7
 48
25.4
100
AcDbLine
 10
139.8785320471
 20
159.9593624524
 30
0.0
 11
140.343263327
 21
160.0838868236
 31
0.0
  0
LINE
  5
F2
330
1F
100
AcDbEntity
  8
Layer7
  6
CENTER2
 62
     7
 48
25.4
100
AcDbLine
 10
135.7733472854
 20
161.0593433941
 30
0.0
 11
137.3260016411
 21
166.8539283363
 31
0.0
  0
ARC
  5
F3
330
1F
100
AcDbEntity
  8
Layer9
  6
Continuous
 62
     7
 48
25.4
100
AcDbCircle
 10
135.7924721357
 20
161.3368425183
 30
0.0
 40
5.231256217534279
100
AcDbArc
 50
8.3354029434
 51
138.8711057406
  0
LINE
  5
F4
330
1F
100
AcDbEntity
  8
Layer4
  6
Continuous
 62
     7
 48
25.4
100
AcDbLine
 10
113.2884733576
 20
233.9368983805
 30
0.0
 11
112.8367034966
 21
234.0247135457
 31
0.0
  0
LINE
  5
F5
330
1F
100
AcDbEntity
  8
Layer4
  6
Continuous
 62
     7
 48
25.4
100
AcDbLine
 10
113.2884733576
 20
233.9368983805
 30
0.0
 11
113.4520404488
 21
233.9051041587
 31
0.0
  0
ARC
  5
F6
330
1F
100
AcDbEntity
  8
Layer4
  6
Continuous
 62
     7
 48
25.4
100
AcDbCircle
 10
114.155952706
 20
226.8727499605
 30
0.0
 40
0.1666665751506897
100
AcDbArc
 50
349.0000212927
 51
51.1722948813
  0
ARC
  5
F7
330
1F
100
AcDbEntity
  8
Layer4
  6
Continuous
 62
     7
 48
25.4
100
AcDbCircle
 10
116.3503853518
 20
229.5993715008
 30
0.0
 40
3.333333376456577
100
AcDbArc
 50
169.0
 51
231.172280893
  0
LINE
  5
F8
330
1F
100
AcDbEntity
  8
Layer4
  6
Continuous
 62
     7
 48
25.4
100
AcDbLine
 10
113.7156465115
 20
233.5142920991
 30
0.0
 11
113.0782947404
 21
230.2354014854
 31
0.0
  0
ARC
  5
F9
330
1F
100
AcDbEntity
  8
Layer4
  6
Continuous
 62
     7
 48
25.4
100
AcDbCircle
 10
113.3884374503
 20
233.5778950976
 30
0.0
 40
0.3333333333333244
100
AcDbArc
 50
349.0
 51
79.0
  0
ARC
  5
FA
330
1F
100
AcDbEntity
  8
Layer4
  6
Continuous
 62
     7
 48
25.4
100
AcDbCircle
 10
118.8178289592
 20
299.4182579332
 30
0.0
 40
83.33333333345578
100
AcDbArc
 50
262.692403494
 51
263.3663876973
  0
ARC
  5
FB
330
1F
100
AcDbEntity
  8
Layer4
  6
Continuous
 62
     7
 48
25.4
100
AcDbCircle
 10
99.6120540084
 20
236.4255388856
 30
0.0
 40
0.1666666666666761
100
AcDbArc
 50
79.0
 51
169.0
  0
LINE
  5
FC
330
1F
100
AcDbEntity
  8
Layer4
  6
Continuous
 62
     7
 48
25.4
100
AcDbLine
 10
99.6438555077
 20
236.5891434162
 30
0.0
 11
112.8367034966
 21
234.0247135457
 31
0.0
  0
ARC
  5
FD
330
1F
100
AcDbEntity
  8
Layer4
  6
Continuous
 62
     7
 48
25.4
100
AcDbCircle
 10
96.487670605
 20
219.4785053727
 30
0.0
 40
0.3333332638845907
100
AcDbArc
 50
169.0000106636
 51
254.3929816218
  0
LINE
  5
FE
330
1F
100
AcDbEntity
  8
Layer4
  6
Continuous
 62
     7
 48
25.4
100
AcDbLine
 10
96.1604614533
 20
219.5421083888
 30
0.0
 11
99.4484494779
 21
236.4573403848
 31
0.0
  0
ARC
  5
FF
330
1F
100
AcDbEntity
  8
Layer4
  6
Continuous
 62
     7
 48
25.4
100
AcDbCircle
 10
118.8178289592
 20
299.418257933
 30
0.0
 40
83.33333333333168
100
AcDbArc
 50
254.3929666794
 51
262.692403494
  0
LINE
  5
100
330
1F
100
AcDbEntity
  8
Layer4
  6
Continuous
 62
     7
 48
25.4
100
AcDbLine
 10
109.7397451452
 20
217.0440754087
 30
0.0
 11
112.9948671342
 21
233.7902263099
 31
0.0
  0
LINE
  5
101
330
1F
100
AcDbEntity
  8
Layer4
  6
Continuous
 62
     7
 48
25.4
100
AcDbLine
 10
114.3195573138
 20
226.8409484463
 30
0.0
 11
112.2586991451
 21
216.238752278
 31
0.0
  0
ARC
  5
102
330
1F
100
AcDbEntity
  8
Layer4
  6
Continuous
 62
     7
 48
25.4
100
AcDbCircle
 10
112.0950945416
 20
216.2705537914
 30
0.0
 40
0.1666667793628784
100
AcDbArc
 50
275.3826304775
 51
349.0000478903
  0
ARC
  5
103
330
1F
100
AcDbEntity
  8
Layer4
  6
Continuous
 62
     7
 48
25.4
100
AcDbCircle
 10
111.485347905
 20
222.7418911782
 30
0.0
 40
6.666666666666699
100
AcDbArc
 50
244.8481686684
 51
275.3826684889
  0
LINE
  5
104
330
1F
100
AcDbEntity
  8
Layer4
  6
Continuous
 62
     7
 48
25.4
100
AcDbLine
 10
100.3800758952
 20
236.4460366697
 30
0.0
 11
100.5600408789
 21
236.4110550205
 31
0.0
  0
LINE
  5
106
330
1F
100
AcDbEntity
  8
Layer10
  6
Continuous
 62
     7
 48
25.4
100
AcDbLine
 10
112.1909245629
 20
234.4049194282
 30
0.0
 11
112.1432223141
 21
234.1595126323
 31
0.0
  0
LINE
  5
107
330
1F
100
AcDbEntity
  8
Layer10
  6
Continuous
 62
     7
 48
25.4
100
AcDbLine
 10
100.6077237983
 20
236.6564655736
 30
0.0
 11
100.5600215494
 21
236.4110587778
 31
0.0
  0
LINE
  5
108
330
1F
100
AcDbEntity
  8
Layer10
  6
Continuous
 62
     7
 48
25.4
100
AcDbLine
 10
100.5759416285
 20
305.6789450726
 30
0.0
 11
100.6077431277
 21
305.5153405421
 31
0.0
  0
LINE
  5
109
330
1F
100
AcDbEntity
  8
Layer10
  6
Continuous
 62
     7
 48
25.4
100
AcDbLine
 10
112.1909438924
 20
307.7668866875
 30
0.0
 11
112.1591423932
 21
307.9304912181
 31
0.0
  0
LINE
  5
10B
330
1F
100
AcDbEntity
  8
Layer3
  6
Continuous
 62
     7
 48
25.4
100
AcDbLine
 10
111.485347905
 20
216.0752245116
 30
0.0
 11
121.485347905
 21
216.0752245116
 31
0.0
  0
LINE
  5
10C
330
1F
100
AcDbEntity
  8
Layer3
  6
Continuous
 62
     7
 48
25.4
100
AcDbLine
 10
111.5012486546
 20
326.0147755816
 30
0.0
 11
121.5012486546
 21
326.0147755816
 31
0.0
  0
LINE
  5
10D
330
1F
100
AcDbEntity
  8
Layer1
  6
CENTER2
 62
     7
 48
25.4
100
AcDbLine
 10
109.2910587739
 20
174.2574480453
 30
0.0
 11
109.2910587739
 21
171.2574480453
 31
0.0
  0
LINE
  5
10F
330
1F
100
AcDbEntity
  8
Layer11
  6
Continuous
 62
     7
 48
25.4
100
AcDbLine
 10
68.606671895
 20
302.5693678459
 30
0.0
 11
74.8607718874
 21
302.5693678459
 31
0.0
  0
LINE
  5
110
330
1F
100
AcDbEntity
  8
Layer11
  6
Continuous
 62
     7
 48
25.4
100
AcDbLine
 10
68.606671895
 20
294.5703012558
 30
0.0
 11
74.8607718874
 21
294.5703012558
 31
0.0
  0
LINE
  5
111
330
1F
100
AcDbEntity
  8
Layer11
  6
Continuous
 62
     7
 48
25.4
100
AcDbLine
 10
68.606671895
 20
247.5994626587
 30
0.0
 11
74.8607718874
 21
247.5994626587
 31
0.0
  0
LINE
  5
112
330
1F
100
AcDbEntity
  8
Layer11
  6
Continuous
 62
     7
 48
25.4
100
AcDbLine
 10
68.606671895
 20
239.6003960686
 30
0.0
 11
74.8607718874
 21
239.6003960686
 31
0.0
  0
HATCH
  5
113
330
1F
100
AcDbEntity
  8
0
  6
Continuous
 62
     7
 48
25.4
100
AcDbHatch
 10
0.0
 20
0.0
 30
0.0
210
0.0
220
0.0
230
1.0
  2
LINE
 70
     0
 71
     0
 91
        1
 92
        1
 93
        4
 72
     1
 10
74.86077188735035
 20
294.5703012558199
 11
68.63345214014035
 21
294.5703012558199
 72
     1
 10
68.63345214014035
 20
294.5703012558199
 11
68.63345214014035
 21
247.5994626586857
 72
     1
 10
68.63345214014035
 20
247.5994626586857
 11
74.86077188735035
 21
247.5994626586857
 72
     1
 10
74.86077188735035
 20
247.5994626586857
 11
74.86077188735035
 21
294.5703012558199
 97
        0
 75
     0
 76
     2
 52
45.0
 41
1.25
 77
     0
 78
     1
 53
45.0
 43
0.0
 44
0.0
 45
-2.80633003783411
 46
2.80633003783411
 79
     0
 98
        0
  0
LWPOLYLINE
  5
114
330
1F
100
AcDbEntity
  8
0
  6
Continuous
 62
     7
 48
25.4
100
AcDbPolyline
 90
        5
 70
     1
 43
0.0
 10
74.8607718874
 20
294.5703012558
 10
74.8607718874
 20
247.5994626587
 10
68.6334521401
 20
247.5994626587
 10
68.6334521401
 20
294.5703012558
 10
74.8607718874
 20
294.5703012558
  0
HATCH
  5
115
330
1F
100
AcDbEntity
  8
0
  6
Continuous
 62
     7
 48
25.4
100
AcDbHatch
 10
0.0
 20
0.0
 30
0.0
210
0.0
220
0.0
230
1.0
  2
LINE
 70
     0
 71
     0
 91
        1
 92
        1
 93
        4
 72
     1
 10
68.60667189504771
 20
302.5693678458769
 11
74.86077188735035
 21
302.569367845877
 72
     1
 10
74.86077188735035
 20
302.569367845877
 11
74.86077188735025
 21
310.1593100749409
 72
     1
 10
74.86077188735025
 20
310.1593100749408
 11
68.60667189504761
 21
310.1593100749408
 72
     1
 10
68.60667189504761
 20
310.1593100749408
 11
68.60667189504771
 21
302.5693678458769
 97
        0
 75
     0
 76
     2
 52
45.0
 41
1.25
 77
     0
 78
     1
 53
45.0
 43
0.0
 44
0.0
 45
-2.80633003783411
 46
2.80633003783411
 79
     0
 98
        0
  0
LWPOLYLINE
  5
116
330
1F
100
AcDbEntity
  8
0
  6
Continuous
 62
     7
 48
25.4
100
AcDbPolyline
 90
        5
 70
     1
 43
0.0
 10
68.606671895
 20
302.5693678459
 10
74.8607718874
 20
302.5693678459
 10
74.8607718874
 20
310.1593100749
 10
68.606671895
 20
310.1593100749
 10
68.606671895
 20
302.5693678459
  0
LINE
  5
117
330
1F
100
AcDbEntity
  8
Layer11
  6
Continuous
 62
     7
 48
25.4
100
AcDbLine
 10
68.606671895
 20
302.5693678459
 30
0.0
 11
74.8607718874
 21
302.5693678459
 31
0.0
  0
LINE
  5
118
330
1F
100
AcDbEntity
  8
Layer11
  6
Continuous
 62
     7
 48
25.4
100
AcDbLine
 10
74.8607718874
 20
302.5693678459
 30
0.0
 11
74.8607718874
 21
310.1593100749
 31
0.0
  0
HATCH
  5
119
330
1F
100
AcDbEntity
  8
0
  6
Continuous
 62
     7
 48
25.4
100
AcDbHatch
 10
0.0
 20
0.0
 30
0.0
210
0.0
220
0.0
230
1.0
  2
LINE
 70
     0
 71
     0
 91
        1
 92
        1
 93
        4
 72
     1
 10
68.60667189504781
 20
232.0104538395646
 11
74.86077188735045
 21
232.0104538395647
 72
     1
 10
74.86077188735045
 20
232.0104538395647
 11
74.86077188735035
 21
239.6003960686286
 72
     1
 10
74.86077188735035
 20
239.6003960686286
 11
68.60667189504771
 21
239.6003960686285
 72
     1
 10
68.60667189504771
 20
239.6003960686285
 11
68.60667189504781
 21
232.0104538395646
 97
        0
 75
     0
 76
     2
 52
45.0
 41
1.25
 77
     0
 78
     1
 53
45.0
 43
0.0
 44
0.0
 45
-2.80633003783411
 46
2.80633003783411
 79
     0
 98
        0
  0
LWPOLYLINE
  5
11A
330
1F
100
AcDbEntity
  8
0
  6
Continuous
 62
     7
 48
25.4
100
AcDbPolyline
 90
        5
 70
     1
 43
0.0
 10
68.606671895
 20
232.0104538396
 10
74.8607718874
 20
232.0104538396
 10
74.8607718874
 20
239.6003960686
 10
68.606671895
 20
239.6003960686
 10
68.606671895
 20
232.0104538396
  0
LINE
  5
11B
330
1F
100
AcDbEntity
  8
Layer11
  6
Continuous
 62
     7
 48
25.4
100
AcDbLine
 10
74.8607718874
 20
232.0104538396
 30
0.0
 11
74.8607718874
 21
239.6003960686
 31
0.0
  0
LINE
  5
11C
330
1F
100
AcDbEntity
  8
Layer11
  6
Continuous
 62
     7
 48
25.4
100
AcDbLine
 10
74.8607718874
 20
239.6003960686
 30
0.0
 11
68.606671895
 21
239.6003960686
 31
0.0
  0
LINE
  5
11D
330
1F
100
AcDbEntity
  8
Layer11
  6
Continuous
 62
     7
 48
25.4
100
AcDbLine
 10
69.3536431912
 20
189.2569813404
 30
0.0
 11
74.8607718874
 21
189.2569813404
 31
0.0
  0
LINE
  5
11E
330
1F
100
AcDbEntity
  8
Layer11
  6
Continuous
 62
     7
 48
25.4
100
AcDbLine
 10
74.8607718874
 20
181.2903146737
 30
0.0
 11
69.3536431912
 21
181.2903146737
 31
0.0
  0
HATCH
  5
11F
330
1F
100
AcDbEntity
  8
0
  6
Continuous
 62
     7
 48
25.4
100
AcDbHatch
 10
0.0
 20
0.0
 30
0.0
210
0.0
220
0.0
230
1.0
  2
LINE
 70
     0
 71
     0
 91
        1
 92
        1
 93
        4
 72
     1
 10
68.60667189504699
 20
189.2569813403527
 11
74.86077188735035
 21
189.2569813403528
 72
     1
 10
74.86077188735035
 20
189.2569813403527
 11
74.86077188735023
 21
201.8913834860612
 72
     1
 10
74.86077188735023
 20
201.8913834860612
 11
68.60667189504684
 21
201.8913834860612
 72
     1
 10
68.60667189504684
 20
201.8913834860612
 11
68.60667189504697
 21
189.2569813403527
 97
        0
 75
     0
 76
     2
 52
45.0
 41
1.25
 77
     0
 78
     1
 53
45.0
 43
0.0
 44
0.0
 45
-2.80633003783411
 46
2.80633003783411
 79
     0
 98
        0
  0
LWPOLYLINE
  5
120
330
1F
100
AcDbEntity
  8
0
  6
Continuous
 62
     7
 48
25.4
100
AcDbPolyline
 90
        5
 70
     1
 43
0.0
 10
68.606671895
 20
189.2569813404
 10
74.8607718874
 20
189.2569813404
 10
74.8607718874
 20
201.8913834861
 10
68.606671895
 20
201.8913834861
 10
68.606671895
 20
189.2569813404
  0
LINE
  5
121
330
1F
100
AcDbEntity
  8
Layer11
  6
Continuous
 62
     7
 48
25.4
100
AcDbLine
 10
68.606671895
 20
189.2569813404
 30
0.0
 11
74.8607718874
 21
189.2569813404
 31
0.0
  0
LINE
  5
122
330
1F
100
AcDbEntity
  8
Layer11
  6
Continuous
 62
     7
 48
25.4
100
AcDbLine
 10
74.8607718874
 20
189.2569813404
 30
0.0
 11
74.8607718874
 21
201.8913834861
 31
0.0
  0
HATCH
  5
123
330
1F
100
AcDbEntity
  8
0
  6
Continuous
 62
     7
 48
25.4
100
AcDbHatch
 10
0.0
 20
0.0
 30
0.0
210
0.0
220
0.0
230
1.0
  2
LINE
 70
     0
 71
     0
 91
        1
 92
        1
 93
        5
 72
     1
 10
74.86077188735034
 20
181.290314673686
 11
68.60667189504696
 21
181.2903146736861
 72
     1
 10
68.60667189504696
 20
181.2903146736861
 11
68.60667189504709
 21
168.7068477359135
 72
     1
 10
68.60667189504709
 20
168.7068477359135
 11
68.60667189504709
 21
168.6559125279775
 72
     1
 10
68.60667189504709
 20
168.6559125279775
 11
74.86077188735047
 21
168.6559125279775
 72
     1
 10
74.86077188735047
 20
168.6559125279775
 11
74.86077188735034
 21
181.290314673686
 97
        0
 75
     0
 76
     2
 52
45.0
 41
1.25
 77
     0
 78
     1
 53
45.0
 43
0.0
 44
0.0
 45
-2.80633003783411
 46
2.80633003783411
 79
     0
 98
        0
  0
LWPOLYLINE
  5
124
330
1F
100
AcDbEntity
  8
0
  6
Continuous
 62
     7
 48
25.4
100
AcDbPolyline
 90
        6
 70
     1
 43
0.0
 10
74.8607718874
 20
181.2903146737
 10
74.8607718874
 20
168.655912528
 10
68.606671895
 20
168.655912528
 10
68.606671895
 20
168.7068477359
 10
68.606671895
 20
181.2903146737
 10
74.8607718874
 20
181.2903146737
  0
LINE
  5
125
330
1F
100
AcDbEntity
  8
Layer11
  6
Continuous
 62
     7
 48
25.4
100
AcDbLine
 10
74.8607718874
 20
168.655912528
 30
0.0
 11
74.8607718874
 21
181.2903146737
 31
0.0
  0
LINE
  5
126
330
1F
100
AcDbEntity
  8
Layer11
  6
Continuous
 62
     7
 48
25.4
100
AcDbLine
 10
68.606671895
 20
181.2903146737
 30
0.0
 11
74.8607718874
 21
181.2903146737
 31
0.0
  0
LINE
  5
128
330
1F
100
AcDbEntity
  8
Layer12
  6
Continuous
 62
     7
 48
25.4
100
AcDbLine
 10
106.1858921073
 20
174.2574480453
 30
0.0
 11
106.1858921073
 21
172.1907813787
 31
0.0
  0
LINE
  5
129
330
1F
100
AcDbEntity
  8
Layer12
  6
CENTER2
 62
     7
 48
25.4
100
AcDbLine
 10
109.2910587739
 20
171.8491239856
 30
0.0
 11
109.2910587739
 21
179.3495843456
 31
0.0
  0
LINE
  5
12A
330
1F
100
AcDbEntity
  8
Layer12
  6
Continuous
 62
     7
 48
25.4
100
AcDbLine
 10
112.3962254406
 20
174.2574480453
 30
0.0
 11
112.3962254406
 21
172.1907813787
 31
0.0
  0
LINE
  5
12B
330
1F
100
AcDbEntity
  8
Layer12
  6
Continuous
 62
     7
 48
25.4
100
AcDbLine
 10
112.7835587739
 20
174.2574480453
 30
0.0
 11
112.7835587739
 21
172.578114712
 31
0.0
  0
LINE
  5
12C
330
1F
100
AcDbEntity
  8
Layer12
  6
Continuous
 62
     7
 48
25.4
100
AcDbLine
 10
112.7835587739
 20
172.578114712
 30
0.0
 11
112.3962254406
 21
172.1907813787
 31
0.0
  0
LINE
  5
12D
330
1F
100
AcDbEntity
  8
Layer12
  6
Continuous
 62
     7
 48
25.4
100
AcDbLine
 10
106.1858921073
 20
172.1907813787
 30
0.0
 11
105.7985587739
 21
172.578114712
 31
0.0
  0
LINE
  5
12E
330
1F
100
AcDbEntity
  8
Layer12
  6
Continuous
 62
     7
 48
25.4
100
AcDbLine
 10
105.7985587739
 20
172.578114712
 30
0.0
 11
105.7985587739
 21
174.2574480453
 31
0.0
  0
LINE
  5
12F
330
1F
100
AcDbEntity
  8
Layer12
  6
Continuous
 62
     7
 48
25.4
100
AcDbLine
 10
106.1858921073
 20
172.1907813787
 30
0.0
 11
112.3962254406
 21
172.1907813787
 31
0.0
  0
LINE
  5
130
330
1F
100
AcDbEntity
  8
Layer12
  6
Continuous
 62
     7
 48
25.4
100
AcDbLine
 10
106.1858921073
 20
172.5487517183
 30
0.0
 11
112.7835587739
 21
172.578114712
 31
0.0
  0
ARC
  5
131
330
1F
100
AcDbEntity
  8
Layer4
  6
Continuous
 62
     7
 48
25.4
100
AcDbCircle
 10
109.2916230264
 20
324.9536314868
 30
0.0
 40
0.4999999999999975
100
AcDbArc
 50
11.0
 51
96.6149566253
  0
ARC
  5
132
330
1F
100
AcDbEntity
  8
Layer4
  6
Continuous
 62
     7
 48
25.4
100
AcDbCircle
 10
112.7985416976
 20
233.828388109
 30
0.0
 40
0.1999999999999947
100
AcDbArc
 50
349.0
 51
79.0
  0
ARC
  5
133
330
1F
100
AcDbEntity
  8
Layer4
  6
Continuous
 62
     7
 48
25.4
100
AcDbCircle
 10
109.2489315535
 20
217.1394799064
 30
0.0
 40
0.500000000000006
100
AcDbArc
 50
263.3663876972
 51
349.0
  0
TEXT
  5
135
330
1F
100
AcDbEntity
  8
Default
  6
Continuous
 62
     7
 48
25.4
100
AcDbText
 10
176.5818181818
 20
20.1363636364
 30
0.0
 40
3.8
  1
THM,WAN- AP
  7
SEACAD_seiso_ttf
 11
176.5818181818
 21
23.9363636364
 31
0.0
100
AcDbText
 73
     3
  0
TEXT
  5
137
330
1F
100
AcDbEntity
  8
Default
  6
Continuous
 62
     7
 48
25.4
100
AcDbText
 10
179.5613636364
 20
14.1363636364
 30
0.0
 40
3.8
  1
THM BATH
  7
SEACAD_seiso_ttf
 11
179.5613636364
 21
17.9363636364
 31
0.0
100
AcDbText
 73
     3
  0
TEXT
  5
138
330
1F
100
AcDbEntity
  8
Default
  6
Continuous
 62
     7
 48
25.4
100
AcDbText
 10
181.5795454545
 20
7.0681818182
 30
0.0
 40
3.0
  1
3402600J
  7
SEACAD_seiso_ttf
 11
181.5795454545
 21
10.0681818182
 31
0.0
100
AcDbText
 73
     3
  0
TEXT
  5
139
330
1F
100
AcDbEntity
  8
Default
  6
Continuous
 62
     7
 48
25.4
100
AcDbText
 10
255.7159090909
 20
14.7136363636
 30
0.0
 40
5.0
  1
3402600J
  7
SEACAD_seiso_ttf
 11
255.7159090909
 21
19.7136363636
 31
0.0
100
AcDbText
 73
     3
  0
TEXT
  5
13A
330
1F
100
AcDbEntity
  8
Default
  6
Continuous
 62
     7
 48
25.4
100
AcDbText
 10
97.5727272727
 20
30.5136363636
 30
0.0
 40
5.0
  1
1:3
  7
SEACAD_seiso_ttf
 11
97.5727272727
 21
35.5136363636
 31
0.0
100
AcDbText
 73
     3
  0
TEXT
  5
13C
330
1F
100
AcDbEntity
  8
Default
  6
Continuous
 62
     7
 48
25.4
100
AcDbText
 10
253.5326086957
 20
5.4652173913
 30
0.0
 40
3.0
  1
m3402600j(3a)
  7
SEACAD_arial_ttf
 11
253.5326086957
 21
8.4652173913
 31
0.0
100
AcDbText
 73
     3
  0
TEXT
  5
13D
330
1F
100
AcDbEntity
  8
Default
  6
Continuous
 62
     7
 48
25.4
100
AcDbText
 10
135.55
 20
41.55
 30
0.0
 40
2.2
  1
202261
  7
SEACAD_seiso_ttf
 11
135.55
 21
43.75
 31
0.0
100
AcDbText
 73
     3
  0
TEXT
  5
13E
330
1F
100
AcDbEntity
  8
Default
  6
Continuous
 62
     7
 48
25.4
100
AcDbText
 10
133.925
 20
36.55
 30
0.0
 40
2.2
  1
25.10.2004
  7
SEACAD_seiso_ttf
 11
133.925
 21
38.75
 31
0.0
100
AcDbText
 73
     3
  0
TEXT
  5
13F
330
1F
100
AcDbEntity
  8
Default
  6
Continuous
 62
     7
 48
25.4
100
AcDbText
 10
135.1
 20
31.35
 30
0.0
 40
2.2
  1
tecteam
  7
SEACAD_seiso_ttf
 11
135.1
 21
33.55
 31
0.0
100
AcDbText
 73
     3
  0
TEXT
  5
140
330
1F
100
AcDbEntity
  8
Default
  6
Continuous
 62
     7
 48
25.4
100
AcDbText
 10
135.775
 20
26.55
 30
0.0
 40
2.2
  1
Boberg
  7
SEACAD_seiso_ttf
 11
135.775
 21
28.75
 31
0.0
100
AcDbText
 73
     3
  0
LINE
  5
141
330
1F
100
AcDbEntity
  8
Layer7
  6
CENTER2
 62
     7
 48
25.4
100
AcDbLine
 10
135.7733472854
 20
161.0593433941
 30
0.0
 11
135.7733472854
 21
167.0583391601
 31
0.0
  0
LINE
  5
142
330
1F
100
AcDbEntity
  8
Layer11
  6
Continuous
 62
     7
 48
25.4
100
AcDbLine
 10
74.8607718874
 20
294.5703012558
 30
0.0
 11
74.8607718874
 21
247.5994626587
 31
0.0
  0
LINE
  5
143
330
1F
100
AcDbEntity
  8
Layer11
  6
Continuous
 62
     7
 48
25.4
100
AcDbLine
 10
74.8607718874
 20
247.5994626587
 30
0.0
 11
68.6334521401
 21
247.5994626587
 31
0.0
  0
LINE
  5
144
330
1F
100
AcDbEntity
  8
Layer11
  6
Continuous
 62
     7
 48
25.4
100
AcDbLine
 10
68.6334521401
 20
294.5703012558
 30
0.0
 11
74.8607718874
 21
294.5703012558
 31
0.0
  0
ELLIPSE
  5
146
330
1F
100
AcDbEntity
  8
10
  6
Continuous
 62
     7
 48
25.4
100
AcDbEllipse
 10
189.3645728903
 20
185.2574480548
 30
0.0
 11
1.017704439239727E-13
 21
-7.000000000000256
 31
0.0
210
0.0
220
0.0
230
1.0
 40
0.1993679381
 41
3.14159265358972
 42
6.283185307179586
  0
LINE
  5
147
330
1F
100
AcDbEntity
  8
10
  6
Continuous
 62
     7
 48
25.4
100
AcDbLine
 10
187.9695670716
 20
185.4574480453
 30
0.0
 11
189.7310217295
 21
185.4574480453
 31
0.0
  0
LINE
  5
148
330
1F
100
AcDbEntity
  8
10
  6
Continuous
 62
     7
 48
25.4
100
AcDbLine
 10
187.9695670716
 20
185.0574480453
 30
0.0
 11
189.7310217295
 21
185.0574480453
 31
0.0
  0
ARC
  5
149
330
1F
100
AcDbEntity
  8
10
  6
Continuous
 62
     7
 48
25.4
100
AcDbCircle
 10
189.7310217275
 20
185.2574480453
 30
0.0
 40
0.2000000009689945
100
AcDbArc
 50
270.0
 51
89.999998591
  0
LINE
  5
14A
330
1F
100
AcDbEntity
  8
Layer6
  6
Continuous
 62
     7
 48
25.4
100
AcDbLine
 10
188.8366355258
 20
178.2574480453
 30
0.0
 11
171.9214035303
 21
178.2574480453
 31
0.0
  0
ARC
  5
14B
330
1F
100
AcDbEntity
  8
10
  6
Continuous
 62
     7
 48
25.4
100
AcDbCircle
 10
197.9462169887
 20
176.924114712
 30
0.0
 40
1.333333333333449
100
AcDbArc
 50
67.5639248981
 51
90.0
  0
LINE
  5
14C
330
1F
100
AcDbEntity
  8
10
  6
Continuous
 62
     7
 48
25.4
100
AcDbLine
 10
230.203752532
 20
178.2574480453
 30
0.0
 11
260.3549324316
 21
178.2574480453
 31
0.0
  0
ARC
  5
14D
330
1F
100
AcDbEntity
  8
10
  6
Continuous
 62
     7
 48
25.4
100
AcDbCircle
 10
210.2795503221
 20
176.924114712
 30
0.0
 40
1.333333333333421
100
AcDbArc
 50
90.0
 51
135.9079773171
  0
LINE
  5
14E
330
1F
100
AcDbEntity
  8
10
  6
Continuous
 62
     7
 48
25.4
100
AcDbLine
 10
189.3645728903
 20
192.2574480548
 30
0.0
 11
260.3549324316
 21
192.2574480548
 31
0.0
  0
ARC
  5
14F
330
1F
100
AcDbEntity
  8
10
  6
Continuous
 62
     7
 48
25.4
100
AcDbCircle
 10
197.9462169887
 20
176.924114712
 30
0.0
 40
1.333333333333346
100
AcDbArc
 50
0.0002037516
 51
67.5639248981
  0
LINE
  5
150
330
1F
100
AcDbEntity
  8
10
  6
Continuous
 62
     7
 48
25.4
100
AcDbLine
 10
199.2795562489
 20
174.5907801933
 30
0.0
 11
199.2795479512
 21
176.9241194535
 31
0.0
  0
ARC
  5
151
330
1F
100
AcDbEntity
  8
10
  6
Continuous
 62
     7
 48
25.4
100
AcDbCircle
 10
199.6128895822
 20
174.5907813787
 30
0.0
 40
0.3333333333331578
100
AcDbArc
 50
180.0002037516
 51
270.0
  0
LINE
  5
152
330
1F
100
AcDbEntity
  8
10
  6
Continuous
 62
     7
 48
25.4
100
AcDbLine
 10
204.1128540211
 20
174.2574480453
 30
0.0
 11
199.6128895822
 21
174.2574480453
 31
0.0
  0
ARC
  5
153
330
1F
100
AcDbEntity
  8
10
  6
Continuous
 62
     7
 48
25.4
100
AcDbCircle
 10
210.2795503221
 20
176.924114712
 30
0.0
 40
1.333333333333355
100
AcDbArc
 50
135.9079773171
 51
180.000203748
  0
LINE
  5
154
330
1F
100
AcDbEntity
  8
10
  6
Continuous
 62
     7
 48
25.4
100
AcDbLine
 10
208.9462229156
 20
174.590782564
 30
0.0
 11
208.946214618
 21
176.9241099705
 31
0.0
  0
ARC
  5
155
330
1F
100
AcDbEntity
  8
10
  6
Continuous
 62
     7
 48
25.4
100
AcDbCircle
 10
208.6128895823
 20
174.5907813787
 30
0.0
 40
0.3333333333333429
100
AcDbArc
 50
270.0
 51
360.0
  0
LINE
  5
156
330
1F
100
AcDbEntity
  8
10
  6
Continuous
 62
     7
 48
25.4
100
AcDbLine
 10
204.1128540211
 20
174.2574480453
 30
0.0
 11
208.6128895823
 21
174.2574480453
 31
0.0
  0
LINE
  5
158
330
1F
100
AcDbEntity
  8
250
  6
CENTER2
 62
     7
 48
25.4
100
AcDbLine
 10
204.1128540211
 20
171.8034480453
 30
0.0
 11
204.1128540211
 21
180.1367813787
 31
0.0
  0
ELLIPSE
  5
159
330
1F
100
AcDbEntity
  8
Layer9
  6
Continuous
 62
     7
 48
25.4
100
AcDbEllipse
 10
224.8597526654
 20
166.736247465
 30
0.0
 11
-2.844187036712880E-8
 21
-4.979893046098333
 31
0.0
210
0.0
220
0.0
230
1.0
 40
1.0
 41
0.0
 42
6.283185307179586
  0
ARC
  5
15A
330
1F
100
AcDbEntity
  8
Layer9
  6
Continuous
 62
     7
 48
25.4
100
AcDbCircle
 10
224.8597526654
 20
172.2574480531
 30
0.0
 40
5.333333333333343
100
AcDbArc
 50
0.0
 51
180.000000018
  0
LINE
  5
15B
330
1F
100
AcDbEntity
  8
Layer9
  6
Continuous
 62
     7
 48
25.4
100
AcDbLine
 10
230.1930859987
 20
172.2574480531
 30
0.0
 11
230.1930859987
 21
166.7362474908
 31
0.0
  0
LINE
  5
15C
330
1F
100
AcDbEntity
  8
Layer9
  6
Continuous
 62
     7
 48
25.4
100
AcDbLine
 10
219.5264193321
 20
172.2574480514
 30
0.0
 11
219.5264193321
 21
166.7362474979
 31
0.0
  0
ELLIPSE
  5
15D
330
1F
100
AcDbEntity
  8
10
  6
Continuous
 62
     7
 48
25.4
100
AcDbEllipse
 10
260.3549324316
 20
185.2574480453
 30
0.0
 11
-1.017704439239727E-13
 21
-7.000000000000256
 31
0.0
210
0.0
220
0.0
230
1.0
 40
0.1993679381
 41
0.0
 42
3.141592653593572
  0
LINE
  5
15E
330
1F
100
AcDbEntity
  8
10
  6
Continuous
 62
     7
 48
25.4
100
AcDbLine
 10
261.7499382592
 20
185.4574480453
 30
0.0
 11
259.9884836013
 21
185.4574480453
 31
0.0
  0
LINE
  5
15F
330
1F
100
AcDbEntity
  8
10
  6
Continuous
 62
     7
 48
25.4
100
AcDbLine
 10
261.7499382592
 20
185.0574480453
 30
0.0
 11
259.9884836013
 21
185.0574480453
 31
0.0
  0
ARC
  5
160
330
1F
100
AcDbEntity
  8
10
  6
Continuous
 62
     7
 48
25.4
100
AcDbCircle
 10
259.9884836033
 20
185.2574480453
 30
0.0
 40
0.2000000009689945
100
AcDbArc
 50
90.000001409
 51
270.0
  0
ARC
  5
161
330
1F
100
AcDbEntity
  8
Layer5
  6
Continuous
 62
     7
 48
25.4
100
AcDbCircle
 10
249.8607718874
 20
185.2574480453
 30
0.0
 40
11.66666666666649
100
AcDbArc
 50
36.8698976458
 51
143.1301023542
  0
ARC
  5
162
330
1F
100
AcDbEntity
  8
Layer5
  6
Continuous
 62
     7
 48
25.4
100
AcDbCircle
 10
249.8607718874
 20
185.2574480453
 30
0.0
 40
11.66666666666649
100
AcDbArc
 50
216.8698976458
 51
323.1301023542
  0
ARC
  5
163
330
1F
100
AcDbEntity
  8
Layer5
  6
Continuous
 62
     7
 48
25.4
100
AcDbCircle
 10
199.8607718874
 20
185.2574480453
 30
0.0
 40
11.66666666666649
100
AcDbArc
 50
36.8698976458
 51
143.1301023542
  0
ARC
  5
164
330
1F
100
AcDbEntity
  8
Layer5
  6
Continuous
 62
     7
 48
25.4
100
AcDbCircle
 10
199.8607718874
 20
185.2574480453
 30
0.0
 40
11.66666666666649
100
AcDbArc
 50
216.8698976458
 51
272.2207615671
  0
LINE
  5
165
330
1F
100
AcDbEntity
  8
10
  6
Continuous
 62
     7
 48
25.4
100
AcDbLine
 10
228.8677526612
 20
176.9214481746
 30
0.0
 11
228.8677526612
 21
175.7760245377
 31
0.0
  0
ARC
  5
166
330
1F
100
AcDbEntity
  8
10
  6
Continuous
 62
     7
 48
25.4
100
AcDbCircle
 10
219.5157527905
 20
176.9214481742
 30
0.0
 40
1.335999870761984
100
AcDbArc
 50
0.0000098529
 51
90.0000000002
  0
LINE
  5
167
330
1F
100
AcDbEntity
  8
10
  6
Continuous
 62
     7
 48
25.4
100
AcDbLine
 10
220.8517526612
 20
175.7760245282
 30
0.0
 11
220.8517526612
 21
176.921448404
 31
0.0
  0
LINE
  5
168
330
1F
100
AcDbEntity
  8
10
  6
Continuous
 62
     7
 48
25.4
100
AcDbLine
 10
204.1128540211
 20
178.257448045
 30
0.0
 11
219.5157527905
 21
178.257448045
 31
0.0
  0
ARC
  5
169
330
1F
100
AcDbEntity
  8
10
  6
Continuous
 62
     7
 48
25.4
100
AcDbCircle
 10
230.203752532
 20
176.9214481746
 30
0.0
 40
1.335999870761984
100
AcDbArc
 50
89.9999999999
 51
180.0
  0
ELLIPSE
  5
16A
330
1F
100
AcDbEntity
  8
Layer9
  6
Continuous
 62
     7
 48
25.4
100
AcDbEllipse
 10
224.8597526612
 20
178.257448045
 30
0.0
 11
5.343999870762062
 21
6.805142195597424E-16
 31
0.0
210
0.0
220
0.0
230
1.0
 40
0.1341274108
 41
0.0
 42
3.141592653589792
  0
ELLIPSE
  5
16B
330
1F
100
AcDbEntity
  8
Layer6
  6
Continuous
 62
     7
 48
25.4
100
AcDbEllipse
 10
188.8366355258
 20
185.2574480453
 30
0.0
 11
1.017704439239727E-13
 21
-7.000000000000256
 31
0.0
210
0.0
220
0.0
230
1.0
 40
0.1993679381
 41
5.002140681696079
 42
6.473478521744061
  0
ELLIPSE
  5
16C
330
1F
100
AcDbEntity
  8
Layer6
  6
Continuous
 62
     7
 48
25.4
100
AcDbEllipse
 10
171.9214035303
 20
185.2574480453
 30
0.0
 11
1.017704439239727E-13
 21
-7.000000000000256
 31
0.0
210
0.0
220
0.0
230
1.0
 40
0.1993679381
 41
5.002140681696075
 42
6.283185307179575
  0
LINE
  5
16D
330
1F
100
AcDbEntity
  8
Layer6
  6
Continuous
 62
     7
 48
25.4
100
AcDbLine
 10
171.9214035303
 20
192.2574480453
 30
0.0
 11
188.8366355258
 21
192.2574480453
 31
0.0
  0
LINE
  5
16E
330
1F
100
AcDbEntity
  8
10
  6
Continuous
 62
     7
 48
25.4
100
AcDbLine
 10
204.1128540211
 20
178.2574480548
 30
0.0
 11
189.3645728903
 21
178.2574480548
 31
0.0
  0
ELLIPSE
  5
16F
330
1F
100
AcDbEntity
  8
Layer6
  6
Continuous
 62
     7
 48
25.4
100
AcDbEllipse
 10
170.3952409769
 20
185.2574480462
 30
0.0
 11
0.0
 21
1.999999999999997
 31
0.0
210
0.0
220
0.0
230
1.0
 40
0.1908089954
 41
0.0
 42
3.141592653589793
  0
ELLIPSE
  5
170
330
1F
100
AcDbEntity
  8
Layer6
  6
Continuous
 62
     7
 48
25.4
100
AcDbEllipse
 10
171.9214035303
 20
185.2574480453
 30
0.0
 11
1.017704439239727E-13
 21
-7.000000000000256
 31
0.0
210
0.0
220
0.0
230
1.0
 40
0.1993679381
 41
3.141592653589802
 42
4.422637278824002
  0
ELLIPSE
  5
171
330
1F
100
AcDbEntity
  8
Layer6
  6
Continuous
 62
     7
 48
25.4
100
AcDbEllipse
 10
184.0102721935
 20
185.2574480462
 30
0.0
 11
3.394453039130829
 21
0.0
 31
0.0
210
0.0
220
0.0
230
1.0
 40
0.5891965442
 41
1.570796326794897
 42
4.712389503696345
  0
LINE
  5
172
330
1F
100
AcDbEntity
  8
Layer6
  6
Continuous
 62
     7
 48
25.4
100
AcDbLine
 10
187.2891628072
 20
187.2574480462
 30
0.0
 11
187.2891628072
 21
183.2574480462
 31
0.0
  0
LINE
  5
173
330
1F
100
AcDbEntity
  8
Layer6
  6
Continuous
 62
     7
 48
25.4
100
AcDbLine
 10
188.0271721035
 20
187.2574480462
 30
0.0
 11
170.3952409769
 21
187.2574480462
 31
0.0
  0
LINE
  5
174
330
1F
100
AcDbEntity
  8
Layer6
  6
Continuous
 62
     7
 48
25.4
100
AcDbLine
 10
188.0271721046
 20
183.2574480462
 30
0.0
 11
170.3952409769
 21
183.2574480462
 31
0.0
  0
ELLIPSE
  5
175
330
1F
100
AcDbEntity
  8
Layer6
  6
Continuous
 62
     7
 48
25.4
100
AcDbEllipse
 10
188.8366355258
 20
185.2574480453
 30
0.0
 11
1.017704439239727E-13
 21
-7.000000000000256
 31
0.0
210
0.0
220
0.0
230
1.0
 40
0.1993679381
 41
2.951299446173394
 42
4.422637278824002
  0
LINE
  5
176
330
1F
100
AcDbEntity
  8
Layer6
  6
Continuous
 62
     7
 48
25.4
100
AcDbLine
 10
260.882869805
 20
178.2574480453
 30
0.0
 11
277.7981018005
 21
178.2574480453
 31
0.0
  0
ELLIPSE
  5
177
330
1F
100
AcDbEntity
  8
Layer6
  6
Continuous
 62
     7
 48
25.4
100
AcDbEllipse
 10
260.882869805
 20
185.2574480453
 30
0.0
 11
-1.017704439239727E-13
 21
-7.000000000000256
 31
0.0
210
0.0
220
0.0
230
1.0
 40
0.1993679381
 41
6.092892092615111
 42
7.564229932663094
  0
ELLIPSE
  5
178
330
1F
100
AcDbEntity
  8
Layer6
  6
Continuous
 62
     7
 48
25.4
100
AcDbEllipse
 10
277.7981018005
 20
185.2574480453
 30
0.0
 11
-1.017704439239727E-13
 21
-7.000000000000256
 31
0.0
210
0.0
220
0.0
230
1.0
 40
0.1993679381
 41
0.0
 42
1.281044625483511
  0
LINE
  5
179
330
1F
100
AcDbEntity
  8
Layer6
  6
Continuous
 62
     7
 48
25.4
100
AcDbLine
 10
277.7981018005
 20
192.2574480453
 30
0.0
 11
260.882869805
 21
192.2574480453
 31
0.0
  0
ELLIPSE
  5
17A
330
1F
100
AcDbEntity
  8
Layer6
  6
Continuous
 62
     7
 48
25.4
100
AcDbEllipse
 10
279.3242643539
 20
185.2574480462
 30
0.0
 11
0.0
 21
-1.999999999999997
 31
0.0
210
0.0
220
0.0
230
1.0
 40
0.1908089954
 41
0.0
 42
3.141592653589793
  0
ELLIPSE
  5
17B
330
1F
100
AcDbEntity
  8
Layer6
  6
Continuous
 62
     7
 48
25.4
100
AcDbEllipse
 10
277.7981018005
 20
185.2574480453
 30
0.0
 11
-1.017704439239727E-13
 21
-7.000000000000256
 31
0.0
210
0.0
220
0.0
230
1.0
 40
0.1993679381
 41
1.860548028355584
 42
3.141592653589785
  0
ELLIPSE
  5
17C
330
1F
100
AcDbEntity
  8
Layer6
  6
Continuous
 62
     7
 48
25.4
100
AcDbEllipse
 10
265.7092331373
 20
185.2574480462
 30
0.0
 11
-3.394453039130829
 21
0.0
 31
0.0
210
0.0
220
0.0
230
1.0
 40
0.5891965442
 41
1.570795803483241
 42
4.71238898038469
  0
LINE
  5
17D
330
1F
100
AcDbEntity
  8
Layer6
  6
Continuous
 62
     7
 48
25.4
100
AcDbLine
 10
262.4303425236
 20
187.2574480462
 30
0.0
 11
262.4303425236
 21
183.2574480462
 31
0.0
  0
LINE
  5
17E
330
1F
100
AcDbEntity
  8
Layer6
  6
Continuous
 62
     7
 48
25.4
100
AcDbLine
 10
261.6923332273
 20
187.2574480462
 30
0.0
 11
279.3242643539
 21
187.2574480462
 31
0.0
  0
LINE
  5
17F
330
1F
100
AcDbEntity
  8
Layer6
  6
Continuous
 62
     7
 48
25.4
100
AcDbLine
 10
261.6923332262
 20
183.2574480462
 30
0.0
 11
279.3242643539
 21
183.2574480462
 31
0.0
  0
ELLIPSE
  5
180
330
1F
100
AcDbEntity
  8
Layer6
  6
Continuous
 62
     7
 48
25.4
100
AcDbEllipse
 10
260.882869805
 20
185.2574480453
 30
0.0
 11
-1.017704439239727E-13
 21
-7.000000000000256
 31
0.0
210
0.0
220
0.0
230
1.0
 40
0.1993679381
 41
1.860548028355584
 42
3.331885861006193
  0
LINE
  5
181
330
1F
100
AcDbEntity
  8
Layer7
  6
Continuous
 62
     7
 48
25.4
100
AcDbLine
 10
220.1930859987
 20
162.8764110275
 30
0.0
 11
220.1930859987
 21
164.3253671142
 31
0.0
  0
LINE
  5
182
330
1F
100
AcDbEntity
  8
Layer7
  6
Continuous
 62
     7
 48
25.4
100
AcDbLine
 10
229.5264193321
 20
164.3253671074
 30
0.0
 11
229.5264193321
 21
162.8764110275
 31
0.0
  0
ELLIPSE
  5
183
330
1F
100
AcDbEntity
  8
Layer7
  6
Continuous
 62
     7
 48
25.4
100
AcDbEllipse
 10
224.8597526654
 20
161.291709034
 30
0.0
 11
4.666666666666646
 21
4.229844928220137E-44
 31
0.0
210
0.0
220
0.0
230
1.0
 40
0.2588190451
 41
3.458924248715208
 42
5.9658537120542
  0
LINE
  5
184
330
1F
100
AcDbEntity
  8
Layer7
  6
Continuous
 62
     7
 48
25.4
100
AcDbLine
 10
229.2934193321
 20
162.4995312445
 30
0.0
 11
229.2934193321
 21
160.914829251
 31
0.0
  0
ELLIPSE
  5
185
330
1F
100
AcDbEntity
  8
Layer7
  6
Continuous
 62
     7
 48
25.4
100
AcDbEllipse
 10
224.8597526654
 20
162.8764110275
 30
0.0
 11
4.666666666666646
 21
4.229844928220137E-44
 31
0.0
210
0.0
220
0.0
230
1.0
 40
0.2588190451
 41
5.965853712054178
 42
6.283185307179586
  0
ELLIPSE
  5
186
330
1F
100
AcDbEntity
  8
Layer7
  6
Continuous
 62
     7
 48
25.4
100
AcDbEllipse
 10
224.8597526654
 20
162.8764110275
 30
0.0
 11
4.666666666666646
 21
4.229844928220137E-44
 31
0.0
210
0.0
220
0.0
230
1.0
 40
0.2588190451
 41
3.141592696376292
 42
3.45892424871523
  0
LINE
  5
187
330
1F
100
AcDbEntity
  8
Layer7
  6
Continuous
 62
     7
 48
25.4
100
AcDbLine
 10
220.4260859987
 20
160.914829251
 30
0.0
 11
220.4260859987
 21
162.4995312445
 31
0.0
  0
LINE
  5
188
330
1F
100
AcDbEntity
  8
Layer12
  6
Continuous
 62
     7
 48
25.4
100
AcDbLine
 10
201.0076873544
 20
174.2574480453
 30
0.0
 11
201.0076873544
 21
172.1907813787
 31
0.0
  0
LINE
  5
189
330
1F
100
AcDbEntity
  8
Layer12
  6
Continuous
 62
     7
 48
25.4
100
AcDbLine
 10
207.2180206877
 20
174.2574480453
 30
0.0
 11
207.2180206877
 21
172.1907813787
 31
0.0
  0
LINE
  5
18A
330
1F
100
AcDbEntity
  8
Layer12
  6
Continuous
 62
     7
 48
25.4
100
AcDbLine
 10
207.6053540211
 20
174.2574480453
 30
0.0
 11
207.6053540211
 21
172.578114712
 31
0.0
  0
LINE
  5
18B
330
1F
100
AcDbEntity
  8
Layer12
  6
Continuous
 62
     7
 48
25.4
100
AcDbLine
 10
207.6053540211
 20
172.578114712
 30
0.0
 11
207.2180206877
 21
172.1907813787
 31
0.0
  0
LINE
  5
18C
330
1F
100
AcDbEntity
  8
Layer12
  6
Continuous
 62
     7
 48
25.4
100
AcDbLine
 10
201.0076873544
 20
172.1907813787
 30
0.0
 11
200.6203540211
 21
172.578114712
 31
0.0
  0
LINE
  5
18D
330
1F
100
AcDbEntity
  8
Layer12
  6
Continuous
 62
     7
 48
25.4
100
AcDbLine
 10
200.6203540211
 20
172.578114712
 30
0.0
 11
200.6203540211
 21
174.2574480453
 31
0.0
  0
LINE
  5
18E
330
1F
100
AcDbEntity
  8
Layer12
  6
Continuous
 62
     7
 48
25.4
100
AcDbLine
 10
201.0076873544
 20
172.1907813787
 30
0.0
 11
207.2180206877
 21
172.1907813787
 31
0.0
  0
LINE
  5
18F
330
1F
100
AcDbEntity
  8
Layer12
  6
Continuous
 62
     7
 48
25.4
100
AcDbLine
 10
201.0076873544
 20
172.5487517183
 30
0.0
 11
207.6053540211
 21
172.578114712
 31
0.0
  0
INSERT
  5
191
330
1F
100
AcDbEntity
  8
Layer3
100
AcDbBlockReference
  2
GDimGGroup
 10
0.0
 20
0.0
 30
0.0
  0
INSERT
  5
1A0
330
1F
100
AcDbEntity
  8
Layer3
100
AcDbBlockReference
  2
GDimGGroup1
 10
0.0
 20
0.0
 30
0.0
  0
INSERT
  5
1AD
330
1F
100
AcDbEntity
  8
Layer11
100
AcDbBlockReference
  2
GDimGGroup2
 10
0.0
 20
0.0
 30
0.0
  0
INSERT
  5
1BA
330
1F
100
AcDbEntity
  8
Layer11
100
AcDbBlockReference
  2
GDimGGroup3
 10
0.0
 20
0.0
 30
0.0
  0
INSERT
  5
1C7
330
1F
100
AcDbEntity
  8
Layer12
100
AcDbBlockReference
  2
GDimGGroup4
 10
0.0
 20
0.0
 30
0.0
  0
INSERT
  5
1D4
330
1F
100
AcDbEntity
  8
Layer3
100
AcDbBlockReference
  2
GDimGGroup5
 10
0.0
 20
0.0
 30
0.0
  0
INSERT
  5
1E2
330
1F
100
AcDbEntity
  8
Default
100
AcDbBlockReference
  2
GDimGGroup6
 10
0.0
 20
0.0
 30
0.0
  0
INSERT
  5
1F0
330
1F
100
AcDbEntity
  8
Default
100
AcDbBlockReference
  2
GDimGGroup7
 10
0.0
 20
0.0
 30
0.0
  0
HATCH
  5
1FC
330
1F
100
AcDbEntity
  8
0
  6
Continuous
 62
   252
 48
25.4
100
AcDbHatch
 10
0.0
 20
0.0
 30
0.0
210
0.0
220
0.0
230
1.0
  2
SOLID
 70
     1
 71
     0
 91
        1
 92
        1
 93
      139
 72
     1
 10
257.0172376075406
 20
36.02717426027416
 11
257.0172376075406
 21
38.18056787729543
 72
     1
 10
257.0172376075406
 20
38.18056787729543
 11
255.6135439905195
 21
38.18056787729543
 72
     1
 10
255.6135439905195
 20
38.18056787729543
 11
255.6135439905195
 21
36.63701935882521
 72
     1
 10
255.6135439905195
 20
36.63701935882521
 11
255.4917076643316
 21
36.58114990337533
 72
     1
 10
255.4917076643316
 20
36.58114990337533
 11
255.3666502755375
 21
36.53126995692732
 72
     1
 10
255.3666502755375
 20
36.53126995692732
 11
255.2388185719343
 21
36.48764219434533
 72
     1
 10
255.2388185719343
 20
36.48764219434533
 11
255.108686583274
 21
36.45048421156425
 72
     1
 10
255.108686583274
 20
36.45048421156425
 11
254.976749848545
 21
36.41996513139731
 72
     1
 10
254.976749848545
 20
36.41996513139731
 11
254.8435191598413
 21
36.39620310823802
 72
     1
 10
254.8435191598413
 20
36.39620310823802
 11
254.7095139875734
 21
36.37926380720599
 72
     1
 10
254.7095139875734
 20
36.37926380720599
 11
254.5752557640552
 21
36.36915989868775
 72
     1
 10
254.5752557640552
 20
36.36915989868775
 11
254.4412612066631
 21
36.36585157274727
 72
     1
 10
254.4412612066631
 20
36.36585157274727
 11
254.3152684750314
 21
36.36668446771454
 72
     1
 10
254.3152684750314
 20
36.36668446771454
 11
254.1968082340686
 21
36.37706328170606
 72
     1
 10
254.1968082340686
 20
36.37706328170606
 11
254.0858119386888
 21
36.39592624282481
 72
     1
 10
254.0858119386888
 20
36.39592624282481
 11
253.9822110438061
 21
36.42221157917366
 72
     1
 10
253.9822110438061
 20
36.42221157917366
 11
253.8859370043348
 21
36.45485751885566
 72
     1
 10
253.8859370043348
 20
36.45485751885566
 11
253.796921275189
 21
36.49280228997373
 72
     1
 10
253.796921275189
 20
36.49280228997373
 11
253.6768570709555
 21
36.55733212956855
 72
     1
 10
253.6768570709555
 20
36.55733212956855
 11
253.5727384988467
 21
36.62781187297362
 72
     1
 10
253.5727384988467
 20
36.62781187297362
 11
253.4894514104418
 21
36.69647551794383
 72
     1
 10
253.4894514104418
 20
36.69647551794383
 11
253.4173294851355
 21
36.76883793734484
 72
     1
 10
253.4173294851355
 20
36.76883793734484
 11
253.3538819172083
 21
36.84654144600172
 72
     1
 10
253.3538819172083
 20
36.84654144600172
 11
253.2966179009403
 21
36.93122835873944
 72
     1
 10
253.2966179009403
 20
36.93122835873944
 11
253.2430466306121
 21
37.02454099038297
 72
     1
 10
253.2430466306121
 20
37.02454099038297
 11
253.190677300504
 21
37.12812165575733
 72
     1
 10
253.190677300504
 20
37.12812165575733
 11
253.136505619997
 21
37.24742444161824
 72
     1
 10
253.136505619997
 20
37.24742444161824
 11
253.0844135449151
 21
37.38353572944267
 72
     1
 10
253.0844135449151
 20
37.38353572944267
 11
253.0525402409839
 21
37.48570111320462
 72
     1
 10
253.0525402409839
 20
37.48570111320462
 11
253.0241403207949
 21
37.59846664513253
 72
     1
 10
253.0241403207949
 20
37.59846664513253
 11
253.0002334302138
 21
37.72308420636603
 72
     1
 10
253.0002334302138
 20
37.72308420636603
 11
252.9818392151061
 21
37.8608056780447
 72
     1
 10
252.9818392151061
 20
37.8608056780447
 11
252.9699773213378
 21
38.01288294130797
 72
     1
 10
252.9699773213378
 20
38.01288294130797
 11
252.9656673947745
 21
38.18056787729549
 72
     1
 10
252.9656673947745
 20
38.18056787729549
 11
252.9712120570559
 21
38.348252813283
 72
     1
 10
252.9712120570559
 20
38.348252813283
 11
252.986472223093
 21
38.50033007654627
 72
     1
 10
252.986472223093
 20
38.50033007654627
 11
253.0101361322585
 21
38.63805154822489
 72
     1
 10
253.0101361322585
 20
38.63805154822489
 11
253.040892023925
 21
38.76266910945833
 72
     1
 10
253.040892023925
 20
38.76266910945833
 11
253.0774281374656
 21
38.87543464138629
 72
     1
 10
253.0774281374656
 20
38.87543464138629
 11
253.1184327122526
 21
38.97760002514825
 72
     1
 10
253.1184327122526
 20
38.97760002514825
 11
253.1854484628985
 21
39.11371131297267
 72
     1
 10
253.1854484628985
 20
39.11371131297267
 11
253.2551395978209
 21
39.23301409883359
 72
     1
 10
253.2551395978209
 20
39.23301409883359
 11
253.3225120333115
 21
39.3365947642079
 72
     1
 10
253.3225120333115
 20
39.3365947642079
 11
253.3914307486526
 21
39.42990739585137
 72
     1
 10
253.3914307486526
 20
39.42990739585137
 11
253.4651001317432
 21
39.51459430858908
 72
     1
 10
253.4651001317432
 20
39.51459430858908
 11
253.5467245704822
 21
39.59229781724596
 72
     1
 10
253.5467245704822
 20
39.59229781724596
 11
253.639508452768
 21
39.66466023664697
 72
     1
 10
253.639508452768
 20
39.66466023664697
 11
253.7466561664998
 21
39.73332388161718
 72
     1
 10
253.7466561664998
 20
39.73332388161718
 11
253.8336896386444
 21
39.78079451607123
 72
     1
 10
253.8336896386444
 20
39.78079451607123
 11
253.9297962819564
 21
39.82615163724154
 72
     1
 10
253.9297962819564
 20
39.82615163724154
 11
254.0350642787605
 21
39.86833347569216
 72
     1
 10
254.0350642787605
 20
39.86833347569216
 11
254.149581811382
 21
39.90627826198731
 72
     1
 10
254.149581811382
 20
39.90627826198731
 11
254.2734370621461
 21
39.93892422669084
 72
     1
 10
254.2734370621461
 20
39.93892422669084
 11
254.4067182133778
 21
39.96520960036712
 72
     1
 10
254.4067182133778
 20
39.96520960036712
 11
254.5495134474022
 21
39.98407261358003
 72
     1
 10
254.5495134474022
 20
39.98407261358003
 11
254.7019109465446
 21
39.99445149689371
 72
     1
 10
254.7019109465446
 20
39.99445149689371
 11
254.8639988931301
 21
39.99528448087228
 72
     1
 10
254.8639988931301
 20
39.99528448087228
 11
255.0940677015586
 21
39.98791705452001
 72
     1
 10
255.0940677015586
 20
39.98791705452001
 11
255.3248685653708
 21
39.96564911414765
 72
     1
 10
255.3248685653708
 20
39.96564911414765
 11
255.5549550680946
 21
39.92833871893883
 72
     1
 10
255.5549550680946
 20
39.92833871893883
 11
255.7828592819786
 21
39.87603168222717
 72
     1
 10
255.7828592819786
 20
39.87603168222717
 11
256.0071223381179
 21
39.80896457142683
 72
     1
 10
256.0071223381179
 20
39.80896457142683
 11
256.2263252902625
 21
39.72756173025601
 72
     1
 10
256.2263252902625
 20
39.72756173025601
 11
256.4391189154063
 21
39.63242636670619
 72
     1
 10
256.4391189154063
 20
39.63242636670619
 11
256.6442511450612
 21
39.52432609735187
 72
     1
 10
256.6442511450612
 20
39.52432609735187
 11
256.8405909692427
 21
39.40417365663604
 72
     1
 10
256.8405909692427
 20
39.40417365663604
 11
256.8405909692427
 21
40.4379780123277
 72
     1
 10
256.8405909692427
 20
40.4379780123277
 11
256.6015900069624
 21
40.54611532128241
 72
     1
 10
256.6015900069624
 20
40.54611532128241
 11
256.3564343849309
 21
40.64264514173341
 72
     1
 10
256.3564343849309
 20
40.64264514173341
 11
256.1059791867947
 21
40.72707201125294
 72
     1
 10
256.1059791867947
 20
40.72707201125294
 11
255.8511302914854
 21
40.79898564983961
 72
     1
 10
255.8511302914854
 20
40.79898564983961
 11
255.5928336083979
 21
40.85806719739524
 72
     1
 10
255.5928336083979
 20
40.85806719739524
 11
255.3320634357769
 21
40.90409379760049
 72
     1
 10
255.3320634357769
 20
40.90409379760049
 11
255.0698102412289
 21
40.93694139294221
 72
     1
 10
255.0698102412289
 20
40.93694139294221
 11
254.8070681849877
 21
40.95658565755331
 72
     1
 10
254.8070681849877
 20
40.95658565755331
 11
254.5448227139236
 21
40.96310105971637
 72
     1
 10
254.5448227139236
 20
40.96310105971637
 11
254.2860473983418
 21
40.96182396144202
 72
     1
 10
254.2860473983418
 20
40.96182396144202
 11
254.042742996224
 21
40.94591146575024
 72
     1
 10
254.042742996224
 20
40.94591146575024
 11
253.8147687234499
 21
40.9169914357804
 72
     1
 10
253.8147687234499
 20
40.9169914357804
 11
253.6019837958988
 21
40.87669173467198
 72
     1
 10
253.6019837958988
 20
40.87669173467198
 11
253.4042474294501
 21
40.82664022556434
 72
     1
 10
253.4042474294501
 20
40.82664022556434
 11
253.2214188399832
 21
40.76846477159698
 72
     1
 10
253.2214188399832
 20
40.76846477159698
 11
253.0533572433777
 21
40.70379323590931
 72
     1
 10
253.0533572433777
 20
40.70379323590931
 11
252.899921855513
 21
40.63425348164071
 72
     1
 10
252.899921855513
 20
40.63425348164071
 11
252.7609718922684
 21
40.56147337193058
 72
     1
 10
252.7609718922684
 20
40.56147337193058
 11
252.6441295306047
 21
40.49179752025719
 72
     1
 10
252.6441295306047
 20
40.49179752025719
 11
252.5382370831933
 21
40.41997433318326
 72
     1
 10
252.5382370831933
 20
40.41997433318326
 11
252.4417787446955
 21
40.34525775663575
 72
     1
 10
252.4417787446955
 20
40.34525775663575
 11
252.3532387097727
 21
40.26690173654132
 72
     1
 10
252.3532387097727
 20
40.26690173654132
 11
252.2711011730868
 21
40.18416021882695
 72
     1
 10
252.2711011730868
 20
40.18416021882695
 11
252.1938503292988
 21
40.09628714941946
 72
     1
 10
252.1938503292988
 20
40.09628714941946
 11
252.0838207886229
 21
39.95322389259845
 72
     1
 10
252.0838207886229
 20
39.95322389259845
 11
251.9762599019385
 21
39.79441809030646
 72
     1
 10
251.9762599019385
 20
39.79441809030646
 11
251.901959210119
 21
39.67502132334419
 72
     1
 10
251.901959210119
 20
39.67502132334419
 11
251.8285097454346
 21
39.54513083089986
 72
     1
 10
251.8285097454346
 20
39.54513083089986
 11
251.7580057491749
 21
39.4028272780472
 72
     1
 10
251.7580057491749
 20
39.4028272780472
 11
251.6925414626295
 21
39.24619132985976
 72
     1
 10
251.6925414626295
 20
39.24619132985976
 11
251.634211127088
 21
39.07330365141134
 72
     1
 10
251.634211127088
 20
39.07330365141134
 11
251.5851089838399
 21
38.88224490777567
 72
     1
 10
251.5851089838399
 20
38.88224490777567
 11
251.547329274175
 21
38.67109576402647
 72
     1
 10
251.547329274175
 20
38.67109576402647
 11
251.5229662393827
 21
38.43793688523736
 72
     1
 10
251.5229662393827
 20
38.43793688523736
 11
251.5141141207528
 21
38.18084893648208
 72
     1
 10
251.5141141207528
 20
38.18084893648208
 11
251.5141138140292
 21
38.18056786286192
 72
     1
 10
251.5141138140292
 20
38.18056786286192
 11
251.5141141207528
 21
38.18028681810867
 72
     1
 10
251.5141141207528
 20
38.18028681810867
 11
251.5229662393827
 21
37.92319886935344
 72
     1
 10
251.5229662393827
 20
37.92319886935344
 11
251.547329274175
 21
37.69003999056434
 72
     1
 10
251.547329274175
 20
37.69003999056434
 11
251.5851089838399
 21
37.47889084681508
 72
     1
 10
251.5851089838399
 20
37.47889084681508
 11
251.634211127088
 21
37.28783210317946
 72
     1
 10
251.634211127088
 20
37.28783210317946
 11
251.6925414626295
 21
37.11494442473109
 72
     1
 10
251.6925414626295
 20
37.11494442473109
 11
251.7580057491749
 21
36.95830847654366
 72
     1
 10
251.7580057491749
 20
36.95830847654366
 11
251.8285097454346
 21
36.816004923691
 72
     1
 10
251.8285097454346
 20
36.816004923691
 11
251.901959210119
 21
36.68611443124667
 72
     1
 10
251.901959210119
 20
36.68611443124667
 11
251.9762599019385
 21
36.56671766428446
 72
     1
 10
251.9762599019385
 20
36.56671766428446
 11
252.0838207886229
 21
36.40791186199241
 72
     1
 10
252.0838207886229
 20
36.40791186199241
 11
252.1938503292988
 21
36.26484860517146
 72
     1
 10
252.1938503292988
 20
36.26484860517146
 11
252.2711011730867
 21
36.17697553576391
 72
     1
 10
252.2711011730867
 20
36.17697553576391
 11
252.3532387097727
 21
36.09423401804953
 72
     1
 10
252.3532387097727
 20
36.09423401804953
 11
252.4417787446955
 21
36.01587799795517
 72
     1
 10
252.4417787446955
 20
36.01587799795517
 11
252.5382370831933
 21
35.9411614214076
 72
     1
 10
252.5382370831933
 20
35.9411614214076
 11
252.6441295306047
 21
35.86933823433372
 72
     1
 10
252.6441295306047
 20
35.86933823433372
 11
252.7609718922684
 21
35.79966238266033
 72
     1
 10
252.7609718922684
 20
35.79966238266033
 11
252.899921855513
 21
35.72688227295026
 72
     1
 10
252.899921855513
 20
35.72688227295026
 11
253.0533572433777
 21
35.65734251868161
 72
     1
 10
253.0533572433777
 20
35.65734251868161
 11
253.2214188399831
 21
35.59267098299393
 72
     1
 10
253.2214188399831
 20
35.59267098299393
 11
253.40424742945
 21
35.53449552902657
 72
     1
 10
253.40424742945
 20
35.53449552902657
 11
253.6019837958987
 21
35.48444401991893
 72
     1
 10
253.6019837958987
 20
35.48444401991893
 11
253.8147687234498
 21
35.44414431881052
 72
     1
 10
253.8147687234498
 20
35.44414431881052
 11
254.042742996224
 21
35.41522428884067
 72
     1
 10
254.042742996224
 20
35.41522428884067
 11
254.2860473983418
 21
35.3993117931489
 72
     1
 10
254.2860473983418
 20
35.3993117931489
 11
254.5448227139236
 21
35.39803469487454
 72
     1
 10
254.5448227139236
 20
35.39803469487454
 11
254.8290512572761
 21
35.40584952449674
 72
     1
 10
254.8290512572761
 20
35.40584952449674
 11
255.1139423257373
 21
35.42943858022687
 72
     1
 10
255.1139423257373
 20
35.42943858022687
 11
255.3981835120091
 21
35.46891196384958
 72
     1
 10
255.3981835120091
 20
35.46891196384958
 11
255.6804481219209
 21
35.5242338772859
 72
     1
 10
255.6804481219209
 20
35.5242338772859
 11
255.9594155003299
 21
35.59522091739234
 72
     1
 10
255.9594155003299
 20
35.59522091739234
 11
256.2337914998248
 21
35.68154377077484
 72
     1
 10
256.2337914998248
 20
35.68154377077484
 11
256.5023284311315
 21
35.78273229044096
 72
     1
 10
256.5023284311315
 20
35.78273229044096
 11
256.7638438523356
 21
35.89818379069806
 72
     1
 10
256.7638438523356
 20
35.89818379069806
 11
257.0172376075406
 21
36.02717426027416
 97
        0
 75
     0
 76
     1
 98
        0
  0
POLYLINE
  5
1FD
330
1F
100
AcDbEntity
  8
0
  6
Continuous
 62
   252
 48
25.4
370
     0
100
AcDb2dPolyline
 66
     1
 10
0.0
 20
0.0
 30
0.0
 70
     1
  0
VERTEX
  5
1FE
330
1FD
100
AcDbEntity
  8
0
  6
Continuous
 62
   252
100
AcDbVertex
100
AcDb2dVertex
 10
257.0172376075
 20
36.0271742603
 30
0.0
 70
     8
  0
VERTEX
  5
1FF
330
1FD
100
AcDbEntity
  8
0
  6
Continuous
 62
   252
100
AcDbVertex
100
AcDb2dVertex
 10
257.0172376075
 20
38.1805678773
 30
0.0
 70
     8
  0
VERTEX
  5
200
330
1FD
100
AcDbEntity
  8
0
  6
Continuous
 62
   252
100
AcDbVertex
100
AcDb2dVertex
 10
255.6135439905
 20
38.1805678773
 30
0.0
 70
     8
  0
VERTEX
  5
201
330
1FD
100
AcDbEntity
  8
0
  6
Continuous
 62
   252
100
AcDbVertex
100
AcDb2dVertex
 10
255.6135439905
 20
36.6370193588
 30
0.0
 70
     8
  0
VERTEX
  5
202
330
1FD
100
AcDbEntity
  8
0
  6
Continuous
 62
   252
100
AcDbVertex
100
AcDb2dVertex
 10
255.4917076643
 20
36.5811499034
 30
0.0
 70
     8
  0
VERTEX
  5
203
330
1FD
100
AcDbEntity
  8
0
  6
Continuous
 62
   252
100
AcDbVertex
100
AcDb2dVertex
 10
255.3666502755
 20
36.5312699569
 30
0.0
 70
     8
  0
VERTEX
  5
204
330
1FD
100
AcDbEntity
  8
0
  6
Continuous
 62
   252
100
AcDbVertex
100
AcDb2dVertex
 10
255.2388185719
 20
36.4876421943
 30
0.0
 70
     8
  0
VERTEX
  5
205
330
1FD
100
AcDbEntity
  8
0
  6
Continuous
 62
   252
100
AcDbVertex
100
AcDb2dVertex
 10
255.1086865833
 20
36.4504842116
 30
0.0
 70
     8
  0
VERTEX
  5
206
330
1FD
100
AcDbEntity
  8
0
  6
Continuous
 62
   252
100
AcDbVertex
100
AcDb2dVertex
 10
254.9767498485
 20
36.4199651314
 30
0.0
 70
     8
  0
VERTEX
  5
207
330
1FD
100
AcDbEntity
  8
0
  6
Continuous
 62
   252
100
AcDbVertex
100
AcDb2dVertex
 10
254.8435191598
 20
36.3962031082
 30
0.0
 70
     8
  0
VERTEX
  5
208
330
1FD
100
AcDbEntity
  8
0
  6
Continuous
 62
   252
100
AcDbVertex
100
AcDb2dVertex
 10
254.7095139876
 20
36.3792638072
 30
0.0
 70
     8
  0
VERTEX
  5
209
330
1FD
100
AcDbEntity
  8
0
  6
Continuous
 62
   252
100
AcDbVertex
100
AcDb2dVertex
 10
254.5752557641
 20
36.3691598987
 30
0.0
 70
     8
  0
VERTEX
  5
20A
330
1FD
100
AcDbEntity
  8
0
  6
Continuous
 62
   252
100
AcDbVertex
100
AcDb2dVertex
 10
254.4412612067
 20
36.3658515727
 30
0.0
 70
     8
  0
VERTEX
  5
20B
330
1FD
100
AcDbEntity
  8
0
  6
Continuous
 62
   252
100
AcDbVertex
100
AcDb2dVertex
 10
254.315268475
 20
36.3666844677
 30
0.0
 70
     8
  0
VERTEX
  5
20C
330
1FD
100
AcDbEntity
  8
0
  6
Continuous
 62
   252
100
AcDbVertex
100
AcDb2dVertex
 10
254.1968082341
 20
36.3770632817
 30
0.0
 70
     8
  0
VERTEX
  5
20D
330
1FD
100
AcDbEntity
  8
0
  6
Continuous
 62
   252
100
AcDbVertex
100
AcDb2dVertex
 10
254.0858119387
 20
36.3959262428
 30
0.0
 70
     8
  0
VERTEX
  5
20E
330
1FD
100
AcDbEntity
  8
0
  6
Continuous
 62
   252
100
AcDbVertex
100
AcDb2dVertex
 10
253.9822110438
 20
36.4222115792
 30
0.0
 70
     8
  0
VERTEX
  5
20F
330
1FD
100
AcDbEntity
  8
0
  6
Continuous
 62
   252
100
AcDbVertex
100
AcDb2dVertex
 10
253.8859370043
 20
36.4548575189
 30
0.0
 70
     8
  0
VERTEX
  5
210
330
1FD
100
AcDbEntity
  8
0
  6
Continuous
 62
   252
100
AcDbVertex
100
AcDb2dVertex
 10
253.7969212752
 20
36.49280229
 30
0.0
 70
     8
  0
VERTEX
  5
211
330
1FD
100
AcDbEntity
  8
0
  6
Continuous
 62
   252
100
AcDbVertex
100
AcDb2dVertex
 10
253.676857071
 20
36.5573321296
 30
0.0
 70
     8
  0
VERTEX
  5
212
330
1FD
100
AcDbEntity
  8
0
  6
Continuous
 62
   252
100
AcDbVertex
100
AcDb2dVertex
 10
253.5727384988
 20
36.627811873
 30
0.0
 70
     8
  0
VERTEX
  5
213
330
1FD
100
AcDbEntity
  8
0
  6
Continuous
 62
   252
100
AcDbVertex
100
AcDb2dVertex
 10
253.4894514104
 20
36.6964755179
 30
0.0
 70
     8
  0
VERTEX
  5
214
330
1FD
100
AcDbEntity
  8
0
  6
Continuous
 62
   252
100
AcDbVertex
100
AcDb2dVertex
 10
253.4173294851
 20
36.7688379373
 30
0.0
 70
     8
  0
VERTEX
  5
215
330
1FD
100
AcDbEntity
  8
0
  6
Continuous
 62
   252
100
AcDbVertex
100
AcDb2dVertex
 10
253.3538819172
 20
36.846541446
 30
0.0
 70
     8
  0
VERTEX
  5
216
330
1FD
100
AcDbEntity
  8
0
  6
Continuous
 62
   252
100
AcDbVertex
100
AcDb2dVertex
 10
253.2966179009
 20
36.9312283587
 30
0.0
 70
     8
  0
VERTEX
  5
217
330
1FD
100
AcDbEntity
  8
0
  6
Continuous
 62
   252
100
AcDbVertex
100
AcDb2dVertex
 10
253.2430466306
 20
37.0245409904
 30
0.0
 70
     8
  0
VERTEX
  5
218
330
1FD
100
AcDbEntity
  8
0
  6
Continuous
 62
   252
100
AcDbVertex
100
AcDb2dVertex
 10
253.1906773005
 20
37.1281216558
 30
0.0
 70
     8
  0
VERTEX
  5
219
330
1FD
100
AcDbEntity
  8
0
  6
Continuous
 62
   252
100
AcDbVertex
100
AcDb2dVertex
 10
253.13650562
 20
37.2474244416
 30
0.0
 70
     8
  0
VERTEX
  5
21A
330
1FD
100
AcDbEntity
  8
0
  6
Continuous
 62
   252
100
AcDbVertex
100
AcDb2dVertex
 10
253.0844135449
 20
37.3835357294
 30
0.0
 70
     8
  0
VERTEX
  5
21B
330
1FD
100
AcDbEntity
  8
0
  6
Continuous
 62
   252
100
AcDbVertex
100
AcDb2dVertex
 10
253.052540241
 20
37.4857011132
 30
0.0
 70
     8
  0
VERTEX
  5
21C
330
1FD
100
AcDbEntity
  8
0
  6
Continuous
 62
   252
100
AcDbVertex
100
AcDb2dVertex
 10
253.0241403208
 20
37.5984666451
 30
0.0
 70
     8
  0
VERTEX
  5
21D
330
1FD
100
AcDbEntity
  8
0
  6
Continuous
 62
   252
100
AcDbVertex
100
AcDb2dVertex
 10
253.0002334302
 20
37.7230842064
 30
0.0
 70
     8
  0
VERTEX
  5
21E
330
1FD
100
AcDbEntity
  8
0
  6
Continuous
 62
   252
100
AcDbVertex
100
AcDb2dVertex
 10
252.9818392151
 20
37.860805678
 30
0.0
 70
     8
  0
VERTEX
  5
21F
330
1FD
100
AcDbEntity
  8
0
  6
Continuous
 62
   252
100
AcDbVertex
100
AcDb2dVertex
 10
252.9699773213
 20
38.0128829413
 30
0.0
 70
     8
  0
VERTEX
  5
220
330
1FD
100
AcDbEntity
  8
0
  6
Continuous
 62
   252
100
AcDbVertex
100
AcDb2dVertex
 10
252.9656673948
 20
38.1805678773
 30
0.0
 70
     8
  0
VERTEX
  5
221
330
1FD
100
AcDbEntity
  8
0
  6
Continuous
 62
   252
100
AcDbVertex
100
AcDb2dVertex
 10
252.9712120571
 20
38.3482528133
 30
0.0
 70
     8
  0
VERTEX
  5
222
330
1FD
100
AcDbEntity
  8
0
  6
Continuous
 62
   252
100
AcDbVertex
100
AcDb2dVertex
 10
252.9864722231
 20
38.5003300765
 30
0.0
 70
     8
  0
VERTEX
  5
223
330
1FD
100
AcDbEntity
  8
0
  6
Continuous
 62
   252
100
AcDbVertex
100
AcDb2dVertex
 10
253.0101361323
 20
38.6380515482
 30
0.0
 70
     8
  0
VERTEX
  5
224
330
1FD
100
AcDbEntity
  8
0
  6
Continuous
 62
   252
100
AcDbVertex
100
AcDb2dVertex
 10
253.0408920239
 20
38.7626691095
 30
0.0
 70
     8
  0
VERTEX
  5
225
330
1FD
100
AcDbEntity
  8
0
  6
Continuous
 62
   252
100
AcDbVertex
100
AcDb2dVertex
 10
253.0774281375
 20
38.8754346414
 30
0.0
 70
     8
  0
VERTEX
  5
226
330
1FD
100
AcDbEntity
  8
0
  6
Continuous
 62
   252
100
AcDbVertex
100
AcDb2dVertex
 10
253.1184327123
 20
38.9776000251
 30
0.0
 70
     8
  0
VERTEX
  5
227
330
1FD
100
AcDbEntity
  8
0
  6
Continuous
 62
   252
100
AcDbVertex
100
AcDb2dVertex
 10
253.1854484629
 20
39.113711313
 30
0.0
 70
     8
  0
VERTEX
  5
228
330
1FD
100
AcDbEntity
  8
0
  6
Continuous
 62
   252
100
AcDbVertex
100
AcDb2dVertex
 10
253.2551395978
 20
39.2330140988
 30
0.0
 70
     8
  0
VERTEX
  5
229
330
1FD
100
AcDbEntity
  8
0
  6
Continuous
 62
   252
100
AcDbVertex
100
AcDb2dVertex
 10
253.3225120333
 20
39.3365947642
 30
0.0
 70
     8
  0
VERTEX
  5
22A
330
1FD
100
AcDbEntity
  8
0
  6
Continuous
 62
   252
100
AcDbVertex
100
AcDb2dVertex
 10
253.3914307487
 20
39.4299073959
 30
0.0
 70
     8
  0
VERTEX
  5
22B
330
1FD
100
AcDbEntity
  8
0
  6
Continuous
 62
   252
100
AcDbVertex
100
AcDb2dVertex
 10
253.4651001317
 20
39.5145943086
 30
0.0
 70
     8
  0
VERTEX
  5
22C
330
1FD
100
AcDbEntity
  8
0
  6
Continuous
 62
   252
100
AcDbVertex
100
AcDb2dVertex
 10
253.5467245705
 20
39.5922978172
 30
0.0
 70
     8
  0
VERTEX
  5
22D
330
1FD
100
AcDbEntity
  8
0
  6
Continuous
 62
   252
100
AcDbVertex
100
AcDb2dVertex
 10
253.6395084528
 20
39.6646602366
 30
0.0
 70
     8
  0
VERTEX
  5
22E
330
1FD
100
AcDbEntity
  8
0
  6
Continuous
 62
   252
100
AcDbVertex
100
AcDb2dVertex
 10
253.7466561665
 20
39.7333238816
 30
0.0
 70
     8
  0
VERTEX
  5
22F
330
1FD
100
AcDbEntity
  8
0
  6
Continuous
 62
   252
100
AcDbVertex
100
AcDb2dVertex
 10
253.8336896386
 20
39.7807945161
 30
0.0
 70
     8
  0
VERTEX
  5
230
330
1FD
100
AcDbEntity
  8
0
  6
Continuous
 62
   252
100
AcDbVertex
100
AcDb2dVertex
 10
253.929796282
 20
39.8261516372
 30
0.0
 70
     8
  0
VERTEX
  5
231
330
1FD
100
AcDbEntity
  8
0
  6
Continuous
 62
   252
100
AcDbVertex
100
AcDb2dVertex
 10
254.0350642788
 20
39.8683334757
 30
0.0
 70
     8
  0
VERTEX
  5
232
330
1FD
100
AcDbEntity
  8
0
  6
Continuous
 62
   252
100
AcDbVertex
100
AcDb2dVertex
 10
254.1495818114
 20
39.906278262
 30
0.0
 70
     8
  0
VERTEX
  5
233
330
1FD
100
AcDbEntity
  8
0
  6
Continuous
 62
   252
100
AcDbVertex
100
AcDb2dVertex
 10
254.2734370621
 20
39.9389242267
 30
0.0
 70
     8
  0
VERTEX
  5
234
330
1FD
100
AcDbEntity
  8
0
  6
Continuous
 62
   252
100
AcDbVertex
100
AcDb2dVertex
 10
254.4067182134
 20
39.9652096004
 30
0.0
 70
     8
  0
VERTEX
  5
235
330
1FD
100
AcDbEntity
  8
0
  6
Continuous
 62
   252
100
AcDbVertex
100
AcDb2dVertex
 10
254.5495134474
 20
39.9840726136
 30
0.0
 70
     8
  0
VERTEX
  5
236
330
1FD
100
AcDbEntity
  8
0
  6
Continuous
 62
   252
100
AcDbVertex
100
AcDb2dVertex
 10
254.7019109465
 20
39.9944514969
 30
0.0
 70
     8
  0
VERTEX
  5
237
330
1FD
100
AcDbEntity
  8
0
  6
Continuous
 62
   252
100
AcDbVertex
100
AcDb2dVertex
 10
254.8639988931
 20
39.9952844809
 30
0.0
 70
     8
  0
VERTEX
  5
238
330
1FD
100
AcDbEntity
  8
0
  6
Continuous
 62
   252
100
AcDbVertex
100
AcDb2dVertex
 10
255.0940677016
 20
39.9879170545
 30
0.0
 70
     8
  0
VERTEX
  5
239
330
1FD
100
AcDbEntity
  8
0
  6
Continuous
 62
   252
100
AcDbVertex
100
AcDb2dVertex
 10
255.3248685654
 20
39.9656491141
 30
0.0
 70
     8
  0
VERTEX
  5
23A
330
1FD
100
AcDbEntity
  8
0
  6
Continuous
 62
   252
100
AcDbVertex
100
AcDb2dVertex
 10
255.5549550681
 20
39.9283387189
 30
0.0
 70
     8
  0
VERTEX
  5
23B
330
1FD
100
AcDbEntity
  8
0
  6
Continuous
 62
   252
100
AcDbVertex
100
AcDb2dVertex
 10
255.782859282
 20
39.8760316822
 30
0.0
 70
     8
  0
VERTEX
  5
23C
330
1FD
100
AcDbEntity
  8
0
  6
Continuous
 62
   252
100
AcDbVertex
100
AcDb2dVertex
 10
256.0071223381
 20
39.8089645714
 30
0.0
 70
     8
  0
VERTEX
  5
23D
330
1FD
100
AcDbEntity
  8
0
  6
Continuous
 62
   252
100
AcDbVertex
100
AcDb2dVertex
 10
256.2263252903
 20
39.7275617303
 30
0.0
 70
     8
  0
VERTEX
  5
23E
330
1FD
100
AcDbEntity
  8
0
  6
Continuous
 62
   252
100
AcDbVertex
100
AcDb2dVertex
 10
256.4391189154
 20
39.6324263667
 30
0.0
 70
     8
  0
VERTEX
  5
23F
330
1FD
100
AcDbEntity
  8
0
  6
Continuous
 62
   252
100
AcDbVertex
100
AcDb2dVertex
 10
256.6442511451
 20
39.5243260974
 30
0.0
 70
     8
  0
VERTEX
  5
240
330
1FD
100
AcDbEntity
  8
0
  6
Continuous
 62
   252
100
AcDbVertex
100
AcDb2dVertex
 10
256.8405909692
 20
39.4041736566
 30
0.0
 70
     8
  0
VERTEX
  5
241
330
1FD
100
AcDbEntity
  8
0
  6
Continuous
 62
   252
100
AcDbVertex
100
AcDb2dVertex
 10
256.8405909692
 20
40.4379780123
 30
0.0
 70
     8
  0
VERTEX
  5
242
330
1FD
100
AcDbEntity
  8
0
  6
Continuous
 62
   252
100
AcDbVertex
100
AcDb2dVertex
 10
256.601590007
 20
40.5461153213
 30
0.0
 70
     8
  0
VERTEX
  5
243
330
1FD
100
AcDbEntity
  8
0
  6
Continuous
 62
   252
100
AcDbVertex
100
AcDb2dVertex
 10
256.3564343849
 20
40.6426451417
 30
0.0
 70
     8
  0
VERTEX
  5
244
330
1FD
100
AcDbEntity
  8
0
  6
Continuous
 62
   252
100
AcDbVertex
100
AcDb2dVertex
 10
256.1059791868
 20
40.7270720113
 30
0.0
 70
     8
  0
VERTEX
  5
245
330
1FD
100
AcDbEntity
  8
0
  6
Continuous
 62
   252
100
AcDbVertex
100
AcDb2dVertex
 10
255.8511302915
 20
40.7989856498
 30
0.0
 70
     8
  0
VERTEX
  5
246
330
1FD
100
AcDbEntity
  8
0
  6
Continuous
 62
   252
100
AcDbVertex
100
AcDb2dVertex
 10
255.5928336084
 20
40.8580671974
 30
0.0
 70
     8
  0
VERTEX
  5
247
330
1FD
100
AcDbEntity
  8
0
  6
Continuous
 62
   252
100
AcDbVertex
100
AcDb2dVertex
 10
255.3320634358
 20
40.9040937976
 30
0.0
 70
     8
  0
VERTEX
  5
248
330
1FD
100
AcDbEntity
  8
0
  6
Continuous
 62
   252
100
AcDbVertex
100
AcDb2dVertex
 10
255.0698102412
 20
40.9369413929
 30
0.0
 70
     8
  0
VERTEX
  5
249
330
1FD
100
AcDbEntity
  8
0
  6
Continuous
 62
   252
100
AcDbVertex
100
AcDb2dVertex
 10
254.807068185
 20
40.9565856576
 30
0.0
 70
     8
  0
VERTEX
  5
24A
330
1FD
100
AcDbEntity
  8
0
  6
Continuous
 62
   252
100
AcDbVertex
100
AcDb2dVertex
 10
254.5448227139
 20
40.9631010597
 30
0.0
 70
     8
  0
VERTEX
  5
24B
330
1FD
100
AcDbEntity
  8
0
  6
Continuous
 62
   252
100
AcDbVertex
100
AcDb2dVertex
 10
254.2860473983
 20
40.9618239614
 30
0.0
 70
     8
  0
VERTEX
  5
24C
330
1FD
100
AcDbEntity
  8
0
  6
Continuous
 62
   252
100
AcDbVertex
100
AcDb2dVertex
 10
254.0427429962
 20
40.9459114658
 30
0.0
 70
     8
  0
VERTEX
  5
24D
330
1FD
100
AcDbEntity
  8
0
  6
Continuous
 62
   252
100
AcDbVertex
100
AcDb2dVertex
 10
253.8147687234
 20
40.9169914358
 30
0.0
 70
     8
  0
VERTEX
  5
24E
330
1FD
100
AcDbEntity
  8
0
  6
Continuous
 62
   252
100
AcDbVertex
100
AcDb2dVertex
 10
253.6019837959
 20
40.8766917347
 30
0.0
 70
     8
  0
VERTEX
  5
24F
330
1FD
100
AcDbEntity
  8
0
  6
Continuous
 62
   252
100
AcDbVertex
100
AcDb2dVertex
 10
253.4042474295
 20
40.8266402256
 30
0.0
 70
     8
  0
VERTEX
  5
250
330
1FD
100
AcDbEntity
  8
0
  6
Continuous
 62
   252
100
AcDbVertex
100
AcDb2dVertex
 10
253.22141884
 20
40.7684647716
 30
0.0
 70
     8
  0
VERTEX
  5
251
330
1FD
100
AcDbEntity
  8
0
  6
Continuous
 62
   252
100
AcDbVertex
100
AcDb2dVertex
 10
253.0533572434
 20
40.7037932359
 30
0.0
 70
     8
  0
VERTEX
  5
252
330
1FD
100
AcDbEntity
  8
0
  6
Continuous
 62
   252
100
AcDbVertex
100
AcDb2dVertex
 10
252.8999218555
 20
40.6342534816
 30
0.0
 70
     8
  0
VERTEX
  5
253
330
1FD
100
AcDbEntity
  8
0
  6
Continuous
 62
   252
100
AcDbVertex
100
AcDb2dVertex
 10
252.7609718923
 20
40.5614733719
 30
0.0
 70
     8
  0
VERTEX
  5
254
330
1FD
100
AcDbEntity
  8
0
  6
Continuous
 62
   252
100
AcDbVertex
100
AcDb2dVertex
 10
252.6441295306
 20
40.4917975203
 30
0.0
 70
     8
  0
VERTEX
  5
255
330
1FD
100
AcDbEntity
  8
0
  6
Continuous
 62
   252
100
AcDbVertex
100
AcDb2dVertex
 10
252.5382370832
 20
40.4199743332
 30
0.0
 70
     8
  0
VERTEX
  5
256
330
1FD
100
AcDbEntity
  8
0
  6
Continuous
 62
   252
100
AcDbVertex
100
AcDb2dVertex
 10
252.4417787447
 20
40.3452577566
 30
0.0
 70
     8
  0
VERTEX
  5
257
330
1FD
100
AcDbEntity
  8
0
  6
Continuous
 62
   252
100
AcDbVertex
100
AcDb2dVertex
 10
252.3532387098
 20
40.2669017365
 30
0.0
 70
     8
  0
VERTEX
  5
258
330
1FD
100
AcDbEntity
  8
0
  6
Continuous
 62
   252
100
AcDbVertex
100
AcDb2dVertex
 10
252.2711011731
 20
40.1841602188
 30
0.0
 70
     8
  0
VERTEX
  5
259
330
1FD
100
AcDbEntity
  8
0
  6
Continuous
 62
   252
100
AcDbVertex
100
AcDb2dVertex
 10
252.1938503293
 20
40.0962871494
 30
0.0
 70
     8
  0
VERTEX
  5
25A
330
1FD
100
AcDbEntity
  8
0
  6
Continuous
 62
   252
100
AcDbVertex
100
AcDb2dVertex
 10
252.0838207886
 20
39.9532238926
 30
0.0
 70
     8
  0
VERTEX
  5
25B
330
1FD
100
AcDbEntity
  8
0
  6
Continuous
 62
   252
100
AcDbVertex
100
AcDb2dVertex
 10
251.9762599019
 20
39.7944180903
 30
0.0
 70
     8
  0
VERTEX
  5
25C
330
1FD
100
AcDbEntity
  8
0
  6
Continuous
 62
   252
100
AcDbVertex
100
AcDb2dVertex
 10
251.9019592101
 20
39.6750213233
 30
0.0
 70
     8
  0
VERTEX
  5
25D
330
1FD
100
AcDbEntity
  8
0
  6
Continuous
 62
   252
100
AcDbVertex
100
AcDb2dVertex
 10
251.8285097454
 20
39.5451308309
 30
0.0
 70
     8
  0
VERTEX
  5
25E
330
1FD
100
AcDbEntity
  8
0
  6
Continuous
 62
   252
100
AcDbVertex
100
AcDb2dVertex
 10
251.7580057492
 20
39.402827278
 30
0.0
 70
     8
  0
VERTEX
  5
25F
330
1FD
100
AcDbEntity
  8
0
  6
Continuous
 62
   252
100
AcDbVertex
100
AcDb2dVertex
 10
251.6925414626
 20
39.2461913299
 30
0.0
 70
     8
  0
VERTEX
  5
260
330
1FD
100
AcDbEntity
  8
0
  6
Continuous
 62
   252
100
AcDbVertex
100
AcDb2dVertex
 10
251.6342111271
 20
39.0733036514
 30
0.0
 70
     8
  0
VERTEX
  5
261
330
1FD
100
AcDbEntity
  8
0
  6
Continuous
 62
   252
100
AcDbVertex
100
AcDb2dVertex
 10
251.5851089838
 20
38.8822449078
 30
0.0
 70
     8
  0
VERTEX
  5
262
330
1FD
100
AcDbEntity
  8
0
  6
Continuous
 62
   252
100
AcDbVertex
100
AcDb2dVertex
 10
251.5473292742
 20
38.671095764
 30
0.0
 70
     8
  0
VERTEX
  5
263
330
1FD
100
AcDbEntity
  8
0
  6
Continuous
 62
   252
100
AcDbVertex
100
AcDb2dVertex
 10
251.5229662394
 20
38.4379368852
 30
0.0
 70
     8
  0
VERTEX
  5
264
330
1FD
100
AcDbEntity
  8
0
  6
Continuous
 62
   252
100
AcDbVertex
100
AcDb2dVertex
 10
251.5141141208
 20
38.1808489365
 30
0.0
 70
     8
  0
VERTEX
  5
265
330
1FD
100
AcDbEntity
  8
0
  6
Continuous
 62
   252
100
AcDbVertex
100
AcDb2dVertex
 10
251.514113814
 20
38.1805678629
 30
0.0
 70
     8
  0
VERTEX
  5
266
330
1FD
100
AcDbEntity
  8
0
  6
Continuous
 62
   252
100
AcDbVertex
100
AcDb2dVertex
 10
251.5141141208
 20
38.1802868181
 30
0.0
 70
     8
  0
VERTEX
  5
267
330
1FD
100
AcDbEntity
  8
0
  6
Continuous
 62
   252
100
AcDbVertex
100
AcDb2dVertex
 10
251.5229662394
 20
37.9231988694
 30
0.0
 70
     8
  0
VERTEX
  5
268
330
1FD
100
AcDbEntity
  8
0
  6
Continuous
 62
   252
100
AcDbVertex
100
AcDb2dVertex
 10
251.5473292742
 20
37.6900399906
 30
0.0
 70
     8
  0
VERTEX
  5
269
330
1FD
100
AcDbEntity
  8
0
  6
Continuous
 62
   252
100
AcDbVertex
100
AcDb2dVertex
 10
251.5851089838
 20
37.4788908468
 30
0.0
 70
     8
  0
VERTEX
  5
26A
330
1FD
100
AcDbEntity
  8
0
  6
Continuous
 62
   252
100
AcDbVertex
100
AcDb2dVertex
 10
251.6342111271
 20
37.2878321032
 30
0.0
 70
     8
  0
VERTEX
  5
26B
330
1FD
100
AcDbEntity
  8
0
  6
Continuous
 62
   252
100
AcDbVertex
100
AcDb2dVertex
 10
251.6925414626
 20
37.1149444247
 30
0.0
 70
     8
  0
VERTEX
  5
26C
330
1FD
100
AcDbEntity
  8
0
  6
Continuous
 62
   252
100
AcDbVertex
100
AcDb2dVertex
 10
251.7580057492
 20
36.9583084765
 30
0.0
 70
     8
  0
VERTEX
  5
26D
330
1FD
100
AcDbEntity
  8
0
  6
Continuous
 62
   252
100
AcDbVertex
100
AcDb2dVertex
 10
251.8285097454
 20
36.8160049237
 30
0.0
 70
     8
  0
VERTEX
  5
26E
330
1FD
100
AcDbEntity
  8
0
  6
Continuous
 62
   252
100
AcDbVertex
100
AcDb2dVertex
 10
251.9019592101
 20
36.6861144312
 30
0.0
 70
     8
  0
VERTEX
  5
26F
330
1FD
100
AcDbEntity
  8
0
  6
Continuous
 62
   252
100
AcDbVertex
100
AcDb2dVertex
 10
251.9762599019
 20
36.5667176643
 30
0.0
 70
     8
  0
VERTEX
  5
270
330
1FD
100
AcDbEntity
  8
0
  6
Continuous
 62
   252
100
AcDbVertex
100
AcDb2dVertex
 10
252.0838207886
 20
36.407911862
 30
0.0
 70
     8
  0
VERTEX
  5
271
330
1FD
100
AcDbEntity
  8
0
  6
Continuous
 62
   252
100
AcDbVertex
100
AcDb2dVertex
 10
252.1938503293
 20
36.2648486052
 30
0.0
 70
     8
  0
VERTEX
  5
272
330
1FD
100
AcDbEntity
  8
0
  6
Continuous
 62
   252
100
AcDbVertex
100
AcDb2dVertex
 10
252.2711011731
 20
36.1769755358
 30
0.0
 70
     8
  0
VERTEX
  5
273
330
1FD
100
AcDbEntity
  8
0
  6
Continuous
 62
   252
100
AcDbVertex
100
AcDb2dVertex
 10
252.3532387098
 20
36.094234018
 30
0.0
 70
     8
  0
VERTEX
  5
274
330
1FD
100
AcDbEntity
  8
0
  6
Continuous
 62
   252
100
AcDbVertex
100
AcDb2dVertex
 10
252.4417787447
 20
36.015877998
 30
0.0
 70
     8
  0
VERTEX
  5
275
330
1FD
100
AcDbEntity
  8
0
  6
Continuous
 62
   252
100
AcDbVertex
100
AcDb2dVertex
 10
252.5382370832
 20
35.9411614214
 30
0.0
 70
     8
  0
VERTEX
  5
276
330
1FD
100
AcDbEntity
  8
0
  6
Continuous
 62
   252
100
AcDbVertex
100
AcDb2dVertex
 10
252.6441295306
 20
35.8693382343
 30
0.0
 70
     8
  0
VERTEX
  5
277
330
1FD
100
AcDbEntity
  8
0
  6
Continuous
 62
   252
100
AcDbVertex
100
AcDb2dVertex
 10
252.7609718923
 20
35.7996623827
 30
0.0
 70
     8
  0
VERTEX
  5
278
330
1FD
100
AcDbEntity
  8
0
  6
Continuous
 62
   252
100
AcDbVertex
100
AcDb2dVertex
 10
252.8999218555
 20
35.726882273
 30
0.0
 70
     8
  0
VERTEX
  5
279
330
1FD
100
AcDbEntity
  8
0
  6
Continuous
 62
   252
100
AcDbVertex
100
AcDb2dVertex
 10
253.0533572434
 20
35.6573425187
 30
0.0
 70
     8
  0
VERTEX
  5
27A
330
1FD
100
AcDbEntity
  8
0
  6
Continuous
 62
   252
100
AcDbVertex
100
AcDb2dVertex
 10
253.22141884
 20
35.592670983
 30
0.0
 70
     8
  0
VERTEX
  5
27B
330
1FD
100
AcDbEntity
  8
0
  6
Continuous
 62
   252
100
AcDbVertex
100
AcDb2dVertex
 10
253.4042474294
 20
35.534495529
 30
0.0
 70
     8
  0
VERTEX
  5
27C
330
1FD
100
AcDbEntity
  8
0
  6
Continuous
 62
   252
100
AcDbVertex
100
AcDb2dVertex
 10
253.6019837959
 20
35.4844440199
 30
0.0
 70
     8
  0
VERTEX
  5
27D
330
1FD
100
AcDbEntity
  8
0
  6
Continuous
 62
   252
100
AcDbVertex
100
AcDb2dVertex
 10
253.8147687234
 20
35.4441443188
 30
0.0
 70
     8
  0
VERTEX
  5
27E
330
1FD
100
AcDbEntity
  8
0
  6
Continuous
 62
   252
100
AcDbVertex
100
AcDb2dVertex
 10
254.0427429962
 20
35.4152242888
 30
0.0
 70
     8
  0
VERTEX
  5
27F
330
1FD
100
AcDbEntity
  8
0
  6
Continuous
 62
   252
100
AcDbVertex
100
AcDb2dVertex
 10
254.2860473983
 20
35.3993117931
 30
0.0
 70
     8
  0
VERTEX
  5
280
330
1FD
100
AcDbEntity
  8
0
  6
Continuous
 62
   252
100
AcDbVertex
100
AcDb2dVertex
 10
254.5448227139
 20
35.3980346949
 30
0.0
 70
     8
  0
VERTEX
  5
281
330
1FD
100
AcDbEntity
  8
0
  6
Continuous
 62
   252
100
AcDbVertex
100
AcDb2dVertex
 10
254.8290512573
 20
35.4058495245
 30
0.0
 70
     8
  0
VERTEX
  5
282
330
1FD
100
AcDbEntity
  8
0
  6
Continuous
 62
   252
100
AcDbVertex
100
AcDb2dVertex
 10
255.1139423257
 20
35.4294385802
 30
0.0
 70
     8
  0
VERTEX
  5
283
330
1FD
100
AcDbEntity
  8
0
  6
Continuous
 62
   252
100
AcDbVertex
100
AcDb2dVertex
 10
255.398183512
 20
35.4689119638
 30
0.0
 70
     8
  0
VERTEX
  5
284
330
1FD
100
AcDbEntity
  8
0
  6
Continuous
 62
   252
100
AcDbVertex
100
AcDb2dVertex
 10
255.6804481219
 20
35.5242338773
 30
0.0
 70
     8
  0
VERTEX
  5
285
330
1FD
100
AcDbEntity
  8
0
  6
Continuous
 62
   252
100
AcDbVertex
100
AcDb2dVertex
 10
255.9594155003
 20
35.5952209174
 30
0.0
 70
     8
  0
VERTEX
  5
286
330
1FD
100
AcDbEntity
  8
0
  6
Continuous
 62
   252
100
AcDbVertex
100
AcDb2dVertex
 10
256.2337914998
 20
35.6815437708
 30
0.0
 70
     8
  0
VERTEX
  5
287
330
1FD
100
AcDbEntity
  8
0
  6
Continuous
 62
   252
100
AcDbVertex
100
AcDb2dVertex
 10
256.5023284311
 20
35.7827322904
 30
0.0
 70
     8
  0
VERTEX
  5
288
330
1FD
100
AcDbEntity
  8
0
  6
Continuous
 62
   252
100
AcDbVertex
100
AcDb2dVertex
 10
256.7638438523
 20
35.8981837907
 30
0.0
 70
     8
  0
VERTEX
  5
289
330
1FD
100
AcDbEntity
  8
0
  6
Continuous
 62
   252
100
AcDbVertex
100
AcDb2dVertex
 10
257.0172376075
 20
36.0271742603
 30
0.0
 70
     8
  0
SEQEND
  5
28A
330
1FD
100
AcDbEntity
  8
0
  6
Continuous
 62
   252
 48
25.4
370
     0
  0
HATCH
  5
28B
330
1F
100
AcDbEntity
  8
0
  6
Continuous
 62
   252
 48
25.4
100
AcDbHatch
 10
0.0
 20
0.0
 30
0.0
210
0.0
220
0.0
230
1.0
  2
SOLID
 70
     1
 71
     0
 91
        1
 92
        1
 93
       81
 72
     1
 10
262.6239249654454
 20
39.16238211211095
 11
262.6183255861878
 21
39.31451473095851
 72
     1
 10
262.6183255861878
 20
39.31451473095851
 11
262.6029148266429
 21
39.45248724584885
 72
     1
 10
262.6029148266429
 20
39.45248724584885
 11
262.5790173924239
 21
39.57743542938494
 72
     1
 10
262.5790173924239
 20
39.57743542938494
 11
262.5479579891439
 21
39.69049505416997
 72
     1
 10
262.5479579891439
 20
39.69049505416997
 11
262.5110613224161
 21
39.79280189280701
 72
     1
 10
262.5110613224161
 20
39.79280189280701
 11
262.4696520978538
 21
39.88549171789915
 72
     1
 10
262.4696520978538
 20
39.88549171789915
 11
262.4019750085993
 21
40.00897905770998
 72
     1
 10
262.4019750085993
 20
40.00897905770998
 11
262.331596133291
 21
40.1172168379372
 72
     1
 10
262.331596133291
 20
40.1172168379372
 11
262.2635588392811
 21
40.21119068116039
 72
     1
 10
262.2635588392811
 20
40.21119068116039
 11
262.193960006104
 21
40.29584882257234
 72
     1
 10
262.193960006104
 20
40.29584882257234
 11
262.1195636236611
 21
40.37268125681001
 72
     1
 10
262.1195636236611
 20
40.37268125681001
 11
262.0371336818544
 21
40.44317797851013
 72
     1
 10
262.0371336818544
 20
40.44317797851013
 11
261.9434341705854
 21
40.50882898230954
 72
     1
 10
261.9434341705854
 20
40.50882898230954
 11
261.8352290797561
 21
40.57112426284512
 72
     1
 10
261.8352290797561
 20
40.57112426284512
 11
261.6999600990802
 21
40.63506720493096
 72
     1
 10
261.6999600990802
 20
40.63506720493096
 11
261.5439748392668
 21
40.69361208797515
 72
     1
 10
261.5439748392668
 20
40.69361208797515
 11
261.4283272011857
 21
40.72803759958529
 72
     1
 10
261.4283272011857
 20
40.72803759958529
 11
261.303249696572
 21
40.75765574074933
 72
     1
 10
261.303249696572
 20
40.75765574074933
 11
261.1686532728818
 21
40.78150321822962
 72
     1
 10
261.1686532728818
 20
40.78150321822962
 11
261.024448877571
 21
40.79861673878845
 72
     1
 10
261.024448877571
 20
40.79861673878845
 11
260.8705474580954
 21
40.8080330091882
 72
     1
 10
260.8705474580954
 20
40.8080330091882
 11
260.7068599619111
 21
40.80878873619118
 72
     1
 10
260.7068599619111
 20
40.80878873619118
 11
258.1577386713706
 21
40.80878873619118
 72
     1
 10
258.1577386713706
 20
40.80878873619118
 11
258.1577386713706
 21
35.55234701839968
 72
     1
 10
258.1577386713706
 20
35.55234701839968
 11
259.5534567564768
 21
35.55234701839968
 72
     1
 10
259.5534567564768
 20
35.55234701839968
 11
259.5534567564768
 21
39.80397004924694
 72
     1
 10
259.5534567564768
 20
39.80397004924694
 11
260.4576246130663
 21
39.80397004924694
 72
     1
 10
260.4576246130663
 20
39.80397004924694
 11
260.5589290341562
 21
39.80171486896075
 72
     1
 10
260.5589290341562
 20
39.80171486896075
 11
260.6510526174439
 21
39.79011577462302
 72
     1
 10
260.6510526174439
 20
39.79011577462302
 11
260.7341212530998
 21
39.77082352601166
 72
     1
 10
260.7341212530998
 20
39.77082352601166
 11
260.8082608312942
 21
39.74548888290466
 72
     1
 10
260.8082608312942
 20
39.74548888290466
 11
260.8735972421977
 21
39.71576260507989
 72
     1
 10
260.8735972421977
 20
39.71576260507989
 11
260.9302563759805
 21
39.68329545231538
 72
     1
 10
260.9302563759805
 20
39.68329545231538
 11
260.9892700245421
 21
39.6407801079148
 72
     1
 10
260.9892700245421
 20
39.6407801079148
 11
261.0382853941597
 21
39.59478732787794
 72
     1
 10
261.0382853941597
 20
39.59478732787794
 11
261.0805153891441
 21
39.54352381403734
 72
     1
 10
261.0805153891441
 20
39.54352381403734
 11
261.109667746029
 21
39.50053847866927
 72
     1
 10
261.109667746029
 20
39.50053847866927
 11
261.1381660323639
 21
39.45282307765288
 72
     1
 10
261.1381660323639
 20
39.45282307765288
 11
261.167645119821
 21
39.39786513497936
 72
     1
 10
261.167645119821
 20
39.39786513497936
 11
261.1959925298107
 21
39.33516419887387
 72
     1
 10
261.1959925298107
 20
39.33516419887387
 11
261.2213355767504
 21
39.26277393808778
 72
     1
 10
261.2213355767504
 20
39.26277393808778
 11
261.2418015750572
 21
39.17874802137247
 72
     1
 10
261.2418015750572
 20
39.17874802137247
 11
261.255517839149
 21
39.08114011747929
 72
     1
 10
261.255517839149
 20
39.08114011747929
 11
261.2606116834426
 21
38.96800389515973
 72
     1
 10
261.2606116834426
 20
38.96800389515973
 11
261.255517839149
 21
38.85486767284016
 72
     1
 10
261.255517839149
 20
38.85486767284016
 11
261.2418015750573
 21
38.75725976894709
 72
     1
 10
261.2418015750573
 20
38.75725976894709
 11
261.2213355767504
 21
38.67323385223184
 72
     1
 10
261.2213355767504
 20
38.67323385223184
 11
261.1959925298107
 21
38.60084359144575
 72
     1
 10
261.1959925298107
 20
38.60084359144575
 11
261.167645119821
 21
38.53814265534025
 72
     1
 10
261.167645119821
 20
38.53814265534025
 11
261.1381660323639
 21
38.48318471266673
 72
     1
 10
261.1381660323639
 20
38.48318471266673
 11
261.1000899037462
 21
38.42065266405633
 72
     1
 10
261.1000899037462
 20
38.42065266405633
 11
261.0600477569616
 21
38.36608129650102
 72
     1
 10
261.0600477569616
 20
38.36608129650102
 11
261.0148266876996
 21
38.31767731183325
 72
     1
 10
261.0148266876996
 20
38.31767731183325
 11
260.9755794551274
 21
38.28434288742347
 72
     1
 10
260.9755794551274
 20
38.28434288742347
 11
260.9302563759805
 21
38.25271233800429
 72
     1
 10
260.9302563759805
 20
38.25271233800429
 11
260.8807801808744
 21
38.22399108997235
 72
     1
 10
260.8807801808744
 20
38.22399108997235
 11
260.8245776008661
 21
38.19724587688337
 72
     1
 10
260.8245776008661
 20
38.19724587688337
 11
260.7615624943485
 21
38.17360624761471
 72
     1
 10
260.7615624943485
 20
38.17360624761471
 11
260.6916487197139
 21
38.15420175104386
 72
     1
 10
260.6916487197139
 20
38.15420175104386
 11
260.6147501353551
 21
38.14016193604827
 72
     1
 10
260.6147501353551
 20
38.14016193604827
 11
260.5307805996647
 21
38.13261635150542
 72
     1
 10
260.5307805996647
 20
38.13261635150542
 11
259.7289184586045
 21
38.13261635147372
 72
     1
 10
259.7289184586045
 20
38.13261635147372
 11
261.6589971820089
 21
35.55234701839968
 72
     1
 10
261.6589971820089
 20
35.55234701839968
 11
263.3897132710516
 21
35.55234701839968
 72
     1
 10
263.3897132710516
 20
35.55234701839968
 11
261.6293117683368
 21
37.66133527362855
 72
     1
 10
261.6293117683368
 20
37.66133527362855
 11
261.7378413884242
 21
37.70626314565115
 72
     1
 10
261.7378413884242
 20
37.70626314565115
 11
261.835229079756
 21
37.75363996137685
 72
     1
 10
261.835229079756
 20
37.75363996137685
 11
261.9434341705854
 21
37.81593524191248
 72
     1
 10
261.9434341705854
 20
37.81593524191248
 11
262.0371336818544
 21
37.88158624571189
 72
     1
 10
262.0371336818544
 20
37.88158624571189
 11
262.1195636236611
 21
37.95208296741201
 72
     1
 10
262.1195636236611
 20
37.95208296741201
 11
262.193960006104
 21
38.02891540164963
 72
     1
 10
262.193960006104
 20
38.02891540164963
 11
262.2635588392811
 21
38.11357354306163
 72
     1
 10
262.2635588392811
 20
38.11357354306163
 11
262.331596133291
 21
38.20754738628471
 72
     1
 10
262.331596133291
 20
38.20754738628471
 11
262.4019750085993
 21
38.31578516651199
 72
     1
 10
262.4019750085993
 20
38.31578516651199
 11
262.4696520978538
 21
38.43927250632282
 72
     1
 10
262.4696520978538
 20
38.43927250632282
 11
262.5110613224161
 21
38.53196233141495
 72
     1
 10
262.5110613224161
 20
38.53196233141495
 11
262.5479579891439
 21
38.63426917005194
 72
     1
 10
262.5479579891439
 20
38.63426917005194
 11
262.5790173924239
 21
38.74732879483697
 72
     1
 10
262.5790173924239
 20
38.74732879483697
 11
262.6029148266429
 21
38.87227697837312
 72
     1
 10
262.6029148266429
 20
38.87227697837312
 11
262.6183255861878
 21
39.01024949326335
 72
     1
 10
262.6183255861878
 20
39.01024949326335
 11
262.6239249654454
 21
39.16238211211095
 97
        0
 75
     0
 76
     1
 98
        0
  0
POLYLINE
  5
28C
330
1F
100
AcDbEntity
  8
0
  6
Continuous
 62
   252
 48
25.4
370
     0
100
AcDb2dPolyline
 66
     1
 10
0.0
 20
0.0
 30
0.0
 70
     1
  0
VERTEX
  5
28D
330
28C
100
AcDbEntity
  8
0
  6
Continuous
 62
   252
100
AcDbVertex
100
AcDb2dVertex
 10
262.6239249654
 20
39.1623821121
 30
0.0
 70
     8
  0
VERTEX
  5
28E
330
28C
100
AcDbEntity
  8
0
  6
Continuous
 62
   252
100
AcDbVertex
100
AcDb2dVertex
 10
262.6183255862
 20
39.314514731
 30
0.0
 70
     8
  0
VERTEX
  5
28F
330
28C
100
AcDbEntity
  8
0
  6
Continuous
 62
   252
100
AcDbVertex
100
AcDb2dVertex
 10
262.6029148266
 20
39.4524872458
 30
0.0
 70
     8
  0
VERTEX
  5
290
330
28C
100
AcDbEntity
  8
0
  6
Continuous
 62
   252
100
AcDbVertex
100
AcDb2dVertex
 10
262.5790173924
 20
39.5774354294
 30
0.0
 70
     8
  0
VERTEX
  5
291
330
28C
100
AcDbEntity
  8
0
  6
Continuous
 62
   252
100
AcDbVertex
100
AcDb2dVertex
 10
262.5479579891
 20
39.6904950542
 30
0.0
 70
     8
  0
VERTEX
  5
292
330
28C
100
AcDbEntity
  8
0
  6
Continuous
 62
   252
100
AcDbVertex
100
AcDb2dVertex
 10
262.5110613224
 20
39.7928018928
 30
0.0
 70
     8
  0
VERTEX
  5
293
330
28C
100
AcDbEntity
  8
0
  6
Continuous
 62
   252
100
AcDbVertex
100
AcDb2dVertex
 10
262.4696520979
 20
39.8854917179
 30
0.0
 70
     8
  0
VERTEX
  5
294
330
28C
100
AcDbEntity
  8
0
  6
Continuous
 62
   252
100
AcDbVertex
100
AcDb2dVertex
 10
262.4019750086
 20
40.0089790577
 30
0.0
 70
     8
  0
VERTEX
  5
295
330
28C
100
AcDbEntity
  8
0
  6
Continuous
 62
   252
100
AcDbVertex
100
AcDb2dVertex
 10
262.3315961333
 20
40.1172168379
 30
0.0
 70
     8
  0
VERTEX
  5
296
330
28C
100
AcDbEntity
  8
0
  6
Continuous
 62
   252
100
AcDbVertex
100
AcDb2dVertex
 10
262.2635588393
 20
40.2111906812
 30
0.0
 70
     8
  0
VERTEX
  5
297
330
28C
100
AcDbEntity
  8
0
  6
Continuous
 62
   252
100
AcDbVertex
100
AcDb2dVertex
 10
262.1939600061
 20
40.2958488226
 30
0.0
 70
     8
  0
VERTEX
  5
298
330
28C
100
AcDbEntity
  8
0
  6
Continuous
 62
   252
100
AcDbVertex
100
AcDb2dVertex
 10
262.1195636237
 20
40.3726812568
 30
0.0
 70
     8
  0
VERTEX
  5
299
330
28C
100
AcDbEntity
  8
0
  6
Continuous
 62
   252
100
AcDbVertex
100
AcDb2dVertex
 10
262.0371336819
 20
40.4431779785
 30
0.0
 70
     8
  0
VERTEX
  5
29A
330
28C
100
AcDbEntity
  8
0
  6
Continuous
 62
   252
100
AcDbVertex
100
AcDb2dVertex
 10
261.9434341706
 20
40.5088289823
 30
0.0
 70
     8
  0
VERTEX
  5
29B
330
28C
100
AcDbEntity
  8
0
  6
Continuous
 62
   252
100
AcDbVertex
100
AcDb2dVertex
 10
261.8352290798
 20
40.5711242628
 30
0.0
 70
     8
  0
VERTEX
  5
29C
330
28C
100
AcDbEntity
  8
0
  6
Continuous
 62
   252
100
AcDbVertex
100
AcDb2dVertex
 10
261.6999600991
 20
40.6350672049
 30
0.0
 70
     8
  0
VERTEX
  5
29D
330
28C
100
AcDbEntity
  8
0
  6
Continuous
 62
   252
100
AcDbVertex
100
AcDb2dVertex
 10
261.5439748393
 20
40.693612088
 30
0.0
 70
     8
  0
VERTEX
  5
29E
330
28C
100
AcDbEntity
  8
0
  6
Continuous
 62
   252
100
AcDbVertex
100
AcDb2dVertex
 10
261.4283272012
 20
40.7280375996
 30
0.0
 70
     8
  0
VERTEX
  5
29F
330
28C
100
AcDbEntity
  8
0
  6
Continuous
 62
   252
100
AcDbVertex
100
AcDb2dVertex
 10
261.3032496966
 20
40.7576557407
 30
0.0
 70
     8
  0
VERTEX
  5
2A0
330
28C
100
AcDbEntity
  8
0
  6
Continuous
 62
   252
100
AcDbVertex
100
AcDb2dVertex
 10
261.1686532729
 20
40.7815032182
 30
0.0
 70
     8
  0
VERTEX
  5
2A1
330
28C
100
AcDbEntity
  8
0
  6
Continuous
 62
   252
100
AcDbVertex
100
AcDb2dVertex
 10
261.0244488776
 20
40.7986167388
 30
0.0
 70
     8
  0
VERTEX
  5
2A2
330
28C
100
AcDbEntity
  8
0
  6
Continuous
 62
   252
100
AcDbVertex
100
AcDb2dVertex
 10
260.8705474581
 20
40.8080330092
 30
0.0
 70
     8
  0
VERTEX
  5
2A3
330
28C
100
AcDbEntity
  8
0
  6
Continuous
 62
   252
100
AcDbVertex
100
AcDb2dVertex
 10
260.7068599619
 20
40.8087887362
 30
0.0
 70
     8
  0
VERTEX
  5
2A4
330
28C
100
AcDbEntity
  8
0
  6
Continuous
 62
   252
100
AcDbVertex
100
AcDb2dVertex
 10
258.1577386714
 20
40.8087887362
 30
0.0
 70
     8
  0
VERTEX
  5
2A5
330
28C
100
AcDbEntity
  8
0
  6
Continuous
 62
   252
100
AcDbVertex
100
AcDb2dVertex
 10
258.1577386714
 20
35.5523470184
 30
0.0
 70
     8
  0
VERTEX
  5
2A6
330
28C
100
AcDbEntity
  8
0
  6
Continuous
 62
   252
100
AcDbVertex
100
AcDb2dVertex
 10
259.5534567565
 20
35.5523470184
 30
0.0
 70
     8
  0
VERTEX
  5
2A7
330
28C
100
AcDbEntity
  8
0
  6
Continuous
 62
   252
100
AcDbVertex
100
AcDb2dVertex
 10
259.5534567565
 20
39.8039700492
 30
0.0
 70
     8
  0
VERTEX
  5
2A8
330
28C
100
AcDbEntity
  8
0
  6
Continuous
 62
   252
100
AcDbVertex
100
AcDb2dVertex
 10
260.4576246131
 20
39.8039700492
 30
0.0
 70
     8
  0
VERTEX
  5
2A9
330
28C
100
AcDbEntity
  8
0
  6
Continuous
 62
   252
100
AcDbVertex
100
AcDb2dVertex
 10
260.5589290342
 20
39.801714869
 30
0.0
 70
     8
  0
VERTEX
  5
2AA
330
28C
100
AcDbEntity
  8
0
  6
Continuous
 62
   252
100
AcDbVertex
100
AcDb2dVertex
 10
260.6510526174
 20
39.7901157746
 30
0.0
 70
     8
  0
VERTEX
  5
2AB
330
28C
100
AcDbEntity
  8
0
  6
Continuous
 62
   252
100
AcDbVertex
100
AcDb2dVertex
 10
260.7341212531
 20
39.770823526
 30
0.0
 70
     8
  0
VERTEX
  5
2AC
330
28C
100
AcDbEntity
  8
0
  6
Continuous
 62
   252
100
AcDbVertex
100
AcDb2dVertex
 10
260.8082608313
 20
39.7454888829
 30
0.0
 70
     8
  0
VERTEX
  5
2AD
330
28C
100
AcDbEntity
  8
0
  6
Continuous
 62
   252
100
AcDbVertex
100
AcDb2dVertex
 10
260.8735972422
 20
39.7157626051
 30
0.0
 70
     8
  0
VERTEX
  5
2AE
330
28C
100
AcDbEntity
  8
0
  6
Continuous
 62
   252
100
AcDbVertex
100
AcDb2dVertex
 10
260.930256376
 20
39.6832954523
 30
0.0
 70
     8
  0
VERTEX
  5
2AF
330
28C
100
AcDbEntity
  8
0
  6
Continuous
 62
   252
100
AcDbVertex
100
AcDb2dVertex
 10
260.9892700245
 20
39.6407801079
 30
0.0
 70
     8
  0
VERTEX
  5
2B0
330
28C
100
AcDbEntity
  8
0
  6
Continuous
 62
   252
100
AcDbVertex
100
AcDb2dVertex
 10
261.0382853942
 20
39.5947873279
 30
0.0
 70
     8
  0
VERTEX
  5
2B1
330
28C
100
AcDbEntity
  8
0
  6
Continuous
 62
   252
100
AcDbVertex
100
AcDb2dVertex
 10
261.0805153891
 20
39.543523814
 30
0.0
 70
     8
  0
VERTEX
  5
2B2
330
28C
100
AcDbEntity
  8
0
  6
Continuous
 62
   252
100
AcDbVertex
100
AcDb2dVertex
 10
261.109667746
 20
39.5005384787
 30
0.0
 70
     8
  0
VERTEX
  5
2B3
330
28C
100
AcDbEntity
  8
0
  6
Continuous
 62
   252
100
AcDbVertex
100
AcDb2dVertex
 10
261.1381660324
 20
39.4528230777
 30
0.0
 70
     8
  0
VERTEX
  5
2B4
330
28C
100
AcDbEntity
  8
0
  6
Continuous
 62
   252
100
AcDbVertex
100
AcDb2dVertex
 10
261.1676451198
 20
39.397865135
 30
0.0
 70
     8
  0
VERTEX
  5
2B5
330
28C
100
AcDbEntity
  8
0
  6
Continuous
 62
   252
100
AcDbVertex
100
AcDb2dVertex
 10
261.1959925298
 20
39.3351641989
 30
0.0
 70
     8
  0
VERTEX
  5
2B6
330
28C
100
AcDbEntity
  8
0
  6
Continuous
 62
   252
100
AcDbVertex
100
AcDb2dVertex
 10
261.2213355768
 20
39.2627739381
 30
0.0
 70
     8
  0
VERTEX
  5
2B7
330
28C
100
AcDbEntity
  8
0
  6
Continuous
 62
   252
100
AcDbVertex
100
AcDb2dVertex
 10
261.2418015751
 20
39.1787480214
 30
0.0
 70
     8
  0
VERTEX
  5
2B8
330
28C
100
AcDbEntity
  8
0
  6
Continuous
 62
   252
100
AcDbVertex
100
AcDb2dVertex
 10
261.2555178391
 20
39.0811401175
 30
0.0
 70
     8
  0
VERTEX
  5
2B9
330
28C
100
AcDbEntity
  8
0
  6
Continuous
 62
   252
100
AcDbVertex
100
AcDb2dVertex
 10
261.2606116834
 20
38.9680038952
 30
0.0
 70
     8
  0
VERTEX
  5
2BA
330
28C
100
AcDbEntity
  8
0
  6
Continuous
 62
   252
100
AcDbVertex
100
AcDb2dVertex
 10
261.2555178391
 20
38.8548676728
 30
0.0
 70
     8
  0
VERTEX
  5
2BB
330
28C
100
AcDbEntity
  8
0
  6
Continuous
 62
   252
100
AcDbVertex
100
AcDb2dVertex
 10
261.2418015751
 20
38.7572597689
 30
0.0
 70
     8
  0
VERTEX
  5
2BC
330
28C
100
AcDbEntity
  8
0
  6
Continuous
 62
   252
100
AcDbVertex
100
AcDb2dVertex
 10
261.2213355768
 20
38.6732338522
 30
0.0
 70
     8
  0
VERTEX
  5
2BD
330
28C
100
AcDbEntity
  8
0
  6
Continuous
 62
   252
100
AcDbVertex
100
AcDb2dVertex
 10
261.1959925298
 20
38.6008435914
 30
0.0
 70
     8
  0
VERTEX
  5
2BE
330
28C
100
AcDbEntity
  8
0
  6
Continuous
 62
   252
100
AcDbVertex
100
AcDb2dVertex
 10
261.1676451198
 20
38.5381426553
 30
0.0
 70
     8
  0
VERTEX
  5
2BF
330
28C
100
AcDbEntity
  8
0
  6
Continuous
 62
   252
100
AcDbVertex
100
AcDb2dVertex
 10
261.1381660324
 20
38.4831847127
 30
0.0
 70
     8
  0
VERTEX
  5
2C0
330
28C
100
AcDbEntity
  8
0
  6
Continuous
 62
   252
100
AcDbVertex
100
AcDb2dVertex
 10
261.1000899037
 20
38.4206526641
 30
0.0
 70
     8
  0
VERTEX
  5
2C1
330
28C
100
AcDbEntity
  8
0
  6
Continuous
 62
   252
100
AcDbVertex
100
AcDb2dVertex
 10
261.060047757
 20
38.3660812965
 30
0.0
 70
     8
  0
VERTEX
  5
2C2
330
28C
100
AcDbEntity
  8
0
  6
Continuous
 62
   252
100
AcDbVertex
100
AcDb2dVertex
 10
261.0148266877
 20
38.3176773118
 30
0.0
 70
     8
  0
VERTEX
  5
2C3
330
28C
100
AcDbEntity
  8
0
  6
Continuous
 62
   252
100
AcDbVertex
100
AcDb2dVertex
 10
260.9755794551
 20
38.2843428874
 30
0.0
 70
     8
  0
VERTEX
  5
2C4
330
28C
100
AcDbEntity
  8
0
  6
Continuous
 62
   252
100
AcDbVertex
100
AcDb2dVertex
 10
260.930256376
 20
38.252712338
 30
0.0
 70
     8
  0
VERTEX
  5
2C5
330
28C
100
AcDbEntity
  8
0
  6
Continuous
 62
   252
100
AcDbVertex
100
AcDb2dVertex
 10
260.8807801809
 20
38.22399109
 30
0.0
 70
     8
  0
VERTEX
  5
2C6
330
28C
100
AcDbEntity
  8
0
  6
Continuous
 62
   252
100
AcDbVertex
100
AcDb2dVertex
 10
260.8245776009
 20
38.1972458769
 30
0.0
 70
     8
  0
VERTEX
  5
2C7
330
28C
100
AcDbEntity
  8
0
  6
Continuous
 62
   252
100
AcDbVertex
100
AcDb2dVertex
 10
260.7615624943
 20
38.1736062476
 30
0.0
 70
     8
  0
VERTEX
  5
2C8
330
28C
100
AcDbEntity
  8
0
  6
Continuous
 62
   252
100
AcDbVertex
100
AcDb2dVertex
 10
260.6916487197
 20
38.154201751
 30
0.0
 70
     8
  0
VERTEX
  5
2C9
330
28C
100
AcDbEntity
  8
0
  6
Continuous
 62
   252
100
AcDbVertex
100
AcDb2dVertex
 10
260.6147501354
 20
38.140161936
 30
0.0
 70
     8
  0
VERTEX
  5
2CA
330
28C
100
AcDbEntity
  8
0
  6
Continuous
 62
   252
100
AcDbVertex
100
AcDb2dVertex
 10
260.5307805997
 20
38.1326163515
 30
0.0
 70
     8
  0
VERTEX
  5
2CB
330
28C
100
AcDbEntity
  8
0
  6
Continuous
 62
   252
100
AcDbVertex
100
AcDb2dVertex
 10
259.7289184586
 20
38.1326163515
 30
0.0
 70
     8
  0
VERTEX
  5
2CC
330
28C
100
AcDbEntity
  8
0
  6
Continuous
 62
   252
100
AcDbVertex
100
AcDb2dVertex
 10
261.658997182
 20
35.5523470184
 30
0.0
 70
     8
  0
VERTEX
  5
2CD
330
28C
100
AcDbEntity
  8
0
  6
Continuous
 62
   252
100
AcDbVertex
100
AcDb2dVertex
 10
263.3897132711
 20
35.5523470184
 30
0.0
 70
     8
  0
VERTEX
  5
2CE
330
28C
100
AcDbEntity
  8
0
  6
Continuous
 62
   252
100
AcDbVertex
100
AcDb2dVertex
 10
261.6293117683
 20
37.6613352736
 30
0.0
 70
     8
  0
VERTEX
  5
2CF
330
28C
100
AcDbEntity
  8
0
  6
Continuous
 62
   252
100
AcDbVertex
100
AcDb2dVertex
 10
261.7378413884
 20
37.7062631457
 30
0.0
 70
     8
  0
VERTEX
  5
2D0
330
28C
100
AcDbEntity
  8
0
  6
Continuous
 62
   252
100
AcDbVertex
100
AcDb2dVertex
 10
261.8352290798
 20
37.7536399614
 30
0.0
 70
     8
  0
VERTEX
  5
2D1
330
28C
100
AcDbEntity
  8
0
  6
Continuous
 62
   252
100
AcDbVertex
100
AcDb2dVertex
 10
261.9434341706
 20
37.8159352419
 30
0.0
 70
     8
  0
VERTEX
  5
2D2
330
28C
100
AcDbEntity
  8
0
  6
Continuous
 62
   252
100
AcDbVertex
100
AcDb2dVertex
 10
262.0371336819
 20
37.8815862457
 30
0.0
 70
     8
  0
VERTEX
  5
2D3
330
28C
100
AcDbEntity
  8
0
  6
Continuous
 62
   252
100
AcDbVertex
100
AcDb2dVertex
 10
262.1195636237
 20
37.9520829674
 30
0.0
 70
     8
  0
VERTEX
  5
2D4
330
28C
100
AcDbEntity
  8
0
  6
Continuous
 62
   252
100
AcDbVertex
100
AcDb2dVertex
 10
262.1939600061
 20
38.0289154016
 30
0.0
 70
     8
  0
VERTEX
  5
2D5
330
28C
100
AcDbEntity
  8
0
  6
Continuous
 62
   252
100
AcDbVertex
100
AcDb2dVertex
 10
262.2635588393
 20
38.1135735431
 30
0.0
 70
     8
  0
VERTEX
  5
2D6
330
28C
100
AcDbEntity
  8
0
  6
Continuous
 62
   252
100
AcDbVertex
100
AcDb2dVertex
 10
262.3315961333
 20
38.2075473863
 30
0.0
 70
     8
  0
VERTEX
  5
2D7
330
28C
100
AcDbEntity
  8
0
  6
Continuous
 62
   252
100
AcDbVertex
100
AcDb2dVertex
 10
262.4019750086
 20
38.3157851665
 30
0.0
 70
     8
  0
VERTEX
  5
2D8
330
28C
100
AcDbEntity
  8
0
  6
Continuous
 62
   252
100
AcDbVertex
100
AcDb2dVertex
 10
262.4696520979
 20
38.4392725063
 30
0.0
 70
     8
  0
VERTEX
  5
2D9
330
28C
100
AcDbEntity
  8
0
  6
Continuous
 62
   252
100
AcDbVertex
100
AcDb2dVertex
 10
262.5110613224
 20
38.5319623314
 30
0.0
 70
     8
  0
VERTEX
  5
2DA
330
28C
100
AcDbEntity
  8
0
  6
Continuous
 62
   252
100
AcDbVertex
100
AcDb2dVertex
 10
262.5479579891
 20
38.6342691701
 30
0.0
 70
     8
  0
VERTEX
  5
2DB
330
28C
100
AcDbEntity
  8
0
  6
Continuous
 62
   252
100
AcDbVertex
100
AcDb2dVertex
 10
262.5790173924
 20
38.7473287948
 30
0.0
 70
     8
  0
VERTEX
  5
2DC
330
28C
100
AcDbEntity
  8
0
  6
Continuous
 62
   252
100
AcDbVertex
100
AcDb2dVertex
 10
262.6029148266
 20
38.8722769784
 30
0.0
 70
     8
  0
VERTEX
  5
2DD
330
28C
100
AcDbEntity
  8
0
  6
Continuous
 62
   252
100
AcDbVertex
100
AcDb2dVertex
 10
262.6183255862
 20
39.0102494933
 30
0.0
 70
     8
  0
VERTEX
  5
2DE
330
28C
100
AcDbEntity
  8
0
  6
Continuous
 62
   252
100
AcDbVertex
100
AcDb2dVertex
 10
262.6239249654
 20
39.1623821121
 30
0.0
 70
     8
  0
SEQEND
  5
2DF
330
28C
100
AcDbEntity
  8
0
  6
Continuous
 62
   252
 48
25.4
370
     0
  0
HATCH
  5
2E0
330
1F
100
AcDbEntity
  8
0
  6
Continuous
 62
   252
 48
25.4
100
AcDbHatch
 10
0.0
 20
0.0
 30
0.0
210
0.0
220
0.0
230
1.0
  2
SOLID
 70
     1
 71
     0
 91
        2
 92
        1
 93
        4
 72
     3
 10
266.7154915065638
 20
38.86820993797688
 11
3.546040280182365
 21
0.0
 40
1.0
 50
-129.8029808396424
 51
-50.19702531964612
 73
     1
 72
     3
 10
267.2869162298897
 20
38.18243781293266
 11
2.653398346417479
 21
0.0
 40
1.0
 50
-50.19702716966618
 51
50.55884260689761
 73
     1
 72
     3
 10
266.7164995693564
 20
37.55020458050481
 11
3.504250792424207
 21
0.0
 40
1.0
 50
49.92326879874626
 51
130.3963479626628
 73
     1
 72
     3
 10
266.1793224024342
 20
38.18146713411549
 11
2.67536496177354
 21
0.0
 40
1.0
 50
130.3963479626626
 51
-130.396347962661
 73
     1
 97
        0
 92
        1
 93
        8
 72
     3
 10
267.0188850629272
 20
38.18282151090788
 11
2.101293158218851
 21
0.0
 40
1.0
 50
143.9338781609779
 51
-142.9654020029413
 73
     1
 72
     3
 10
266.196430925082
 20
37.56227885885735
 11
1.070999999999976
 21
0.0
 40
1.0
 50
-142.9654020029418
 51
-119.850551763343
 73
     1
 72
     3
 10
266.7148919479661
 20
38.46571359377818
 11
2.112631485944757
 21
0.0
 40
1.0
 50
-119.8505517633417
 51
-61.34494481304751
 73
     1
 72
     3
 10
267.21439100011
 20
37.55165842617678
 11
1.071000000000003
 21
0.0
 40
1.0
 50
-61.34494481304511
 51
-33.92060808926235
 73
     1
 72
     3
 10
266.2737642562721
 20
38.18422457804729
 11
2.20454250370927
 21
0.0
 40
1.0
 50
-33.92060808926286
 51
32.93377974508848
 73
     1
 72
     3
 10
267.225145890738
 20
38.80049691501872
 11
1.070999999999999
 21
0.0
 40
1.0
 50
32.93377974508417
 51
59.70433099434112
 73
     1
 72
     3
 10
266.7148919479661
 20
37.92715040035985
 11
2.08248070707313
 21
0.0
 40
1.0
 50
59.70433099434619
 51
121.5222523772521
 73
     1
 72
     3
 10
266.1860598223169
 20
38.78937415534603
 11
1.07100000000001
 21
0.0
 40
1.0
 50
121.5222523772495
 51
143.9338781609745
 73
     1
 97
        0
 75
     0
 76
     1
 98
        0
  0
LWPOLYLINE
  5
2E1
330
1F
100
AcDbEntity
  8
0
  6
Continuous
 62
   252
 48
25.4
370
     0
100
AcDbPolyline
 90
        5
 70
     1
 43
0.0
 10
264.4454949952
 20
36.1439637107
 42
0.3620243378
 10
268.9854880179
 20
36.1439637107
 42
0.4703291106
 10
268.9725815358
 20
40.2315974605
 42
0.3663096456
 10
264.4454949952
 20
40.2189705576
 42
0.4621035448
 10
264.4454949952
 20
36.1439637107
 42
0.4621035448
  0
LWPOLYLINE
  5
2E2
330
1F
100
AcDbEntity
  8
0
  6
Continuous
 62
   252
 48
25.4
370
     0
100
AcDbPolyline
 90
        9
 70
     1
 43
0.0
 10
265.3203296895
 20
39.4198916707
 42
0.3302378773
 10
265.3414816569
 20
36.9172185913
 42
0.1012009406
 10
265.6633520359
 20
36.6333720294
 42
0.2609726108
 10
267.727973291
 20
36.6118317238
 42
0.1202356687
 10
268.1031192475
 20
36.9539937189
 42
0.300273068
 10
268.1240356343
 20
39.3827668085
 42
0.1173427357
 10
267.7654250764
 20
39.7252343921
 42
0.2764691629
 10
265.6261092443
 20
39.7023343682
 42
0.0981020723
 10
265.3203296895
 20
39.4198916707
 42
0.0981020723
  0
ARC
  5
2E4
330
1F
100
AcDbEntity
  8
Standard
  6
Continuous
 62
     7
 48
25.4
100
AcDbCircle
 10
266.7154915066
 20
38.868209938
 30
0.0
 40
3.546040280182366
100
AcDbArc
 50
230.1970191604
 51
309.8029746804
  0
ARC
  5
2E5
330
1F
100
AcDbEntity
  8
Standard
  6
Continuous
 62
     7
 48
25.4
100
AcDbCircle
 10
267.2869162299
 20
38.1824378129
 30
0.0
 40
2.653398346417479
100
AcDbArc
 50
309.8029728303
 51
50.5588426069
  0
ARC
  5
2E6
330
1F
100
AcDbEntity
  8
Standard
  6
Continuous
 62
     7
 48
25.4
100
AcDbCircle
 10
266.7164995694
 20
37.5502045805
 30
0.0
 40
3.504250792424207
100
AcDbArc
 50
49.9232687987
 51
130.3963479627
  0
ARC
  5
2E7
330
1F
100
AcDbEntity
  8
Standard
  6
Continuous
 62
     7
 48
25.4
100
AcDbCircle
 10
266.1793224024
 20
38.1814671341
 30
0.0
 40
2.67536496177354
100
AcDbArc
 50
130.3963479627
 51
229.6036520373
  0
ARC
  5
2E8
330
1F
100
AcDbEntity
  8
Standard
  6
Continuous
 62
     7
 48
25.4
100
AcDbCircle
 10
267.0188850629
 20
38.1828215109
 30
0.0
 40
2.101293158218851
100
AcDbArc
 50
143.933878161
 51
217.0345979971
  0
ARC
  5
2E9
330
1F
100
AcDbEntity
  8
Standard
  6
Continuous
 62
     7
 48
25.4
100
AcDbCircle
 10
266.1964309251
 20
37.5622788589
 30
0.0
 40
1.070999999999976
100
AcDbArc
 50
217.0345979971
 51
240.1494482367
  0
ARC
  5
2EA
330
1F
100
AcDbEntity
  8
Standard
  6
Continuous
 62
     7
 48
25.4
100
AcDbCircle
 10
266.714891948
 20
38.4657135938
 30
0.0
 40
2.112631485944757
100
AcDbArc
 50
240.1494482367
 51
298.655055187
  0
ARC
  5
2EB
330
1F
100
AcDbEntity
  8
Standard
  6
Continuous
 62
     7
 48
25.4
100
AcDbCircle
 10
267.2143910001
 20
37.5516584262
 30
0.0
 40
1.071000000000003
100
AcDbArc
 50
298.655055187
 51
326.0793919107
  0
ARC
  5
2EC
330
1F
100
AcDbEntity
  8
Standard
  6
Continuous
 62
     7
 48
25.4
100
AcDbCircle
 10
266.2737642563
 20
38.184224578
 30
0.0
 40
2.20454250370927
100
AcDbArc
 50
326.0793919107
 51
32.9337797451
  0
ARC
  5
2ED
330
1F
100
AcDbEntity
  8
Standard
  6
Continuous
 62
     7
 48
25.4
100
AcDbCircle
 10
267.2251458907
 20
38.800496915
 30
0.0
 40
1.070999999999999
100
AcDbArc
 50
32.9337797451
 51
59.7043309943
  0
ARC
  5
2EE
330
1F
100
AcDbEntity
  8
Standard
  6
Continuous
 62
     7
 48
25.4
100
AcDbCircle
 10
266.714891948
 20
37.9271504004
 30
0.0
 40
2.08248070707313
100
AcDbArc
 50
59.7043309943
 51
121.5222523773
  0
ARC
  5
2EF
330
1F
100
AcDbEntity
  8
Standard
  6
Continuous
 62
     7
 48
25.4
100
AcDbCircle
 10
266.1860598223
 20
38.7893741553
 30
0.0
 40
1.07100000000001
100
AcDbArc
 50
121.5222523772
 51
143.933878161
  0
SPLINE
  5
2F0
330
1F
100
AcDbEntity
  8
Standard
  6
Continuous
 62
     7
 48
25.4
100
AcDbSpline
210
0.0
220
0.0
230
1.0
 70
    11
 71
     1
 72
   142
 73
   140
 74
     0
 42
0.0000000001
 43
0.0000000001
 40
0.0
 40
0.0
 40
0.0071942446043165
 40
0.0143884892086331
 40
0.0215827338129496
 40
0.0287769784172662
 40
0.0359712230215827
 40
0.0431654676258993
 40
0.0503597122302158
 40
0.0575539568345324
 40
0.0647482014388489
 40
0.0719424460431655
 40
0.079136690647482
 40
0.0863309352517986
 40
0.0935251798561151
 40
0.1007194244604317
 40
0.1079136690647482
 40
0.1151079136690648
 40
0.1223021582733813
 40
0.1294964028776978
 40
0.1366906474820144
 40
0.1438848920863309
 40
0.1510791366906475
 40
0.158273381294964
 40
0.1654676258992806
 40
0.1726618705035971
 40
0.1798561151079137
 40
0.1870503597122302
 40
0.1942446043165468
 40
0.2014388489208633
 40
0.2086330935251799
 40
0.2158273381294964
 40
0.223021582733813
 40
0.2302158273381295
 40
0.2374100719424461
 40
0.2446043165467626
 40
0.2517985611510791
 40
0.2589928057553957
 40
0.2661870503597122
 40
0.2733812949640288
 40
0.2805755395683454
 40
0.2877697841726619
 40
0.2949640287769784
 40
0.302158273381295
 40
0.3093525179856115
 40
0.3165467625899281
 40
0.3237410071942447
 40
0.3309352517985612
 40
0.3381294964028777
 40
0.3453237410071943
 40
0.3525179856115108
 40
0.3597122302158274
 40
0.3669064748201439
 40
0.3741007194244604
 40
0.381294964028777
 40
0.3884892086330936
 40
0.3956834532374101
 40
0.4028776978417267
 40
0.4100719424460432
 40
0.4172661870503597
 40
0.4244604316546763
 40
0.4316546762589928
 40
0.4388489208633094
 40
0.4460431654676259
 40
0.4532374100719425
 40
0.460431654676259
 40
0.4676258992805756
 40
0.4748201438848921
 40
0.4820143884892086
 40
0.4892086330935252
 40
0.4964028776978418
 40
0.5035971223021583
 40
0.5107913669064749
 40
0.5179856115107914
 40
0.525179856115108
 40
0.5323741007194245
 40
0.539568345323741
 40
0.5467625899280576
 40
0.5539568345323741
 40
0.5611510791366907
 40
0.5683453237410072
 40
0.5755395683453237
 40
0.5827338129496403
 40
0.5899280575539568
 40
0.5971223021582734
 40
0.60431654676259
 40
0.6115107913669066
 40
0.6187050359712231
 40
0.6258992805755396
 40
0.6330935251798562
 40
0.6402877697841727
 40
0.6474820143884893
 40
0.6546762589928058
 40
0.6618705035971223
 40
0.6690647482014389
 40
0.6762589928057554
 40
0.683453237410072
 40
0.6906474820143885
 40
0.697841726618705
 40
0.7050359712230216
 40
0.7122302158273381
 40
0.7194244604316548
 40
0.7266187050359713
 40
0.7338129496402878
 40
0.7410071942446044
 40
0.7482014388489209
 40
0.7553956834532375
 40
0.762589928057554
 40
0.7697841726618705
 40
0.7769784172661871
 40
0.7841726618705036
 40
0.7913669064748202
 40
0.7985611510791367
 40
0.8057553956834533
 40
0.8129496402877698
 40
0.8201438848920863
 40
0.827338129496403
 40
0.8345323741007195
 40
0.8417266187050361
 40
0.8489208633093526
 40
0.8561151079136691
 40
0.8633093525179857
 40
0.8705035971223022
 40
0.8776978417266188
 40
0.8848920863309353
 40
0.8920863309352518
 40
0.8992805755395684
 40
0.9064748201438849
 40
0.9136690647482015
 40
0.920863309352518
 40
0.9280575539568345
 40
0.9352517985611512
 40
0.9424460431654677
 40
0.9496402877697843
 40
0.9568345323741008
 40
0.9640287769784173
 40
0.9712230215827339
 40
0.9784172661870504
 40
0.985611510791367
 40
0.9928057553956835
 40
1.0
 40
1.0
 10
257.0172376075406
 20
36.02717426027416
 30
0.0
 10
257.0172376075406
 20
38.18056787729543
 30
0.0
 10
255.6135439905195
 20
38.18056787729543
 30
0.0
 10
255.6135439905195
 20
36.63701935882521
 30
0.0
 10
255.4917076643316
 20
36.58114990337533
 30
0.0
 10
255.3666502755375
 20
36.53126995692732
 30
0.0
 10
255.2388185719343
 20
36.48764219434533
 30
0.0
 10
255.108686583274
 20
36.45048421156425
 30
0.0
 10
254.976749848545
 20
36.41996513139731
 30
0.0
 10
254.8435191598413
 20
36.39620310823802
 30
0.0
 10
254.7095139875734
 20
36.37926380720599
 30
0.0
 10
254.5752557640552
 20
36.36915989868775
 30
0.0
 10
254.4412612066631
 20
36.36585157274727
 30
0.0
 10
254.3152684750314
 20
36.36668446771454
 30
0.0
 10
254.1968082340686
 20
36.37706328170606
 30
0.0
 10
254.0858119386888
 20
36.39592624282481
 30
0.0
 10
253.9822110438061
 20
36.42221157917366
 30
0.0
 10
253.8859370043348
 20
36.45485751885566
 30
0.0
 10
253.796921275189
 20
36.49280228997373
 30
0.0
 10
253.6768570709555
 20
36.55733212956855
 30
0.0
 10
253.5727384988467
 20
36.62781187297362
 30
0.0
 10
253.4894514104418
 20
36.69647551794383
 30
0.0
 10
253.4173294851355
 20
36.76883793734484
 30
0.0
 10
253.3538819172083
 20
36.84654144600172
 30
0.0
 10
253.2966179009403
 20
36.93122835873944
 30
0.0
 10
253.2430466306121
 20
37.02454099038297
 30
0.0
 10
253.190677300504
 20
37.12812165575733
 30
0.0
 10
253.136505619997
 20
37.24742444161824
 30
0.0
 10
253.0844135449151
 20
37.38353572944267
 30
0.0
 10
253.0525402409839
 20
37.48570111320462
 30
0.0
 10
253.0241403207949
 20
37.59846664513253
 30
0.0
 10
253.0002334302138
 20
37.72308420636603
 30
0.0
 10
252.9818392151061
 20
37.8608056780447
 30
0.0
 10
252.9699773213378
 20
38.01288294130797
 30
0.0
 10
252.9656673947745
 20
38.18056787729549
 30
0.0
 10
252.9712120570559
 20
38.348252813283
 30
0.0
 10
252.986472223093
 20
38.50033007654627
 30
0.0
 10
253.0101361322585
 20
38.63805154822489
 30
0.0
 10
253.040892023925
 20
38.76266910945833
 30
0.0
 10
253.0774281374656
 20
38.87543464138629
 30
0.0
 10
253.1184327122526
 20
38.97760002514825
 30
0.0
 10
253.1854484628985
 20
39.11371131297267
 30
0.0
 10
253.2551395978209
 20
39.23301409883359
 30
0.0
 10
253.3225120333115
 20
39.3365947642079
 30
0.0
 10
253.3914307486526
 20
39.42990739585137
 30
0.0
 10
253.4651001317432
 20
39.51459430858908
 30
0.0
 10
253.5467245704822
 20
39.59229781724596
 30
0.0
 10
253.639508452768
 20
39.66466023664697
 30
0.0
 10
253.7466561664998
 20
39.73332388161718
 30
0.0
 10
253.8336896386444
 20
39.78079451607123
 30
0.0
 10
253.9297962819564
 20
39.82615163724154
 30
0.0
 10
254.0350642787605
 20
39.86833347569216
 30
0.0
 10
254.149581811382
 20
39.90627826198731
 30
0.0
 10
254.2734370621461
 20
39.93892422669084
 30
0.0
 10
254.4067182133778
 20
39.96520960036712
 30
0.0
 10
254.5495134474022
 20
39.98407261358003
 30
0.0
 10
254.7019109465446
 20
39.99445149689371
 30
0.0
 10
254.8639988931301
 20
39.99528448087228
 30
0.0
 10
255.0940677015586
 20
39.98791705452001
 30
0.0
 10
255.3248685653708
 20
39.96564911414765
 30
0.0
 10
255.5549550680946
 20
39.92833871893883
 30
0.0
 10
255.7828592819786
 20
39.87603168222717
 30
0.0
 10
256.0071223381179
 20
39.80896457142683
 30
0.0
 10
256.2263252902625
 20
39.72756173025601
 30
0.0
 10
256.4391189154063
 20
39.63242636670619
 30
0.0
 10
256.6442511450612
 20
39.52432609735187
 30
0.0
 10
256.8405909692427
 20
39.40417365663604
 30
0.0
 10
256.8405909692427
 20
40.4379780123277
 30
0.0
 10
256.6015900069624
 20
40.54611532128241
 30
0.0
 10
256.3564343849309
 20
40.64264514173341
 30
0.0
 10
256.1059791867947
 20
40.72707201125294
 30
0.0
 10
255.8511302914854
 20
40.79898564983961
 30
0.0
 10
255.5928336083979
 20
40.85806719739524
 30
0.0
 10
255.3320634357769
 20
40.90409379760049
 30
0.0
 10
255.0698102412289
 20
40.93694139294221
 30
0.0
 10
254.8070681849877
 20
40.95658565755331
 30
0.0
 10
254.5448227139236
 20
40.96310105971637
 30
0.0
 10
254.2860473983418
 20
40.96182396144202
 30
0.0
 10
254.042742996224
 20
40.94591146575024
 30
0.0
 10
253.8147687234499
 20
40.9169914357804
 30
0.0
 10
253.6019837958988
 20
40.87669173467198
 30
0.0
 10
253.4042474294501
 20
40.82664022556434
 30
0.0
 10
253.2214188399832
 20
40.76846477159698
 30
0.0
 10
253.0533572433777
 20
40.70379323590931
 30
0.0
 10
252.899921855513
 20
40.63425348164071
 30
0.0
 10
252.7609718922684
 20
40.56147337193058
 30
0.0
 10
252.6441295306047
 20
40.49179752025719
 30
0.0
 10
252.5382370831933
 20
40.41997433318326
 30
0.0
 10
252.4417787446955
 20
40.34525775663575
 30
0.0
 10
252.3532387097727
 20
40.26690173654132
 30
0.0
 10
252.2711011730868
 20
40.18416021882695
 30
0.0
 10
252.1938503292988
 20
40.09628714941946
 30
0.0
 10
252.0838207886229
 20
39.95322389259845
 30
0.0
 10
251.9762599019385
 20
39.79441809030646
 30
0.0
 10
251.901959210119
 20
39.67502132334419
 30
0.0
 10
251.8285097454346
 20
39.54513083089986
 30
0.0
 10
251.7580057491749
 20
39.4028272780472
 30
0.0
 10
251.6925414626295
 20
39.24619132985976
 30
0.0
 10
251.634211127088
 20
39.07330365141134
 30
0.0
 10
251.5851089838399
 20
38.88224490777567
 30
0.0
 10
251.547329274175
 20
38.67109576402647
 30
0.0
 10
251.5229662393827
 20
38.43793688523736
 30
0.0
 10
251.5141141207528
 20
38.18084893648208
 30
0.0
 10
251.5141138140292
 20
38.18056786286192
 30
0.0
 10
251.5141141207528
 20
38.18028681810867
 30
0.0
 10
251.5229662393827
 20
37.92319886935344
 30
0.0
 10
251.547329274175
 20
37.69003999056434
 30
0.0
 10
251.5851089838399
 20
37.47889084681508
 30
0.0
 10
251.634211127088
 20
37.28783210317946
 30
0.0
 10
251.6925414626295
 20
37.11494442473109
 30
0.0
 10
251.7580057491749
 20
36.95830847654366
 30
0.0
 10
251.8285097454346
 20
36.816004923691
 30
0.0
 10
251.901959210119
 20
36.68611443124667
 30
0.0
 10
251.9762599019385
 20
36.56671766428446
 30
0.0
 10
252.0838207886229
 20
36.40791186199241
 30
0.0
 10
252.1938503292988
 20
36.26484860517146
 30
0.0
 10
252.2711011730867
 20
36.17697553576391
 30
0.0
 10
252.3532387097727
 20
36.09423401804953
 30
0.0
 10
252.4417787446955
 20
36.01587799795517
 30
0.0
 10
252.5382370831933
 20
35.9411614214076
 30
0.0
 10
252.6441295306047
 20
35.86933823433372
 30
0.0
 10
252.7609718922684
 20
35.79966238266033
 30
0.0
 10
252.899921855513
 20
35.72688227295026
 30
0.0
 10
253.0533572433777
 20
35.65734251868161
 30
0.0
 10
253.2214188399831
 20
35.59267098299393
 30
0.0
 10
253.40424742945
 20
35.53449552902657
 30
0.0
 10
253.6019837958987
 20
35.48444401991893
 30
0.0
 10
253.8147687234498
 20
35.44414431881052
 30
0.0
 10
254.042742996224
 20
35.41522428884067
 30
0.0
 10
254.2860473983418
 20
35.3993117931489
 30
0.0
 10
254.5448227139236
 20
35.39803469487454
 30
0.0
 10
254.8290512572761
 20
35.40584952449674
 30
0.0
 10
255.1139423257373
 20
35.42943858022687
 30
0.0
 10
255.3981835120091
 20
35.46891196384958
 30
0.0
 10
255.6804481219209
 20
35.5242338772859
 30
0.0
 10
255.9594155003299
 20
35.59522091739234
 30
0.0
 10
256.2337914998248
 20
35.68154377077484
 30
0.0
 10
256.5023284311315
 20
35.78273229044096
 30
0.0
 10
256.7638438523356
 20
35.89818379069806
 30
0.0
 10
257.0172376075406
 20
36.02717426027416
 30
0.0
  0
SPLINE
  5
2F1
330
1F
100
AcDbEntity
  8
Standard
  6
Continuous
 62
     7
 48
25.4
100
AcDbSpline
210
0.0
220
0.0
230
1.0
 70
    11
 71
     1
 72
    84
 73
    82
 74
     0
 42
0.0000000001
 43
0.0000000001
 40
0.0
 40
0.0
 40
0.0123456790123457
 40
0.0246913580246914
 40
0.037037037037037
 40
0.0493827160493827
 40
0.0617283950617284
 40
0.0740740740740741
 40
0.0864197530864197
 40
0.0987654320987654
 40
0.1111111111111111
 40
0.1234567901234568
 40
0.1358024691358025
 40
0.1481481481481481
 40
0.1604938271604938
 40
0.1728395061728395
 40
0.1851851851851852
 40
0.1975308641975309
 40
0.2098765432098765
 40
0.2222222222222222
 40
0.2345679012345679
 40
0.2469135802469136
 40
0.2592592592592592
 40
0.2716049382716049
 40
0.2839506172839506
 40
0.2962962962962963
 40
0.308641975308642
 40
0.3209876543209876
 40
0.3333333333333333
 40
0.345679012345679
 40
0.3580246913580247
 40
0.3703703703703704
 40
0.382716049382716
 40
0.3950617283950617
 40
0.4074074074074074
 40
0.4197530864197531
 40
0.4320987654320987
 40
0.4444444444444444
 40
0.4567901234567901
 40
0.4691358024691358
 40
0.4814814814814815
 40
0.4938271604938271
 40
0.5061728395061729
 40
0.5185185185185185
 40
0.5308641975308641
 40
0.5432098765432099
 40
0.5555555555555556
 40
0.5679012345679012
 40
0.5802469135802468
 40
0.5925925925925926
 40
0.6049382716049383
 40
0.6172839506172839
 40
0.6296296296296295
 40
0.6419753086419753
 40
0.654320987654321
 40
0.6666666666666666
 40
0.6790123456790123
 40
0.691358024691358
 40
0.7037037037037037
 40
0.7160493827160493
 40
0.728395061728395
 40
0.7407407407407407
 40
0.7530864197530864
 40
0.7654320987654321
 40
0.7777777777777777
 40
0.7901234567901234
 40
0.8024691358024692
 40
0.8148148148148148
 40
0.8271604938271604
 40
0.8395061728395061
 40
0.8518518518518519
 40
0.8641975308641975
 40
0.8765432098765431
 40
0.8888888888888888
 40
0.9012345679012346
 40
0.9135802469135802
 40
0.9259259259259258
 40
0.9382716049382716
 40
0.9506172839506173
 40
0.9629629629629629
 40
0.9753086419753085
 40
0.9876543209876543
 40
1.0
 40
1.0
 10
262.6239249654454
 20
39.16238211211095
 30
0.0
 10
262.6183255861878
 20
39.31451473095851
 30
0.0
 10
262.6029148266429
 20
39.45248724584885
 30
0.0
 10
262.5790173924239
 20
39.57743542938494
 30
0.0
 10
262.5479579891439
 20
39.69049505416997
 30
0.0
 10
262.5110613224161
 20
39.79280189280701
 30
0.0
 10
262.4696520978538
 20
39.88549171789915
 30
0.0
 10
262.4019750085993
 20
40.00897905770998
 30
0.0
 10
262.331596133291
 20
40.1172168379372
 30
0.0
 10
262.2635588392811
 20
40.21119068116039
 30
0.0
 10
262.193960006104
 20
40.29584882257234
 30
0.0
 10
262.1195636236611
 20
40.37268125681001
 30
0.0
 10
262.0371336818544
 20
40.44317797851013
 30
0.0
 10
261.9434341705854
 20
40.50882898230954
 30
0.0
 10
261.8352290797561
 20
40.57112426284512
 30
0.0
 10
261.6999600990802
 20
40.63506720493096
 30
0.0
 10
261.5439748392668
 20
40.69361208797515
 30
0.0
 10
261.4283272011857
 20
40.72803759958529
 30
0.0
 10
261.303249696572
 20
40.75765574074933
 30
0.0
 10
261.1686532728818
 20
40.78150321822962
 30
0.0
 10
261.024448877571
 20
40.79861673878845
 30
0.0
 10
260.8705474580954
 20
40.8080330091882
 30
0.0
 10
260.7068599619111
 20
40.80878873619118
 30
0.0
 10
258.1577386713706
 20
40.80878873619118
 30
0.0
 10
258.1577386713706
 20
35.55234701839968
 30
0.0
 10
259.5534567564768
 20
35.55234701839968
 30
0.0
 10
259.5534567564768
 20
39.80397004924694
 30
0.0
 10
260.4576246130663
 20
39.80397004924694
 30
0.0
 10
260.5589290341562
 20
39.80171486896075
 30
0.0
 10
260.6510526174439
 20
39.79011577462302
 30
0.0
 10
260.7341212530998
 20
39.77082352601166
 30
0.0
 10
260.8082608312942
 20
39.74548888290466
 30
0.0
 10
260.8735972421977
 20
39.71576260507989
 30
0.0
 10
260.9302563759805
 20
39.68329545231538
 30
0.0
 10
260.9892700245421
 20
39.6407801079148
 30
0.0
 10
261.0382853941597
 20
39.59478732787794
 30
0.0
 10
261.0805153891441
 20
39.54352381403734
 30
0.0
 10
261.109667746029
 20
39.50053847866927
 30
0.0
 10
261.1381660323639
 20
39.45282307765288
 30
0.0
 10
261.167645119821
 20
39.39786513497936
 30
0.0
 10
261.1959925298107
 20
39.33516419887387
 30
0.0
 10
261.2213355767504
 20
39.26277393808778
 30
0.0
 10
261.2418015750572
 20
39.17874802137247
 30
0.0
 10
261.255517839149
 20
39.08114011747929
 30
0.0
 10
261.2606116834426
 20
38.96800389515973
 30
0.0
 10
261.255517839149
 20
38.85486767284016
 30
0.0
 10
261.2418015750573
 20
38.75725976894709
 30
0.0
 10
261.2213355767504
 20
38.67323385223184
 30
0.0
 10
261.1959925298107
 20
38.60084359144575
 30
0.0
 10
261.167645119821
 20
38.53814265534025
 30
0.0
 10
261.1381660323639
 20
38.48318471266673
 30
0.0
 10
261.1000899037462
 20
38.42065266405633
 30
0.0
 10
261.0600477569616
 20
38.36608129650102
 30
0.0
 10
261.0148266876996
 20
38.31767731183325
 30
0.0
 10
260.9755794551274
 20
38.28434288742347
 30
0.0
 10
260.9302563759805
 20
38.25271233800429
 30
0.0
 10
260.8807801808744
 20
38.22399108997235
 30
0.0
 10
260.8245776008661
 20
38.19724587688337
 30
0.0
 10
260.7615624943485
 20
38.17360624761471
 30
0.0
 10
260.6916487197139
 20
38.15420175104386
 30
0.0
 10
260.6147501353551
 20
38.14016193604827
 30
0.0
 10
260.5307805996647
 20
38.13261635150542
 30
0.0
 10
259.7289184586045
 20
38.13261635147372
 30
0.0
 10
261.6589971820089
 20
35.55234701839968
 30
0.0
 10
263.3897132710516
 20
35.55234701839968
 30
0.0
 10
261.6293117683368
 20
37.66133527362855
 30
0.0
 10
261.7378413884242
 20
37.70626314565115
 30
0.0
 10
261.835229079756
 20
37.75363996137685
 30
0.0
 10
261.9434341705854
 20
37.81593524191248
 30
0.0
 10
262.0371336818544
 20
37.88158624571189
 30
0.0
 10
262.1195636236611
 20
37.95208296741201
 30
0.0
 10
262.193960006104
 20
38.02891540164963
 30
0.0
 10
262.2635588392811
 20
38.11357354306163
 30
0.0
 10
262.331596133291
 20
38.20754738628471
 30
0.0
 10
262.4019750085993
 20
38.31578516651199
 30
0.0
 10
262.4696520978538
 20
38.43927250632282
 30
0.0
 10
262.5110613224161
 20
38.53196233141495
 30
0.0
 10
262.5479579891439
 20
38.63426917005194
 30
0.0
 10
262.5790173924239
 20
38.74732879483697
 30
0.0
 10
262.6029148266429
 20
38.87227697837312
 30
0.0
 10
262.6183255861878
 20
39.01024949326335
 30
0.0
 10
262.6239249654454
 20
39.16238211211095
 30
0.0
  0
SPLINE
  5
2F2
330
1F
100
AcDbEntity
  8
Standard
  6
Continuous
 62
     7
 48
25.4
100
AcDbSpline
210
0.0
220
0.0
230
1.0
 70
    11
 71
     1
 72
    89
 73
    87
 74
     0
 42
0.0000000001
 43
0.0000000001
 40
0.0
 40
0.0
 40
0.0116279069767442
 40
0.0232558139534884
 40
0.0348837209302326
 40
0.0465116279069767
 40
0.0581395348837209
 40
0.0697674418604651
 40
0.0813953488372093
 40
0.0930232558139535
 40
0.1046511627906977
 40
0.1162790697674419
 40
0.1279069767441861
 40
0.1395348837209302
 40
0.1511627906976744
 40
0.1627906976744186
 40
0.1744186046511628
 40
0.186046511627907
 40
0.1976744186046512
 40
0.2093023255813953
 40
0.2209302325581395
 40
0.2325581395348837
 40
0.2441860465116279
 40
0.2558139534883721
 40
0.2674418604651163
 40
0.2790697674418605
 40
0.2906976744186047
 40
0.3023255813953488
 40
0.313953488372093
 40
0.3255813953488372
 40
0.3372093023255814
 40
0.3488372093023256
 40
0.3604651162790697
 40
0.372093023255814
 40
0.3837209302325582
 40
0.3953488372093023
 40
0.4069767441860465
 40
0.4186046511627907
 40
0.4302325581395349
 40
0.4418604651162791
 40
0.4534883720930232
 40
0.4651162790697674
 40
0.4767441860465116
 40
0.4883720930232558
 40
0.5
 40
0.5116279069767442
 40
0.5232558139534884
 40
0.5348837209302325
 40
0.5465116279069767
 40
0.5581395348837209
 40
0.5697674418604651
 40
0.5813953488372093
 40
0.5930232558139534
 40
0.6046511627906976
 40
0.6162790697674418
 40
0.6279069767441861
 40
0.6395348837209303
 40
0.6511627906976745
 40
0.6627906976744186
 40
0.6744186046511628
 40
0.686046511627907
 40
0.6976744186046512
 40
0.7093023255813954
 40
0.7209302325581395
 40
0.7325581395348837
 40
0.7441860465116279
 40
0.7558139534883721
 40
0.7674418604651163
 40
0.7790697674418604
 40
0.7906976744186046
 40
0.8023255813953488
 40
0.813953488372093
 40
0.8255813953488372
 40
0.8372093023255813
 40
0.8488372093023255
 40
0.8604651162790697
 40
0.872093023255814
 40
0.8837209302325582
 40
0.8953488372093024
 40
0.9069767441860465
 40
0.9186046511627907
 40
0.9302325581395349
 40
0.9418604651162791
 40
0.9534883720930233
 40
0.9651162790697674
 40
0.9767441860465116
 40
0.9883720930232558
 40
1.0
 40
1.0
 10
266.723459947966
 20
28.27293596718547
 30
0.0
 10
267.1539625981962
 20
28.29503684142307
 30
0.0
 10
267.5844646292467
 20
28.35025475382666
 30
0.0
 10
268.0149654779772
 20
28.43345757346125
 30
0.0
 10
268.4454645812468
 20
28.53951316939177
 30
0.0
 10
268.8759613759153
 20
28.66328941068322
 30
0.0
 10
269.5934493739534
 20
28.89502323702412
 30
0.0
 10
270.3109267877985
 20
29.13796529355259
 30
0.0
 10
271.0283910103184
 20
29.36835571482896
 30
0.0
 10
271.4588621274273
 20
29.49068107865069
 30
0.0
 10
271.8893269939509
 20
29.59480217128827
 30
0.0
 10
272.3197850467486
 20
29.67558686180669
 30
0.0
 10
272.75023572268
 20
29.72790301927089
 30
0.0
 10
273.1806784586045
 20
29.74661851274593
 30
0.0
 10
273.4366338681093
 20
29.7400716233551
 30
0.0
 10
273.6925868629529
 20
29.72090570054506
 30
0.0
 10
273.9485380351784
 20
29.69019758805394
 30
0.0
 10
274.2044879768289
 20
29.64902412961987
 30
0.0
 10
274.4604372799475
 20
29.59846216898096
 30
0.0
 10
274.7163865365774
 20
29.53958854987534
 30
0.0
 10
275.1003116294502
 20
29.43804935726915
 30
0.0
 10
275.4842399479658
 20
29.32386617914004
 30
0.0
 10
276.2125199479661
 20
29.68473885236153
 30
0.0
 10
275.7143414984801
 20
29.84941892453888
 30
0.0
 10
275.2161734823822
 20
30.00191597883798
 30
0.0
 10
274.8840651125879
 20
30.092892015286
 30
0.0
 10
274.5519581467707
 20
30.17257289239297
 30
0.0
 10
274.2198512916976
 20
30.23860641626755
 30
0.0
 10
273.8877432541345
 20
30.28864039301829
 30
0.0
 10
273.5556327408481
 20
30.32032262875375
 30
0.0
 10
273.2235184586045
 20
30.33130092958267
 30
0.0
 10
272.790220093844
 20
30.31234564294896
 30
0.0
 10
272.3569136871629
 20
30.25938090540867
 30
0.0
 10
271.9235998129844
 20
30.17764105077556
 30
0.0
 10
271.4902790457313
 20
30.07236041286329
 30
0.0
 10
271.0569519598263
 20
29.94877332548576
 30
0.0
 10
270.3347276686974
 20
29.71633055683518
 30
0.0
 10
269.6124900807425
 20
29.47180938273461
 30
0.0
 10
268.8902418553266
 20
29.23944283009974
 30
0.0
 10
268.4568889203918
 20
29.11593805601917
 30
0.0
 10
268.0235336877655
 20
29.01076716916959
 30
0.0
 10
267.5901767318705
 20
28.92916450336477
 30
0.0
 10
267.1568186271298
 20
28.8763643924185
 30
0.0
 10
266.7234599479662
 20
28.85760117014444
 30
0.0
 10
266.2901012688024
 20
28.8763643924185
 30
0.0
 10
265.8567431640616
 20
28.92916450336477
 30
0.0
 10
265.4233862081667
 20
29.01076716916959
 30
0.0
 10
264.9900309755405
 20
29.11593805601917
 30
0.0
 10
264.5566780406056
 20
29.23944283009974
 30
0.0
 10
263.8344298151898
 20
29.47180938273461
 30
0.0
 10
263.1121922272349
 20
29.71633055683518
 30
0.0
 10
262.389967936106
 20
29.94877332548576
 30
0.0
 10
261.956640850201
 20
30.07236041286335
 30
0.0
 10
261.5233200829479
 20
30.17764105077556
 30
0.0
 10
261.0900062087694
 20
30.25938090540867
 30
0.0
 10
260.6566998020884
 20
30.31234564294902
 30
0.0
 10
260.2234014373279
 20
30.33130092958272
 30
0.0
 10
259.8912871550604
 20
30.32032262874576
 30
0.0
 10
259.5591766416072
 20
30.28864039295395
 30
0.0
 10
259.2270686035914
 20
30.23860641605045
 30
0.0
 10
258.8949617476366
 20
30.17257289187833
 30
0.0
 10
258.562854780366
 20
30.09289201428081
 30
0.0
 10
258.230746408403
 20
30.00191597710098
 30
0.0
 10
257.7325783873993
 20
29.84941892114631
 30
0.0
 10
257.2343999305946
 20
29.68473884649917
 30
0.0
 10
257.9626799479663
 20
29.32386617914015
 30
0.0
 10
258.346608266482
 20
29.43804935726932
 30
0.0
 10
258.7305333593549
 20
29.53958854987546
 30
0.0
 10
258.9864826159847
 20
29.59846216898096
 30
0.0
 10
259.2424319191034
 20
29.64902412961987
 30
0.0
 10
259.4983818607539
 20
29.69019758805399
 30
0.0
 10
259.7543330329794
 20
29.72090570054511
 30
0.0
 10
260.010286027823
 20
29.74007162335515
 30
0.0
 10
260.2662414373278
 20
29.74661851274593
 30
0.0
 10
260.6966841732523
 20
29.72790301927095
 30
0.0
 10
261.1271348491837
 20
29.67558686180674
 30
0.0
 10
261.5575929019814
 20
29.59480217128832
 30
0.0
 10
261.988057768505
 20
29.49068107865075
 30
0.0
 10
262.4185288856139
 20
29.36835571482902
 30
0.0
 10
263.1359931081338
 20
29.13796529355264
 30
0.0
 10
263.853470521979
 20
28.89502323702412
 30
0.0
 10
264.570958520017
 20
28.66328941068322
 30
0.0
 10
265.0014553146854
 20
28.53951316939182
 30
0.0
 10
265.4319544179551
 20
28.43345757346125
 30
0.0
 10
265.8624552666855
 20
28.35025475382666
 30
0.0
 10
266.292957297736
 20
28.29503684142307
 30
0.0
 10
266.723459947966
 20
28.27293596718547
 30
0.0
  0
HATCH
  5
2F3
330
1F
100
AcDbEntity
  8
0
  6
Continuous
 62
   252
 48
25.4
100
AcDbHatch
 10
0.0
 20
0.0
 30
0.0
210
0.0
220
0.0
230
1.0
  2
SOLID
 70
     1
 71
     0
 91
        1
 92
        1
 93
       86
 72
     1
 10
266.723459947966
 20
28.27293596718547
 11
267.1539625981962
 21
28.29503684142307
 72
     1
 10
267.1539625981962
 20
28.29503684142307
 11
267.5844646292467
 21
28.35025475382666
 72
     1
 10
267.5844646292467
 20
28.35025475382666
 11
268.0149654779772
 21
28.43345757346125
 72
     1
 10
268.0149654779772
 20
28.43345757346125
 11
268.4454645812468
 21
28.53951316939177
 72
     1
 10
268.4454645812468
 20
28.53951316939177
 11
268.8759613759153
 21
28.66328941068322
 72
     1
 10
268.8759613759153
 20
28.66328941068322
 11
269.5934493739534
 21
28.89502323702412
 72
     1
 10
269.5934493739534
 20
28.89502323702412
 11
270.3109267877985
 21
29.13796529355259
 72
     1
 10
270.3109267877985
 20
29.13796529355259
 11
271.0283910103184
 21
29.36835571482896
 72
     1
 10
271.0283910103184
 20
29.36835571482896
 11
271.4588621274273
 21
29.49068107865069
 72
     1
 10
271.4588621274273
 20
29.49068107865069
 11
271.8893269939509
 21
29.59480217128827
 72
     1
 10
271.8893269939509
 20
29.59480217128827
 11
272.3197850467486
 21
29.67558686180669
 72
     1
 10
272.3197850467486
 20
29.67558686180669
 11
272.75023572268
 21
29.72790301927089
 72
     1
 10
272.75023572268
 20
29.72790301927089
 11
273.1806784586045
 21
29.74661851274593
 72
     1
 10
273.1806784586045
 20
29.74661851274593
 11
273.4366338681093
 21
29.7400716233551
 72
     1
 10
273.4366338681093
 20
29.7400716233551
 11
273.6925868629529
 21
29.72090570054506
 72
     1
 10
273.6925868629529
 20
29.72090570054506
 11
273.9485380351784
 21
29.69019758805394
 72
     1
 10
273.9485380351784
 20
29.69019758805394
 11
274.2044879768289
 21
29.64902412961987
 72
     1
 10
274.2044879768289
 20
29.64902412961987
 11
274.4604372799475
 21
29.59846216898096
 72
     1
 10
274.4604372799475
 20
29.59846216898096
 11
274.7163865365774
 21
29.53958854987534
 72
     1
 10
274.7163865365774
 20
29.53958854987534
 11
275.1003116294502
 21
29.43804935726915
 72
     1
 10
275.1003116294502
 20
29.43804935726915
 11
275.4842399479658
 21
29.32386617914004
 72
     1
 10
275.4842399479658
 20
29.32386617914004
 11
276.2125199479661
 21
29.68473885236153
 72
     1
 10
276.2125199479661
 20
29.68473885236153
 11
275.7143414984801
 21
29.84941892453888
 72
     1
 10
275.7143414984801
 20
29.84941892453888
 11
275.2161734823822
 21
30.00191597883798
 72
     1
 10
275.2161734823822
 20
30.00191597883798
 11
274.8840651125879
 21
30.092892015286
 72
     1
 10
274.8840651125879
 20
30.092892015286
 11
274.5519581467707
 21
30.17257289239297
 72
     1
 10
274.5519581467707
 20
30.17257289239297
 11
274.2198512916976
 21
30.23860641626755
 72
     1
 10
274.2198512916976
 20
30.23860641626755
 11
273.8877432541345
 21
30.28864039301829
 72
     1
 10
273.8877432541345
 20
30.28864039301829
 11
273.5556327408481
 21
30.32032262875375
 72
     1
 10
273.5556327408481
 20
30.32032262875375
 11
273.2235184586045
 21
30.33130092958267
 72
     1
 10
273.2235184586045
 20
30.33130092958267
 11
272.790220093844
 21
30.31234564294896
 72
     1
 10
272.790220093844
 20
30.31234564294896
 11
272.3569136871629
 21
30.25938090540867
 72
     1
 10
272.3569136871629
 20
30.25938090540867
 11
271.9235998129844
 21
30.17764105077556
 72
     1
 10
271.9235998129844
 20
30.17764105077556
 11
271.4902790457313
 21
30.07236041286329
 72
     1
 10
271.4902790457313
 20
30.07236041286329
 11
271.0569519598263
 21
29.94877332548576
 72
     1
 10
271.0569519598263
 20
29.94877332548576
 11
270.3347276686974
 21
29.71633055683518
 72
     1
 10
270.3347276686974
 20
29.71633055683518
 11
269.6124900807425
 21
29.47180938273461
 72
     1
 10
269.6124900807425
 20
29.47180938273461
 11
268.8902418553266
 21
29.23944283009974
 72
     1
 10
268.8902418553266
 20
29.23944283009974
 11
268.4568889203918
 21
29.11593805601917
 72
     1
 10
268.4568889203918
 20
29.11593805601917
 11
268.0235336877655
 21
29.01076716916959
 72
     1
 10
268.0235336877655
 20
29.01076716916959
 11
267.5901767318705
 21
28.92916450336477
 72
     1
 10
267.5901767318705
 20
28.92916450336477
 11
267.1568186271298
 21
28.8763643924185
 72
     1
 10
267.1568186271298
 20
28.8763643924185
 11
266.7234599479662
 21
28.85760117014444
 72
     1
 10
266.7234599479662
 20
28.85760117014444
 11
266.2901012688024
 21
28.8763643924185
 72
     1
 10
266.2901012688024
 20
28.8763643924185
 11
265.8567431640616
 21
28.92916450336477
 72
     1
 10
265.8567431640616
 20
28.92916450336477
 11
265.4233862081667
 21
29.01076716916959
 72
     1
 10
265.4233862081667
 20
29.01076716916959
 11
264.9900309755405
 21
29.11593805601917
 72
     1
 10
264.9900309755405
 20
29.11593805601917
 11
264.5566780406056
 21
29.23944283009974
 72
     1
 10
264.5566780406056
 20
29.23944283009974
 11
263.8344298151898
 21
29.47180938273461
 72
     1
 10
263.8344298151898
 20
29.47180938273461
 11
263.1121922272349
 21
29.71633055683518
 72
     1
 10
263.1121922272349
 20
29.71633055683518
 11
262.389967936106
 21
29.94877332548576
 72
     1
 10
262.389967936106
 20
29.94877332548576
 11
261.956640850201
 21
30.07236041286335
 72
     1
 10
261.956640850201
 20
30.07236041286335
 11
261.5233200829479
 21
30.17764105077556
 72
     1
 10
261.5233200829479
 20
30.17764105077556
 11
261.0900062087694
 21
30.25938090540867
 72
     1
 10
261.0900062087694
 20
30.25938090540867
 11
260.6566998020884
 21
30.31234564294902
 72
     1
 10
260.6566998020884
 20
30.31234564294902
 11
260.2234014373279
 21
30.33130092958272
 72
     1
 10
260.2234014373279
 20
30.33130092958272
 11
259.8912871550604
 21
30.32032262874576
 72
     1
 10
259.8912871550604
 20
30.32032262874576
 11
259.5591766416072
 21
30.28864039295395
 72
     1
 10
259.5591766416072
 20
30.28864039295395
 11
259.2270686035914
 21
30.23860641605045
 72
     1
 10
259.2270686035914
 20
30.23860641605045
 11
258.8949617476366
 21
30.17257289187833
 72
     1
 10
258.8949617476366
 20
30.17257289187833
 11
258.562854780366
 21
30.09289201428081
 72
     1
 10
258.562854780366
 20
30.09289201428081
 11
258.230746408403
 21
30.00191597710098
 72
     1
 10
258.230746408403
 20
30.00191597710098
 11
257.7325783873993
 21
29.84941892114631
 72
     1
 10
257.7325783873993
 20
29.84941892114631
 11
257.2343999305946
 21
29.68473884649917
 72
     1
 10
257.2343999305946
 20
29.68473884649917
 11
257.9626799479663
 21
29.32386617914015
 72
     1
 10
257.9626799479663
 20
29.32386617914015
 11
258.346608266482
 21
29.43804935726932
 72
     1
 10
258.346608266482
 20
29.43804935726932
 11
258.7305333593549
 21
29.53958854987546
 72
     1
 10
258.7305333593549
 20
29.53958854987546
 11
258.9864826159847
 21
29.59846216898096
 72
     1
 10
258.9864826159847
 20
29.59846216898096
 11
259.2424319191034
 21
29.64902412961987
 72
     1
 10
259.2424319191034
 20
29.64902412961987
 11
259.4983818607539
 21
29.69019758805399
 72
     1
 10
259.4983818607539
 20
29.69019758805399
 11
259.7543330329794
 21
29.72090570054511
 72
     1
 10
259.7543330329794
 20
29.72090570054511
 11
260.010286027823
 21
29.74007162335515
 72
     1
 10
260.010286027823
 20
29.74007162335515
 11
260.2662414373278
 21
29.74661851274593
 72
     1
 10
260.2662414373278
 20
29.74661851274593
 11
260.6966841732523
 21
29.72790301927095
 72
     1
 10
260.6966841732523
 20
29.72790301927095
 11
261.1271348491837
 21
29.67558686180674
 72
     1
 10
261.1271348491837
 20
29.67558686180674
 11
261.5575929019814
 21
29.59480217128832
 72
     1
 10
261.5575929019814
 20
29.59480217128832
 11
261.988057768505
 21
29.49068107865075
 72
     1
 10
261.988057768505
 20
29.49068107865075
 11
262.4185288856139
 21
29.36835571482902
 72
     1
 10
262.4185288856139
 20
29.36835571482902
 11
263.1359931081338
 21
29.13796529355264
 72
     1
 10
263.1359931081338
 20
29.13796529355264
 11
263.853470521979
 21
28.89502323702412
 72
     1
 10
263.853470521979
 20
28.89502323702412
 11
264.570958520017
 21
28.66328941068322
 72
     1
 10
264.570958520017
 20
28.66328941068322
 11
265.0014553146854
 21
28.53951316939182
 72
     1
 10
265.0014553146854
 20
28.53951316939182
 11
265.4319544179551
 21
28.43345757346125
 72
     1
 10
265.4319544179551
 20
28.43345757346125
 11
265.8624552666855
 21
28.35025475382666
 72
     1
 10
265.8624552666855
 20
28.35025475382666
 11
266.292957297736
 21
28.29503684142307
 72
     1
 10
266.292957297736
 20
28.29503684142307
 11
266.723459947966
 21
28.27293596718547
 97
        0
 75
     0
 76
     1
 98
        0
  0
POLYLINE
  5
2F4
330
1F
100
AcDbEntity
  8
0
  6
Continuous
 62
   252
 48
25.4
370
     0
100
AcDb2dPolyline
 66
     1
 10
0.0
 20
0.0
 30
0.0
 70
     1
  0
VERTEX
  5
2F5
330
2F4
100
AcDbEntity
  8
0
  6
Continuous
 62
   252
100
AcDbVertex
100
AcDb2dVertex
 10
266.723459948
 20
28.2729359672
 30
0.0
 70
     8
  0
VERTEX
  5
2F6
330
2F4
100
AcDbEntity
  8
0
  6
Continuous
 62
   252
100
AcDbVertex
100
AcDb2dVertex
 10
267.1539625982
 20
28.2950368414
 30
0.0
 70
     8
  0
VERTEX
  5
2F7
330
2F4
100
AcDbEntity
  8
0
  6
Continuous
 62
   252
100
AcDbVertex
100
AcDb2dVertex
 10
267.5844646292
 20
28.3502547538
 30
0.0
 70
     8
  0
VERTEX
  5
2F8
330
2F4
100
AcDbEntity
  8
0
  6
Continuous
 62
   252
100
AcDbVertex
100
AcDb2dVertex
 10
268.014965478
 20
28.4334575735
 30
0.0
 70
     8
  0
VERTEX
  5
2F9
330
2F4
100
AcDbEntity
  8
0
  6
Continuous
 62
   252
100
AcDbVertex
100
AcDb2dVertex
 10
268.4454645812
 20
28.5395131694
 30
0.0
 70
     8
  0
VERTEX
  5
2FA
330
2F4
100
AcDbEntity
  8
0
  6
Continuous
 62
   252
100
AcDbVertex
100
AcDb2dVertex
 10
268.8759613759
 20
28.6632894107
 30
0.0
 70
     8
  0
VERTEX
  5
2FB
330
2F4
100
AcDbEntity
  8
0
  6
Continuous
 62
   252
100
AcDbVertex
100
AcDb2dVertex
 10
269.593449374
 20
28.895023237
 30
0.0
 70
     8
  0
VERTEX
  5
2FC
330
2F4
100
AcDbEntity
  8
0
  6
Continuous
 62
   252
100
AcDbVertex
100
AcDb2dVertex
 10
270.3109267878
 20
29.1379652936
 30
0.0
 70
     8
  0
VERTEX
  5
2FD
330
2F4
100
AcDbEntity
  8
0
  6
Continuous
 62
   252
100
AcDbVertex
100
AcDb2dVertex
 10
271.0283910103
 20
29.3683557148
 30
0.0
 70
     8
  0
VERTEX
  5
2FE
330
2F4
100
AcDbEntity
  8
0
  6
Continuous
 62
   252
100
AcDbVertex
100
AcDb2dVertex
 10
271.4588621274
 20
29.4906810787
 30
0.0
 70
     8
  0
VERTEX
  5
2FF
330
2F4
100
AcDbEntity
  8
0
  6
Continuous
 62
   252
100
AcDbVertex
100
AcDb2dVertex
 10
271.889326994
 20
29.5948021713
 30
0.0
 70
     8
  0
VERTEX
  5
300
330
2F4
100
AcDbEntity
  8
0
  6
Continuous
 62
   252
100
AcDbVertex
100
AcDb2dVertex
 10
272.3197850467
 20
29.6755868618
 30
0.0
 70
     8
  0
VERTEX
  5
301
330
2F4
100
AcDbEntity
  8
0
  6
Continuous
 62
   252
100
AcDbVertex
100
AcDb2dVertex
 10
272.7502357227
 20
29.7279030193
 30
0.0
 70
     8
  0
VERTEX
  5
302
330
2F4
100
AcDbEntity
  8
0
  6
Continuous
 62
   252
100
AcDbVertex
100
AcDb2dVertex
 10
273.1806784586
 20
29.7466185127
 30
0.0
 70
     8
  0
VERTEX
  5
303
330
2F4
100
AcDbEntity
  8
0
  6
Continuous
 62
   252
100
AcDbVertex
100
AcDb2dVertex
 10
273.4366338681
 20
29.7400716234
 30
0.0
 70
     8
  0
VERTEX
  5
304
330
2F4
100
AcDbEntity
  8
0
  6
Continuous
 62
   252
100
AcDbVertex
100
AcDb2dVertex
 10
273.692586863
 20
29.7209057005
 30
0.0
 70
     8
  0
VERTEX
  5
305
330
2F4
100
AcDbEntity
  8
0
  6
Continuous
 62
   252
100
AcDbVertex
100
AcDb2dVertex
 10
273.9485380352
 20
29.6901975881
 30
0.0
 70
     8
  0
VERTEX
  5
306
330
2F4
100
AcDbEntity
  8
0
  6
Continuous
 62
   252
100
AcDbVertex
100
AcDb2dVertex
 10
274.2044879768
 20
29.6490241296
 30
0.0
 70
     8
  0
VERTEX
  5
307
330
2F4
100
AcDbEntity
  8
0
  6
Continuous
 62
   252
100
AcDbVertex
100
AcDb2dVertex
 10
274.4604372799
 20
29.598462169
 30
0.0
 70
     8
  0
VERTEX
  5
308
330
2F4
100
AcDbEntity
  8
0
  6
Continuous
 62
   252
100
AcDbVertex
100
AcDb2dVertex
 10
274.7163865366
 20
29.5395885499
 30
0.0
 70
     8
  0
VERTEX
  5
309
330
2F4
100
AcDbEntity
  8
0
  6
Continuous
 62
   252
100
AcDbVertex
100
AcDb2dVertex
 10
275.1003116295
 20
29.4380493573
 30
0.0
 70
     8
  0
VERTEX
  5
30A
330
2F4
100
AcDbEntity
  8
0
  6
Continuous
 62
   252
100
AcDbVertex
100
AcDb2dVertex
 10
275.484239948
 20
29.3238661791
 30
0.0
 70
     8
  0
VERTEX
  5
30B
330
2F4
100
AcDbEntity
  8
0
  6
Continuous
 62
   252
100
AcDbVertex
100
AcDb2dVertex
 10
276.212519948
 20
29.6847388524
 30
0.0
 70
     8
  0
VERTEX
  5
30C
330
2F4
100
AcDbEntity
  8
0
  6
Continuous
 62
   252
100
AcDbVertex
100
AcDb2dVertex
 10
275.7143414985
 20
29.8494189245
 30
0.0
 70
     8
  0
VERTEX
  5
30D
330
2F4
100
AcDbEntity
  8
0
  6
Continuous
 62
   252
100
AcDbVertex
100
AcDb2dVertex
 10
275.2161734824
 20
30.0019159788
 30
0.0
 70
     8
  0
VERTEX
  5
30E
330
2F4
100
AcDbEntity
  8
0
  6
Continuous
 62
   252
100
AcDbVertex
100
AcDb2dVertex
 10
274.8840651126
 20
30.0928920153
 30
0.0
 70
     8
  0
VERTEX
  5
30F
330
2F4
100
AcDbEntity
  8
0
  6
Continuous
 62
   252
100
AcDbVertex
100
AcDb2dVertex
 10
274.5519581468
 20
30.1725728924
 30
0.0
 70
     8
  0
VERTEX
  5
310
330
2F4
100
AcDbEntity
  8
0
  6
Continuous
 62
   252
100
AcDbVertex
100
AcDb2dVertex
 10
274.2198512917
 20
30.2386064163
 30
0.0
 70
     8
  0
VERTEX
  5
311
330
2F4
100
AcDbEntity
  8
0
  6
Continuous
 62
   252
100
AcDbVertex
100
AcDb2dVertex
 10
273.8877432541
 20
30.288640393
 30
0.0
 70
     8
  0
VERTEX
  5
312
330
2F4
100
AcDbEntity
  8
0
  6
Continuous
 62
   252
100
AcDbVertex
100
AcDb2dVertex
 10
273.5556327408
 20
30.3203226288
 30
0.0
 70
     8
  0
VERTEX
  5
313
330
2F4
100
AcDbEntity
  8
0
  6
Continuous
 62
   252
100
AcDbVertex
100
AcDb2dVertex
 10
273.2235184586
 20
30.3313009296
 30
0.0
 70
     8
  0
VERTEX
  5
314
330
2F4
100
AcDbEntity
  8
0
  6
Continuous
 62
   252
100
AcDbVertex
100
AcDb2dVertex
 10
272.7902200938
 20
30.3123456429
 30
0.0
 70
     8
  0
VERTEX
  5
315
330
2F4
100
AcDbEntity
  8
0
  6
Continuous
 62
   252
100
AcDbVertex
100
AcDb2dVertex
 10
272.3569136872
 20
30.2593809054
 30
0.0
 70
     8
  0
VERTEX
  5
316
330
2F4
100
AcDbEntity
  8
0
  6
Continuous
 62
   252
100
AcDbVertex
100
AcDb2dVertex
 10
271.923599813
 20
30.1776410508
 30
0.0
 70
     8
  0
VERTEX
  5
317
330
2F4
100
AcDbEntity
  8
0
  6
Continuous
 62
   252
100
AcDbVertex
100
AcDb2dVertex
 10
271.4902790457
 20
30.0723604129
 30
0.0
 70
     8
  0
VERTEX
  5
318
330
2F4
100
AcDbEntity
  8
0
  6
Continuous
 62
   252
100
AcDbVertex
100
AcDb2dVertex
 10
271.0569519598
 20
29.9487733255
 30
0.0
 70
     8
  0
VERTEX
  5
319
330
2F4
100
AcDbEntity
  8
0
  6
Continuous
 62
   252
100
AcDbVertex
100
AcDb2dVertex
 10
270.3347276687
 20
29.7163305568
 30
0.0
 70
     8
  0
VERTEX
  5
31A
330
2F4
100
AcDbEntity
  8
0
  6
Continuous
 62
   252
100
AcDbVertex
100
AcDb2dVertex
 10
269.6124900807
 20
29.4718093827
 30
0.0
 70
     8
  0
VERTEX
  5
31B
330
2F4
100
AcDbEntity
  8
0
  6
Continuous
 62
   252
100
AcDbVertex
100
AcDb2dVertex
 10
268.8902418553
 20
29.2394428301
 30
0.0
 70
     8
  0
VERTEX
  5
31C
330
2F4
100
AcDbEntity
  8
0
  6
Continuous
 62
   252
100
AcDbVertex
100
AcDb2dVertex
 10
268.4568889204
 20
29.115938056
 30
0.0
 70
     8
  0
VERTEX
  5
31D
330
2F4
100
AcDbEntity
  8
0
  6
Continuous
 62
   252
100
AcDbVertex
100
AcDb2dVertex
 10
268.0235336878
 20
29.0107671692
 30
0.0
 70
     8
  0
VERTEX
  5
31E
330
2F4
100
AcDbEntity
  8
0
  6
Continuous
 62
   252
100
AcDbVertex
100
AcDb2dVertex
 10
267.5901767319
 20
28.9291645034
 30
0.0
 70
     8
  0
VERTEX
  5
31F
330
2F4
100
AcDbEntity
  8
0
  6
Continuous
 62
   252
100
AcDbVertex
100
AcDb2dVertex
 10
267.1568186271
 20
28.8763643924
 30
0.0
 70
     8
  0
VERTEX
  5
320
330
2F4
100
AcDbEntity
  8
0
  6
Continuous
 62
   252
100
AcDbVertex
100
AcDb2dVertex
 10
266.723459948
 20
28.8576011701
 30
0.0
 70
     8
  0
VERTEX
  5
321
330
2F4
100
AcDbEntity
  8
0
  6
Continuous
 62
   252
100
AcDbVertex
100
AcDb2dVertex
 10
266.2901012688
 20
28.8763643924
 30
0.0
 70
     8
  0
VERTEX
  5
322
330
2F4
100
AcDbEntity
  8
0
  6
Continuous
 62
   252
100
AcDbVertex
100
AcDb2dVertex
 10
265.8567431641
 20
28.9291645034
 30
0.0
 70
     8
  0
VERTEX
  5
323
330
2F4
100
AcDbEntity
  8
0
  6
Continuous
 62
   252
100
AcDbVertex
100
AcDb2dVertex
 10
265.4233862082
 20
29.0107671692
 30
0.0
 70
     8
  0
VERTEX
  5
324
330
2F4
100
AcDbEntity
  8
0
  6
Continuous
 62
   252
100
AcDbVertex
100
AcDb2dVertex
 10
264.9900309755
 20
29.115938056
 30
0.0
 70
     8
  0
VERTEX
  5
325
330
2F4
100
AcDbEntity
  8
0
  6
Continuous
 62
   252
100
AcDbVertex
100
AcDb2dVertex
 10
264.5566780406
 20
29.2394428301
 30
0.0
 70
     8
  0
VERTEX
  5
326
330
2F4
100
AcDbEntity
  8
0
  6
Continuous
 62
   252
100
AcDbVertex
100
AcDb2dVertex
 10
263.8344298152
 20
29.4718093827
 30
0.0
 70
     8
  0
VERTEX
  5
327
330
2F4
100
AcDbEntity
  8
0
  6
Continuous
 62
   252
100
AcDbVertex
100
AcDb2dVertex
 10
263.1121922272
 20
29.7163305568
 30
0.0
 70
     8
  0
VERTEX
  5
328
330
2F4
100
AcDbEntity
  8
0
  6
Continuous
 62
   252
100
AcDbVertex
100
AcDb2dVertex
 10
262.3899679361
 20
29.9487733255
 30
0.0
 70
     8
  0
VERTEX
  5
329
330
2F4
100
AcDbEntity
  8
0
  6
Continuous
 62
   252
100
AcDbVertex
100
AcDb2dVertex
 10
261.9566408502
 20
30.0723604129
 30
0.0
 70
     8
  0
VERTEX
  5
32A
330
2F4
100
AcDbEntity
  8
0
  6
Continuous
 62
   252
100
AcDbVertex
100
AcDb2dVertex
 10
261.5233200829
 20
30.1776410508
 30
0.0
 70
     8
  0
VERTEX
  5
32B
330
2F4
100
AcDbEntity
  8
0
  6
Continuous
 62
   252
100
AcDbVertex
100
AcDb2dVertex
 10
261.0900062088
 20
30.2593809054
 30
0.0
 70
     8
  0
VERTEX
  5
32C
330
2F4
100
AcDbEntity
  8
0
  6
Continuous
 62
   252
100
AcDbVertex
100
AcDb2dVertex
 10
260.6566998021
 20
30.3123456429
 30
0.0
 70
     8
  0
VERTEX
  5
32D
330
2F4
100
AcDbEntity
  8
0
  6
Continuous
 62
   252
100
AcDbVertex
100
AcDb2dVertex
 10
260.2234014373
 20
30.3313009296
 30
0.0
 70
     8
  0
VERTEX
  5
32E
330
2F4
100
AcDbEntity
  8
0
  6
Continuous
 62
   252
100
AcDbVertex
100
AcDb2dVertex
 10
259.8912871551
 20
30.3203226287
 30
0.0
 70
     8
  0
VERTEX
  5
32F
330
2F4
100
AcDbEntity
  8
0
  6
Continuous
 62
   252
100
AcDbVertex
100
AcDb2dVertex
 10
259.5591766416
 20
30.288640393
 30
0.0
 70
     8
  0
VERTEX
  5
330
330
2F4
100
AcDbEntity
  8
0
  6
Continuous
 62
   252
100
AcDbVertex
100
AcDb2dVertex
 10
259.2270686036
 20
30.2386064161
 30
0.0
 70
     8
  0
VERTEX
  5
331
330
2F4
100
AcDbEntity
  8
0
  6
Continuous
 62
   252
100
AcDbVertex
100
AcDb2dVertex
 10
258.8949617476
 20
30.1725728919
 30
0.0
 70
     8
  0
VERTEX
  5
332
330
2F4
100
AcDbEntity
  8
0
  6
Continuous
 62
   252
100
AcDbVertex
100
AcDb2dVertex
 10
258.5628547804
 20
30.0928920143
 30
0.0
 70
     8
  0
VERTEX
  5
333
330
2F4
100
AcDbEntity
  8
0
  6
Continuous
 62
   252
100
AcDbVertex
100
AcDb2dVertex
 10
258.2307464084
 20
30.0019159771
 30
0.0
 70
     8
  0
VERTEX
  5
334
330
2F4
100
AcDbEntity
  8
0
  6
Continuous
 62
   252
100
AcDbVertex
100
AcDb2dVertex
 10
257.7325783874
 20
29.8494189211
 30
0.0
 70
     8
  0
VERTEX
  5
335
330
2F4
100
AcDbEntity
  8
0
  6
Continuous
 62
   252
100
AcDbVertex
100
AcDb2dVertex
 10
257.2343999306
 20
29.6847388465
 30
0.0
 70
     8
  0
VERTEX
  5
336
330
2F4
100
AcDbEntity
  8
0
  6
Continuous
 62
   252
100
AcDbVertex
100
AcDb2dVertex
 10
257.962679948
 20
29.3238661791
 30
0.0
 70
     8
  0
VERTEX
  5
337
330
2F4
100
AcDbEntity
  8
0
  6
Continuous
 62
   252
100
AcDbVertex
100
AcDb2dVertex
 10
258.3466082665
 20
29.4380493573
 30
0.0
 70
     8
  0
VERTEX
  5
338
330
2F4
100
AcDbEntity
  8
0
  6
Continuous
 62
   252
100
AcDbVertex
100
AcDb2dVertex
 10
258.7305333594
 20
29.5395885499
 30
0.0
 70
     8
  0
VERTEX
  5
339
330
2F4
100
AcDbEntity
  8
0
  6
Continuous
 62
   252
100
AcDbVertex
100
AcDb2dVertex
 10
258.986482616
 20
29.598462169
 30
0.0
 70
     8
  0
VERTEX
  5
33A
330
2F4
100
AcDbEntity
  8
0
  6
Continuous
 62
   252
100
AcDbVertex
100
AcDb2dVertex
 10
259.2424319191
 20
29.6490241296
 30
0.0
 70
     8
  0
VERTEX
  5
33B
330
2F4
100
AcDbEntity
  8
0
  6
Continuous
 62
   252
100
AcDbVertex
100
AcDb2dVertex
 10
259.4983818608
 20
29.6901975881
 30
0.0
 70
     8
  0
VERTEX
  5
33C
330
2F4
100
AcDbEntity
  8
0
  6
Continuous
 62
   252
100
AcDbVertex
100
AcDb2dVertex
 10
259.754333033
 20
29.7209057005
 30
0.0
 70
     8
  0
VERTEX
  5
33D
330
2F4
100
AcDbEntity
  8
0
  6
Continuous
 62
   252
100
AcDbVertex
100
AcDb2dVertex
 10
260.0102860278
 20
29.7400716234
 30
0.0
 70
     8
  0
VERTEX
  5
33E
330
2F4
100
AcDbEntity
  8
0
  6
Continuous
 62
   252
100
AcDbVertex
100
AcDb2dVertex
 10
260.2662414373
 20
29.7466185127
 30
0.0
 70
     8
  0
VERTEX
  5
33F
330
2F4
100
AcDbEntity
  8
0
  6
Continuous
 62
   252
100
AcDbVertex
100
AcDb2dVertex
 10
260.6966841733
 20
29.7279030193
 30
0.0
 70
     8
  0
VERTEX
  5
340
330
2F4
100
AcDbEntity
  8
0
  6
Continuous
 62
   252
100
AcDbVertex
100
AcDb2dVertex
 10
261.1271348492
 20
29.6755868618
 30
0.0
 70
     8
  0
VERTEX
  5
341
330
2F4
100
AcDbEntity
  8
0
  6
Continuous
 62
   252
100
AcDbVertex
100
AcDb2dVertex
 10
261.557592902
 20
29.5948021713
 30
0.0
 70
     8
  0
VERTEX
  5
342
330
2F4
100
AcDbEntity
  8
0
  6
Continuous
 62
   252
100
AcDbVertex
100
AcDb2dVertex
 10
261.9880577685
 20
29.4906810787
 30
0.0
 70
     8
  0
VERTEX
  5
343
330
2F4
100
AcDbEntity
  8
0
  6
Continuous
 62
   252
100
AcDbVertex
100
AcDb2dVertex
 10
262.4185288856
 20
29.3683557148
 30
0.0
 70
     8
  0
VERTEX
  5
344
330
2F4
100
AcDbEntity
  8
0
  6
Continuous
 62
   252
100
AcDbVertex
100
AcDb2dVertex
 10
263.1359931081
 20
29.1379652936
 30
0.0
 70
     8
  0
VERTEX
  5
345
330
2F4
100
AcDbEntity
  8
0
  6
Continuous
 62
   252
100
AcDbVertex
100
AcDb2dVertex
 10
263.853470522
 20
28.895023237
 30
0.0
 70
     8
  0
VERTEX
  5
346
330
2F4
100
AcDbEntity
  8
0
  6
Continuous
 62
   252
100
AcDbVertex
100
AcDb2dVertex
 10
264.57095852
 20
28.6632894107
 30
0.0
 70
     8
  0
VERTEX
  5
347
330
2F4
100
AcDbEntity
  8
0
  6
Continuous
 62
   252
100
AcDbVertex
100
AcDb2dVertex
 10
265.0014553147
 20
28.5395131694
 30
0.0
 70
     8
  0
VERTEX
  5
348
330
2F4
100
AcDbEntity
  8
0
  6
Continuous
 62
   252
100
AcDbVertex
100
AcDb2dVertex
 10
265.431954418
 20
28.4334575735
 30
0.0
 70
     8
  0
VERTEX
  5
349
330
2F4
100
AcDbEntity
  8
0
  6
Continuous
 62
   252
100
AcDbVertex
100
AcDb2dVertex
 10
265.8624552667
 20
28.3502547538
 30
0.0
 70
     8
  0
VERTEX
  5
34A
330
2F4
100
AcDbEntity
  8
0
  6
Continuous
 62
   252
100
AcDbVertex
100
AcDb2dVertex
 10
266.2929572977
 20
28.2950368414
 30
0.0
 70
     8
  0
VERTEX
  5
34B
330
2F4
100
AcDbEntity
  8
0
  6
Continuous
 62
   252
100
AcDbVertex
100
AcDb2dVertex
 10
266.723459948
 20
28.2729359672
 30
0.0
 70
     8
  0
SEQEND
  5
34C
330
2F4
100
AcDbEntity
  8
0
  6
Continuous
 62
   252
 48
25.4
370
     0
  0
SPLINE
  5
34D
330
1F
100
AcDbEntity
  8
Standard
  6
Continuous
 62
     7
 48
25.4
100
AcDbSpline
210
0.0
220
0.0
230
1.0
 70
    11
 71
     1
 72
    99
 73
    97
 74
     0
 42
0.0000000001
 43
0.0000000001
 40
0.0
 40
0.0
 40
0.0104166666666667
 40
0.0208333333333333
 40
0.03125
 40
0.0416666666666667
 40
0.0520833333333333
 40
0.0625
 40
0.0729166666666667
 40
0.0833333333333333
 40
0.09375
 40
0.1041666666666667
 40
0.1145833333333333
 40
0.125
 40
0.1354166666666667
 40
0.1458333333333333
 40
0.15625
 40
0.1666666666666667
 40
0.1770833333333333
 40
0.1875
 40
0.1979166666666667
 40
0.2083333333333333
 40
0.21875
 40
0.2291666666666667
 40
0.2395833333333333
 40
0.25
 40
0.2604166666666666
 40
0.2708333333333333
 40
0.28125
 40
0.2916666666666666
 40
0.3020833333333333
 40
0.3125
 40
0.3229166666666666
 40
0.3333333333333333
 40
0.34375
 40
0.3541666666666666
 40
0.3645833333333333
 40
0.375
 40
0.3854166666666666
 40
0.3958333333333333
 40
0.40625
 40
0.4166666666666666
 40
0.4270833333333333
 40
0.4375
 40
0.4479166666666666
 40
0.4583333333333333
 40
0.46875
 40
0.4791666666666666
 40
0.4895833333333333
 40
0.5
 40
0.5104166666666666
 40
0.5208333333333333
 40
0.53125
 40
0.5416666666666666
 40
0.5520833333333333
 40
0.5625
 40
0.5729166666666666
 40
0.5833333333333333
 40
0.59375
 40
0.6041666666666666
 40
0.6145833333333333
 40
0.625
 40
0.6354166666666666
 40
0.6458333333333333
 40
0.65625
 40
0.6666666666666666
 40
0.6770833333333333
 40
0.6875
 40
0.6979166666666666
 40
0.7083333333333333
 40
0.71875
 40
0.7291666666666666
 40
0.7395833333333333
 40
0.75
 40
0.7604166666666666
 40
0.7708333333333333
 40
0.78125
 40
0.7916666666666666
 40
0.8020833333333333
 40
0.8125
 40
0.8229166666666666
 40
0.8333333333333333
 40
0.84375
 40
0.8541666666666666
 40
0.8645833333333333
 40
0.875
 40
0.8854166666666666
 40
0.8958333333333333
 40
0.90625
 40
0.9166666666666666
 40
0.9270833333333333
 40
0.9375
 40
0.9479166666666666
 40
0.9583333333333333
 40
0.96875
 40
0.9791666666666666
 40
0.9895833333333333
 40
1.0
 40
1.0
 10
266.723459947966
 20
30.33062320122801
 30
0.0
 10
267.1539625981962
 20
30.3527240754656
 30
0.0
 10
267.5844646292466
 20
30.4079419878692
 30
0.0
 10
268.0149654779771
 20
30.49114480750378
 30
0.0
 10
268.4454645812468
 20
30.59720040343425
 30
0.0
 10
268.8759613759153
 20
30.7209766447257
 30
0.0
 10
269.5934493739533
 20
30.9527104710666
 30
0.0
 10
270.3109267877985
 20
31.19565252759513
 30
0.0
 10
271.0283910103184
 20
31.42604294887144
 30
0.0
 10
271.4588621274273
 20
31.54836831269317
 30
0.0
 10
271.8893269939509
 20
31.6524894053308
 30
0.0
 10
272.3197850467486
 20
31.73327409584917
 30
0.0
 10
272.75023572268
 20
31.78559025331337
 30
0.0
 10
273.1806784586045
 20
31.80430574678836
 30
0.0
 10
273.4186825108234
 20
31.79864203141938
 30
0.0
 10
273.6566844393055
 20
31.78200198124323
 30
0.0
 10
273.8946847200573
 20
31.75525138579979
 30
0.0
 10
274.1326838290857
 20
31.71925603462864
 30
0.0
 10
274.370682242397
 20
31.6748817172697
 30
0.0
 10
274.6086804359978
 20
31.62299422326262
 30
0.0
 10
274.9656783557067
 20
31.53296969065497
 30
0.0
 10
275.3226784586044
 20
31.4309105767501
 30
0.0
 10
278.0332199479662
 20
30.61773391431091
 30
0.0
 10
278.2134027517615
 20
30.75858156016173
 30
0.0
 10
278.3850648096407
 20
30.91000228723948
 30
0.0
 10
278.4674135499361
 20
30.98943185794425
 30
0.0
 10
278.5472999479661
 20
31.0711967723116
 30
0.0
 10
275.3226784586044
 20
32.0284213115086
 30
0.0
 10
274.972818642646
 20
32.12727516492544
 30
0.0
 10
274.6229607691328
 20
32.21429176937082
 30
0.0
 10
274.3897225192372
 20
32.26436862577462
 30
0.0
 10
274.1564840126163
 20
32.30714753693884
 30
0.0
 10
273.9232448012565
 20
32.3418137245847
 30
0.0
 10
273.6900044371436
 20
32.36755241043351
 30
0.0
 10
273.4567624722642
 20
32.38354881620656
 30
0.0
 10
273.2235184586044
 20
32.38898816362521
 30
0.0
 10
272.7902200938439
 20
32.3700328769915
 30
0.0
 10
272.3569136871629
 20
32.3170681394512
 30
0.0
 10
271.9235998129844
 20
32.23532828481804
 30
0.0
 10
271.4902790457313
 20
32.13004764690583
 30
0.0
 10
271.0569519598263
 20
32.00646055952824
 30
0.0
 10
270.3347276686974
 20
31.7740177908776
 30
0.0
 10
269.6124900807425
 20
31.52949661677715
 30
0.0
 10
268.8902418553266
 20
31.29713006414223
 30
0.0
 10
268.4568889203918
 20
31.17362529006171
 30
0.0
 10
268.0235336877655
 20
31.06845440321213
 30
0.0
 10
267.5901767318705
 20
30.98685173740731
 30
0.0
 10
267.1568186271298
 20
30.93405162646099
 30
0.0
 10
266.723459947966
 20
30.91528840418692
 30
0.0
 10
266.2901012688024
 20
30.93405162646099
 30
0.0
 10
265.8567431640616
 20
30.98685173740731
 30
0.0
 10
265.4233862081667
 20
31.06845440321213
 30
0.0
 10
264.9900309755405
 20
31.17362529006171
 30
0.0
 10
264.5566780406056
 20
31.29713006414228
 30
0.0
 10
263.8344298151898
 20
31.52949661677715
 30
0.0
 10
263.1121922272349
 20
31.77401779087771
 30
0.0
 10
262.389967936106
 20
32.0064605595283
 30
0.0
 10
261.9566408502012
 20
32.13004764690583
 30
0.0
 10
261.5233200829479
 20
32.2353282848181
 30
0.0
 10
261.0900062087694
 20
32.3170681394512
 30
0.0
 10
260.6566998020884
 20
32.37003287699156
 30
0.0
 10
260.2234014373279
 20
32.38898816362521
 30
0.0
 10
259.9901574236682
 20
32.38354881620661
 30
0.0
 10
259.7569154587887
 20
32.36755241043351
 30
0.0
 10
259.5236750946759
 20
32.34181372458475
 30
0.0
 10
259.290435883316
 20
32.30714753693889
 30
0.0
 10
259.0571973766951
 20
32.26436862577472
 30
0.0
 10
258.8239591267996
 20
32.21429176937088
 30
0.0
 10
258.4741012532863
 20
32.1272751649255
 30
0.0
 10
258.124241437328
 20
32.02842131150865
 30
0.0
 10
254.8996199479661
 20
31.07119677231171
 30
0.0
 10
255.0618550862918
 20
30.91000228723953
 30
0.0
 10
255.2335171441709
 20
30.75858156016173
 30
0.0
 10
255.3226036689285
 20
30.68679045460379
 30
0.0
 10
255.4136999479661
 20
30.61773391431097
 30
0.0
 10
258.124241437328
 20
31.43091057675015
 30
0.0
 10
258.4812415402256
 20
31.53296969065497
 30
0.0
 10
258.8382394599345
 20
31.62299422326262
 30
0.0
 10
259.0762376535354
 20
31.6748817172697
 30
0.0
 10
259.3142360668466
 20
31.71925603462869
 30
0.0
 10
259.552235175875
 20
31.75525138579979
 30
0.0
 10
259.7902354566268
 20
31.78200198124329
 30
0.0
 10
260.0282373851089
 20
31.79864203141944
 30
0.0
 10
260.2662414373278
 20
31.80430574678842
 30
0.0
 10
260.6966841732523
 20
31.78559025331337
 30
0.0
 10
261.1271348491837
 20
31.73327409584922
 30
0.0
 10
261.5575929019815
 20
31.6524894053308
 30
0.0
 10
261.988057768505
 20
31.54836831269322
 30
0.0
 10
262.4185288856139
 20
31.42604294887144
 30
0.0
 10
263.1359931081339
 20
31.19565252759513
 30
0.0
 10
263.853470521979
 20
30.9527104710666
 30
0.0
 10
264.570958520017
 20
30.7209766447257
 30
0.0
 10
265.0014553146854
 20
30.59720040343425
 30
0.0
 10
265.4319544179551
 20
30.49114480750378
 30
0.0
 10
265.8624552666855
 20
30.4079419878692
 30
0.0
 10
266.292957297736
 20
30.3527240754656
 30
0.0
 10
266.723459947966
 20
30.33062320122801
 30
0.0
  0
HATCH
  5
34E
330
1F
100
AcDbEntity
  8
0
  6
Continuous
 62
   252
 48
25.4
100
AcDbHatch
 10
0.0
 20
0.0
 30
0.0
210
0.0
220
0.0
230
1.0
  2
SOLID
 70
     1
 71
     0
 91
        1
 92
        1
 93
       96
 72
     1
 10
266.723459947966
 20
30.33062320122801
 11
267.1539625981962
 21
30.3527240754656
 72
     1
 10
267.1539625981962
 20
30.3527240754656
 11
267.5844646292466
 21
30.4079419878692
 72
     1
 10
267.5844646292466
 20
30.4079419878692
 11
268.0149654779771
 21
30.49114480750378
 72
     1
 10
268.0149654779771
 20
30.49114480750378
 11
268.4454645812468
 21
30.59720040343425
 72
     1
 10
268.4454645812468
 20
30.59720040343425
 11
268.8759613759153
 21
30.7209766447257
 72
     1
 10
268.8759613759153
 20
30.7209766447257
 11
269.5934493739533
 21
30.9527104710666
 72
     1
 10
269.5934493739533
 20
30.9527104710666
 11
270.3109267877985
 21
31.19565252759513
 72
     1
 10
270.3109267877985
 20
31.19565252759513
 11
271.0283910103184
 21
31.42604294887144
 72
     1
 10
271.0283910103184
 20
31.42604294887144
 11
271.4588621274273
 21
31.54836831269317
 72
     1
 10
271.4588621274273
 20
31.54836831269317
 11
271.8893269939509
 21
31.6524894053308
 72
     1
 10
271.8893269939509
 20
31.6524894053308
 11
272.3197850467486
 21
31.73327409584917
 72
     1
 10
272.3197850467486
 20
31.73327409584917
 11
272.75023572268
 21
31.78559025331337
 72
     1
 10
272.75023572268
 20
31.78559025331337
 11
273.1806784586045
 21
31.80430574678836
 72
     1
 10
273.1806784586045
 20
31.80430574678836
 11
273.4186825108234
 21
31.79864203141938
 72
     1
 10
273.4186825108234
 20
31.79864203141938
 11
273.6566844393055
 21
31.78200198124323
 72
     1
 10
273.6566844393055
 20
31.78200198124323
 11
273.8946847200573
 21
31.75525138579979
 72
     1
 10
273.8946847200573
 20
31.75525138579979
 11
274.1326838290857
 21
31.71925603462864
 72
     1
 10
274.1326838290857
 20
31.71925603462864
 11
274.370682242397
 21
31.6748817172697
 72
     1
 10
274.370682242397
 20
31.6748817172697
 11
274.6086804359978
 21
31.62299422326262
 72
     1
 10
274.6086804359978
 20
31.62299422326262
 11
274.9656783557067
 21
31.53296969065497
 72
     1
 10
274.9656783557067
 20
31.53296969065497
 11
275.3226784586044
 21
31.4309105767501
 72
     1
 10
275.3226784586044
 20
31.4309105767501
 11
278.0332199479662
 21
30.61773391431091
 72
     1
 10
278.0332199479662
 20
30.61773391431091
 11
278.2134027517615
 21
30.75858156016173
 72
     1
 10
278.2134027517615
 20
30.75858156016173
 11
278.3850648096407
 21
30.91000228723948
 72
     1
 10
278.3850648096407
 20
30.91000228723948
 11
278.4674135499361
 21
30.98943185794425
 72
     1
 10
278.4674135499361
 20
30.98943185794425
 11
278.5472999479661
 21
31.0711967723116
 72
     1
 10
278.5472999479661
 20
31.0711967723116
 11
275.3226784586044
 21
32.0284213115086
 72
     1
 10
275.3226784586044
 20
32.0284213115086
 11
274.972818642646
 21
32.12727516492544
 72
     1
 10
274.972818642646
 20
32.12727516492544
 11
274.6229607691328
 21
32.21429176937082
 72
     1
 10
274.6229607691328
 20
32.21429176937082
 11
274.3897225192372
 21
32.26436862577462
 72
     1
 10
274.3897225192372
 20
32.26436862577462
 11
274.1564840126163
 21
32.30714753693884
 72
     1
 10
274.1564840126163
 20
32.30714753693884
 11
273.9232448012565
 21
32.3418137245847
 72
     1
 10
273.9232448012565
 20
32.3418137245847
 11
273.6900044371436
 21
32.36755241043351
 72
     1
 10
273.6900044371436
 20
32.36755241043351
 11
273.4567624722642
 21
32.38354881620656
 72
     1
 10
273.4567624722642
 20
32.38354881620656
 11
273.2235184586044
 21
32.38898816362521
 72
     1
 10
273.2235184586044
 20
32.38898816362521
 11
272.7902200938439
 21
32.3700328769915
 72
     1
 10
272.7902200938439
 20
32.3700328769915
 11
272.3569136871629
 21
32.3170681394512
 72
     1
 10
272.3569136871629
 20
32.3170681394512
 11
271.9235998129844
 21
32.23532828481804
 72
     1
 10
271.9235998129844
 20
32.23532828481804
 11
271.4902790457313
 21
32.13004764690583
 72
     1
 10
271.4902790457313
 20
32.13004764690583
 11
271.0569519598263
 21
32.00646055952824
 72
     1
 10
271.0569519598263
 20
32.00646055952824
 11
270.3347276686974
 21
31.7740177908776
 72
     1
 10
270.3347276686974
 20
31.7740177908776
 11
269.6124900807425
 21
31.52949661677715
 72
     1
 10
269.6124900807425
 20
31.52949661677715
 11
268.8902418553266
 21
31.29713006414223
 72
     1
 10
268.8902418553266
 20
31.29713006414223
 11
268.4568889203918
 21
31.17362529006171
 72
     1
 10
268.4568889203918
 20
31.17362529006171
 11
268.0235336877655
 21
31.06845440321213
 72
     1
 10
268.0235336877655
 20
31.06845440321213
 11
267.5901767318705
 21
30.98685173740731
 72
     1
 10
267.5901767318705
 20
30.98685173740731
 11
267.1568186271298
 21
30.93405162646099
 72
     1
 10
267.1568186271298
 20
30.93405162646099
 11
266.723459947966
 21
30.91528840418692
 72
     1
 10
266.723459947966
 20
30.91528840418692
 11
266.2901012688024
 21
30.93405162646099
 72
     1
 10
266.2901012688024
 20
30.93405162646099
 11
265.8567431640616
 21
30.98685173740731
 72
     1
 10
265.8567431640616
 20
30.98685173740731
 11
265.4233862081667
 21
31.06845440321213
 72
     1
 10
265.4233862081667
 20
31.06845440321213
 11
264.9900309755405
 21
31.17362529006171
 72
     1
 10
264.9900309755405
 20
31.17362529006171
 11
264.5566780406056
 21
31.29713006414228
 72
     1
 10
264.5566780406056
 20
31.29713006414228
 11
263.8344298151898
 21
31.52949661677715
 72
     1
 10
263.8344298151898
 20
31.52949661677715
 11
263.1121922272349
 21
31.77401779087771
 72
     1
 10
263.1121922272349
 20
31.77401779087771
 11
262.389967936106
 21
32.0064605595283
 72
     1
 10
262.389967936106
 20
32.0064605595283
 11
261.9566408502012
 21
32.13004764690583
 72
     1
 10
261.9566408502012
 20
32.13004764690583
 11
261.5233200829479
 21
32.2353282848181
 72
     1
 10
261.5233200829479
 20
32.2353282848181
 11
261.0900062087694
 21
32.3170681394512
 72
     1
 10
261.0900062087694
 20
32.3170681394512
 11
260.6566998020884
 21
32.37003287699156
 72
     1
 10
260.6566998020884
 20
32.37003287699156
 11
260.2234014373279
 21
32.38898816362521
 72
     1
 10
260.2234014373279
 20
32.38898816362521
 11
259.9901574236682
 21
32.38354881620661
 72
     1
 10
259.9901574236682
 20
32.38354881620661
 11
259.7569154587887
 21
32.36755241043351
 72
     1
 10
259.7569154587887
 20
32.36755241043351
 11
259.5236750946759
 21
32.34181372458475
 72
     1
 10
259.5236750946759
 20
32.34181372458475
 11
259.290435883316
 21
32.30714753693889
 72
     1
 10
259.290435883316
 20
32.30714753693889
 11
259.0571973766951
 21
32.26436862577472
 72
     1
 10
259.0571973766951
 20
32.26436862577472
 11
258.8239591267996
 21
32.21429176937088
 72
     1
 10
258.8239591267996
 20
32.21429176937088
 11
258.4741012532863
 21
32.1272751649255
 72
     1
 10
258.4741012532863
 20
32.1272751649255
 11
258.124241437328
 21
32.02842131150865
 72
     1
 10
258.124241437328
 20
32.02842131150865
 11
254.8996199479661
 21
31.07119677231171
 72
     1
 10
254.8996199479661
 20
31.07119677231171
 11
255.0618550862918
 21
30.91000228723953
 72
     1
 10
255.0618550862918
 20
30.91000228723953
 11
255.2335171441709
 21
30.75858156016173
 72
     1
 10
255.2335171441709
 20
30.75858156016173
 11
255.3226036689285
 21
30.68679045460379
 72
     1
 10
255.3226036689285
 20
30.68679045460379
 11
255.4136999479661
 21
30.61773391431097
 72
     1
 10
255.4136999479661
 20
30.61773391431097
 11
258.124241437328
 21
31.43091057675015
 72
     1
 10
258.124241437328
 20
31.43091057675015
 11
258.4812415402256
 21
31.53296969065497
 72
     1
 10
258.4812415402256
 20
31.53296969065497
 11
258.8382394599345
 21
31.62299422326262
 72
     1
 10
258.8382394599345
 20
31.62299422326262
 11
259.0762376535354
 21
31.6748817172697
 72
     1
 10
259.0762376535354
 20
31.6748817172697
 11
259.3142360668466
 21
31.71925603462869
 72
     1
 10
259.3142360668466
 20
31.71925603462869
 11
259.552235175875
 21
31.75525138579979
 72
     1
 10
259.552235175875
 20
31.75525138579979
 11
259.7902354566268
 21
31.78200198124329
 72
     1
 10
259.7902354566268
 20
31.78200198124329
 11
260.0282373851089
 21
31.79864203141944
 72
     1
 10
260.0282373851089
 20
31.79864203141944
 11
260.2662414373278
 21
31.80430574678842
 72
     1
 10
260.2662414373278
 20
31.80430574678842
 11
260.6966841732523
 21
31.78559025331337
 72
     1
 10
260.6966841732523
 20
31.78559025331337
 11
261.1271348491837
 21
31.73327409584922
 72
     1
 10
261.1271348491837
 20
31.73327409584922
 11
261.5575929019815
 21
31.6524894053308
 72
     1
 10
261.5575929019815
 20
31.6524894053308
 11
261.988057768505
 21
31.54836831269322
 72
     1
 10
261.988057768505
 20
31.54836831269322
 11
262.4185288856139
 21
31.42604294887144
 72
     1
 10
262.4185288856139
 20
31.42604294887144
 11
263.1359931081339
 21
31.19565252759513
 72
     1
 10
263.1359931081339
 20
31.19565252759513
 11
263.853470521979
 21
30.9527104710666
 72
     1
 10
263.853470521979
 20
30.9527104710666
 11
264.570958520017
 21
30.7209766447257
 72
     1
 10
264.570958520017
 20
30.7209766447257
 11
265.0014553146854
 21
30.59720040343425
 72
     1
 10
265.0014553146854
 20
30.59720040343425
 11
265.4319544179551
 21
30.49114480750378
 72
     1
 10
265.4319544179551
 20
30.49114480750378
 11
265.8624552666855
 21
30.4079419878692
 72
     1
 10
265.8624552666855
 20
30.4079419878692
 11
266.292957297736
 21
30.3527240754656
 72
     1
 10
266.292957297736
 20
30.3527240754656
 11
266.723459947966
 21
30.33062320122801
 97
        0
 75
     0
 76
     1
 98
        0
  0
POLYLINE
  5
34F
330
1F
100
AcDbEntity
  8
0
  6
Continuous
 62
   252
 48
25.4
370
     0
100
AcDb2dPolyline
 66
     1
 10
0.0
 20
0.0
 30
0.0
 70
     1
  0
VERTEX
  5
350
330
34F
100
AcDbEntity
  8
0
  6
Continuous
 62
   252
100
AcDbVertex
100
AcDb2dVertex
 10
266.723459948
 20
30.3306232012
 30
0.0
 70
     8
  0
VERTEX
  5
351
330
34F
100
AcDbEntity
  8
0
  6
Continuous
 62
   252
100
AcDbVertex
100
AcDb2dVertex
 10
267.1539625982
 20
30.3527240755
 30
0.0
 70
     8
  0
VERTEX
  5
352
330
34F
100
AcDbEntity
  8
0
  6
Continuous
 62
   252
100
AcDbVertex
100
AcDb2dVertex
 10
267.5844646292
 20
30.4079419879
 30
0.0
 70
     8
  0
VERTEX
  5
353
330
34F
100
AcDbEntity
  8
0
  6
Continuous
 62
   252
100
AcDbVertex
100
AcDb2dVertex
 10
268.014965478
 20
30.4911448075
 30
0.0
 70
     8
  0
VERTEX
  5
354
330
34F
100
AcDbEntity
  8
0
  6
Continuous
 62
   252
100
AcDbVertex
100
AcDb2dVertex
 10
268.4454645812
 20
30.5972004034
 30
0.0
 70
     8
  0
VERTEX
  5
355
330
34F
100
AcDbEntity
  8
0
  6
Continuous
 62
   252
100
AcDbVertex
100
AcDb2dVertex
 10
268.8759613759
 20
30.7209766447
 30
0.0
 70
     8
  0
VERTEX
  5
356
330
34F
100
AcDbEntity
  8
0
  6
Continuous
 62
   252
100
AcDbVertex
100
AcDb2dVertex
 10
269.593449374
 20
30.9527104711
 30
0.0
 70
     8
  0
VERTEX
  5
357
330
34F
100
AcDbEntity
  8
0
  6
Continuous
 62
   252
100
AcDbVertex
100
AcDb2dVertex
 10
270.3109267878
 20
31.1956525276
 30
0.0
 70
     8
  0
VERTEX
  5
358
330
34F
100
AcDbEntity
  8
0
  6
Continuous
 62
   252
100
AcDbVertex
100
AcDb2dVertex
 10
271.0283910103
 20
31.4260429489
 30
0.0
 70
     8
  0
VERTEX
  5
359
330
34F
100
AcDbEntity
  8
0
  6
Continuous
 62
   252
100
AcDbVertex
100
AcDb2dVertex
 10
271.4588621274
 20
31.5483683127
 30
0.0
 70
     8
  0
VERTEX
  5
35A
330
34F
100
AcDbEntity
  8
0
  6
Continuous
 62
   252
100
AcDbVertex
100
AcDb2dVertex
 10
271.889326994
 20
31.6524894053
 30
0.0
 70
     8
  0
VERTEX
  5
35B
330
34F
100
AcDbEntity
  8
0
  6
Continuous
 62
   252
100
AcDbVertex
100
AcDb2dVertex
 10
272.3197850467
 20
31.7332740958
 30
0.0
 70
     8
  0
VERTEX
  5
35C
330
34F
100
AcDbEntity
  8
0
  6
Continuous
 62
   252
100
AcDbVertex
100
AcDb2dVertex
 10
272.7502357227
 20
31.7855902533
 30
0.0
 70
     8
  0
VERTEX
  5
35D
330
34F
100
AcDbEntity
  8
0
  6
Continuous
 62
   252
100
AcDbVertex
100
AcDb2dVertex
 10
273.1806784586
 20
31.8043057468
 30
0.0
 70
     8
  0
VERTEX
  5
35E
330
34F
100
AcDbEntity
  8
0
  6
Continuous
 62
   252
100
AcDbVertex
100
AcDb2dVertex
 10
273.4186825108
 20
31.7986420314
 30
0.0
 70
     8
  0
VERTEX
  5
35F
330
34F
100
AcDbEntity
  8
0
  6
Continuous
 62
   252
100
AcDbVertex
100
AcDb2dVertex
 10
273.6566844393
 20
31.7820019812
 30
0.0
 70
     8
  0
VERTEX
  5
360
330
34F
100
AcDbEntity
  8
0
  6
Continuous
 62
   252
100
AcDbVertex
100
AcDb2dVertex
 10
273.8946847201
 20
31.7552513858
 30
0.0
 70
     8
  0
VERTEX
  5
361
330
34F
100
AcDbEntity
  8
0
  6
Continuous
 62
   252
100
AcDbVertex
100
AcDb2dVertex
 10
274.1326838291
 20
31.7192560346
 30
0.0
 70
     8
  0
VERTEX
  5
362
330
34F
100
AcDbEntity
  8
0
  6
Continuous
 62
   252
100
AcDbVertex
100
AcDb2dVertex
 10
274.3706822424
 20
31.6748817173
 30
0.0
 70
     8
  0
VERTEX
  5
363
330
34F
100
AcDbEntity
  8
0
  6
Continuous
 62
   252
100
AcDbVertex
100
AcDb2dVertex
 10
274.608680436
 20
31.6229942233
 30
0.0
 70
     8
  0
VERTEX
  5
364
330
34F
100
AcDbEntity
  8
0
  6
Continuous
 62
   252
100
AcDbVertex
100
AcDb2dVertex
 10
274.9656783557
 20
31.5329696907
 30
0.0
 70
     8
  0
VERTEX
  5
365
330
34F
100
AcDbEntity
  8
0
  6
Continuous
 62
   252
100
AcDbVertex
100
AcDb2dVertex
 10
275.3226784586
 20
31.4309105768
 30
0.0
 70
     8
  0
VERTEX
  5
366
330
34F
100
AcDbEntity
  8
0
  6
Continuous
 62
   252
100
AcDbVertex
100
AcDb2dVertex
 10
278.033219948
 20
30.6177339143
 30
0.0
 70
     8
  0
VERTEX
  5
367
330
34F
100
AcDbEntity
  8
0
  6
Continuous
 62
   252
100
AcDbVertex
100
AcDb2dVertex
 10
278.2134027518
 20
30.7585815602
 30
0.0
 70
     8
  0
VERTEX
  5
368
330
34F
100
AcDbEntity
  8
0
  6
Continuous
 62
   252
100
AcDbVertex
100
AcDb2dVertex
 10
278.3850648096
 20
30.9100022872
 30
0.0
 70
     8
  0
VERTEX
  5
369
330
34F
100
AcDbEntity
  8
0
  6
Continuous
 62
   252
100
AcDbVertex
100
AcDb2dVertex
 10
278.4674135499
 20
30.9894318579
 30
0.0
 70
     8
  0
VERTEX
  5
36A
330
34F
100
AcDbEntity
  8
0
  6
Continuous
 62
   252
100
AcDbVertex
100
AcDb2dVertex
 10
278.547299948
 20
31.0711967723
 30
0.0
 70
     8
  0
VERTEX
  5
36B
330
34F
100
AcDbEntity
  8
0
  6
Continuous
 62
   252
100
AcDbVertex
100
AcDb2dVertex
 10
275.3226784586
 20
32.0284213115
 30
0.0
 70
     8
  0
VERTEX
  5
36C
330
34F
100
AcDbEntity
  8
0
  6
Continuous
 62
   252
100
AcDbVertex
100
AcDb2dVertex
 10
274.9728186426
 20
32.1272751649
 30
0.0
 70
     8
  0
VERTEX
  5
36D
330
34F
100
AcDbEntity
  8
0
  6
Continuous
 62
   252
100
AcDbVertex
100
AcDb2dVertex
 10
274.6229607691
 20
32.2142917694
 30
0.0
 70
     8
  0
VERTEX
  5
36E
330
34F
100
AcDbEntity
  8
0
  6
Continuous
 62
   252
100
AcDbVertex
100
AcDb2dVertex
 10
274.3897225192
 20
32.2643686258
 30
0.0
 70
     8
  0
VERTEX
  5
36F
330
34F
100
AcDbEntity
  8
0
  6
Continuous
 62
   252
100
AcDbVertex
100
AcDb2dVertex
 10
274.1564840126
 20
32.3071475369
 30
0.0
 70
     8
  0
VERTEX
  5
370
330
34F
100
AcDbEntity
  8
0
  6
Continuous
 62
   252
100
AcDbVertex
100
AcDb2dVertex
 10
273.9232448013
 20
32.3418137246
 30
0.0
 70
     8
  0
VERTEX
  5
371
330
34F
100
AcDbEntity
  8
0
  6
Continuous
 62
   252
100
AcDbVertex
100
AcDb2dVertex
 10
273.6900044371
 20
32.3675524104
 30
0.0
 70
     8
  0
VERTEX
  5
372
330
34F
100
AcDbEntity
  8
0
  6
Continuous
 62
   252
100
AcDbVertex
100
AcDb2dVertex
 10
273.4567624723
 20
32.3835488162
 30
0.0
 70
     8
  0
VERTEX
  5
373
330
34F
100
AcDbEntity
  8
0
  6
Continuous
 62
   252
100
AcDbVertex
100
AcDb2dVertex
 10
273.2235184586
 20
32.3889881636
 30
0.0
 70
     8
  0
VERTEX
  5
374
330
34F
100
AcDbEntity
  8
0
  6
Continuous
 62
   252
100
AcDbVertex
100
AcDb2dVertex
 10
272.7902200938
 20
32.370032877
 30
0.0
 70
     8
  0
VERTEX
  5
375
330
34F
100
AcDbEntity
  8
0
  6
Continuous
 62
   252
100
AcDbVertex
100
AcDb2dVertex
 10
272.3569136872
 20
32.3170681395
 30
0.0
 70
     8
  0
VERTEX
  5
376
330
34F
100
AcDbEntity
  8
0
  6
Continuous
 62
   252
100
AcDbVertex
100
AcDb2dVertex
 10
271.923599813
 20
32.2353282848
 30
0.0
 70
     8
  0
VERTEX
  5
377
330
34F
100
AcDbEntity
  8
0
  6
Continuous
 62
   252
100
AcDbVertex
100
AcDb2dVertex
 10
271.4902790457
 20
32.1300476469
 30
0.0
 70
     8
  0
VERTEX
  5
378
330
34F
100
AcDbEntity
  8
0
  6
Continuous
 62
   252
100
AcDbVertex
100
AcDb2dVertex
 10
271.0569519598
 20
32.0064605595
 30
0.0
 70
     8
  0
VERTEX
  5
379
330
34F
100
AcDbEntity
  8
0
  6
Continuous
 62
   252
100
AcDbVertex
100
AcDb2dVertex
 10
270.3347276687
 20
31.7740177909
 30
0.0
 70
     8
  0
VERTEX
  5
37A
330
34F
100
AcDbEntity
  8
0
  6
Continuous
 62
   252
100
AcDbVertex
100
AcDb2dVertex
 10
269.6124900807
 20
31.5294966168
 30
0.0
 70
     8
  0
VERTEX
  5
37B
330
34F
100
AcDbEntity
  8
0
  6
Continuous
 62
   252
100
AcDbVertex
100
AcDb2dVertex
 10
268.8902418553
 20
31.2971300641
 30
0.0
 70
     8
  0
VERTEX
  5
37C
330
34F
100
AcDbEntity
  8
0
  6
Continuous
 62
   252
100
AcDbVertex
100
AcDb2dVertex
 10
268.4568889204
 20
31.1736252901
 30
0.0
 70
     8
  0
VERTEX
  5
37D
330
34F
100
AcDbEntity
  8
0
  6
Continuous
 62
   252
100
AcDbVertex
100
AcDb2dVertex
 10
268.0235336878
 20
31.0684544032
 30
0.0
 70
     8
  0
VERTEX
  5
37E
330
34F
100
AcDbEntity
  8
0
  6
Continuous
 62
   252
100
AcDbVertex
100
AcDb2dVertex
 10
267.5901767319
 20
30.9868517374
 30
0.0
 70
     8
  0
VERTEX
  5
37F
330
34F
100
AcDbEntity
  8
0
  6
Continuous
 62
   252
100
AcDbVertex
100
AcDb2dVertex
 10
267.1568186271
 20
30.9340516265
 30
0.0
 70
     8
  0
VERTEX
  5
380
330
34F
100
AcDbEntity
  8
0
  6
Continuous
 62
   252
100
AcDbVertex
100
AcDb2dVertex
 10
266.723459948
 20
30.9152884042
 30
0.0
 70
     8
  0
VERTEX
  5
381
330
34F
100
AcDbEntity
  8
0
  6
Continuous
 62
   252
100
AcDbVertex
100
AcDb2dVertex
 10
266.2901012688
 20
30.9340516265
 30
0.0
 70
     8
  0
VERTEX
  5
382
330
34F
100
AcDbEntity
  8
0
  6
Continuous
 62
   252
100
AcDbVertex
100
AcDb2dVertex
 10
265.8567431641
 20
30.9868517374
 30
0.0
 70
     8
  0
VERTEX
  5
383
330
34F
100
AcDbEntity
  8
0
  6
Continuous
 62
   252
100
AcDbVertex
100
AcDb2dVertex
 10
265.4233862082
 20
31.0684544032
 30
0.0
 70
     8
  0
VERTEX
  5
384
330
34F
100
AcDbEntity
  8
0
  6
Continuous
 62
   252
100
AcDbVertex
100
AcDb2dVertex
 10
264.9900309755
 20
31.1736252901
 30
0.0
 70
     8
  0
VERTEX
  5
385
330
34F
100
AcDbEntity
  8
0
  6
Continuous
 62
   252
100
AcDbVertex
100
AcDb2dVertex
 10
264.5566780406
 20
31.2971300641
 30
0.0
 70
     8
  0
VERTEX
  5
386
330
34F
100
AcDbEntity
  8
0
  6
Continuous
 62
   252
100
AcDbVertex
100
AcDb2dVertex
 10
263.8344298152
 20
31.5294966168
 30
0.0
 70
     8
  0
VERTEX
  5
387
330
34F
100
AcDbEntity
  8
0
  6
Continuous
 62
   252
100
AcDbVertex
100
AcDb2dVertex
 10
263.1121922272
 20
31.7740177909
 30
0.0
 70
     8
  0
VERTEX
  5
388
330
34F
100
AcDbEntity
  8
0
  6
Continuous
 62
   252
100
AcDbVertex
100
AcDb2dVertex
 10
262.3899679361
 20
32.0064605595
 30
0.0
 70
     8
  0
VERTEX
  5
389
330
34F
100
AcDbEntity
  8
0
  6
Continuous
 62
   252
100
AcDbVertex
100
AcDb2dVertex
 10
261.9566408502
 20
32.1300476469
 30
0.0
 70
     8
  0
VERTEX
  5
38A
330
34F
100
AcDbEntity
  8
0
  6
Continuous
 62
   252
100
AcDbVertex
100
AcDb2dVertex
 10
261.5233200829
 20
32.2353282848
 30
0.0
 70
     8
  0
VERTEX
  5
38B
330
34F
100
AcDbEntity
  8
0
  6
Continuous
 62
   252
100
AcDbVertex
100
AcDb2dVertex
 10
261.0900062088
 20
32.3170681395
 30
0.0
 70
     8
  0
VERTEX
  5
38C
330
34F
100
AcDbEntity
  8
0
  6
Continuous
 62
   252
100
AcDbVertex
100
AcDb2dVertex
 10
260.6566998021
 20
32.370032877
 30
0.0
 70
     8
  0
VERTEX
  5
38D
330
34F
100
AcDbEntity
  8
0
  6
Continuous
 62
   252
100
AcDbVertex
100
AcDb2dVertex
 10
260.2234014373
 20
32.3889881636
 30
0.0
 70
     8
  0
VERTEX
  5
38E
330
34F
100
AcDbEntity
  8
0
  6
Continuous
 62
   252
100
AcDbVertex
100
AcDb2dVertex
 10
259.9901574237
 20
32.3835488162
 30
0.0
 70
     8
  0
VERTEX
  5
38F
330
34F
100
AcDbEntity
  8
0
  6
Continuous
 62
   252
100
AcDbVertex
100
AcDb2dVertex
 10
259.7569154588
 20
32.3675524104
 30
0.0
 70
     8
  0
VERTEX
  5
390
330
34F
100
AcDbEntity
  8
0
  6
Continuous
 62
   252
100
AcDbVertex
100
AcDb2dVertex
 10
259.5236750947
 20
32.3418137246
 30
0.0
 70
     8
  0
VERTEX
  5
391
330
34F
100
AcDbEntity
  8
0
  6
Continuous
 62
   252
100
AcDbVertex
100
AcDb2dVertex
 10
259.2904358833
 20
32.3071475369
 30
0.0
 70
     8
  0
VERTEX
  5
392
330
34F
100
AcDbEntity
  8
0
  6
Continuous
 62
   252
100
AcDbVertex
100
AcDb2dVertex
 10
259.0571973767
 20
32.2643686258
 30
0.0
 70
     8
  0
VERTEX
  5
393
330
34F
100
AcDbEntity
  8
0
  6
Continuous
 62
   252
100
AcDbVertex
100
AcDb2dVertex
 10
258.8239591268
 20
32.2142917694
 30
0.0
 70
     8
  0
VERTEX
  5
394
330
34F
100
AcDbEntity
  8
0
  6
Continuous
 62
   252
100
AcDbVertex
100
AcDb2dVertex
 10
258.4741012533
 20
32.1272751649
 30
0.0
 70
     8
  0
VERTEX
  5
395
330
34F
100
AcDbEntity
  8
0
  6
Continuous
 62
   252
100
AcDbVertex
100
AcDb2dVertex
 10
258.1242414373
 20
32.0284213115
 30
0.0
 70
     8
  0
VERTEX
  5
396
330
34F
100
AcDbEntity
  8
0
  6
Continuous
 62
   252
100
AcDbVertex
100
AcDb2dVertex
 10
254.899619948
 20
31.0711967723
 30
0.0
 70
     8
  0
VERTEX
  5
397
330
34F
100
AcDbEntity
  8
0
  6
Continuous
 62
   252
100
AcDbVertex
100
AcDb2dVertex
 10
255.0618550863
 20
30.9100022872
 30
0.0
 70
     8
  0
VERTEX
  5
398
330
34F
100
AcDbEntity
  8
0
  6
Continuous
 62
   252
100
AcDbVertex
100
AcDb2dVertex
 10
255.2335171442
 20
30.7585815602
 30
0.0
 70
     8
  0
VERTEX
  5
399
330
34F
100
AcDbEntity
  8
0
  6
Continuous
 62
   252
100
AcDbVertex
100
AcDb2dVertex
 10
255.3226036689
 20
30.6867904546
 30
0.0
 70
     8
  0
VERTEX
  5
39A
330
34F
100
AcDbEntity
  8
0
  6
Continuous
 62
   252
100
AcDbVertex
100
AcDb2dVertex
 10
255.413699948
 20
30.6177339143
 30
0.0
 70
     8
  0
VERTEX
  5
39B
330
34F
100
AcDbEntity
  8
0
  6
Continuous
 62
   252
100
AcDbVertex
100
AcDb2dVertex
 10
258.1242414373
 20
31.4309105768
 30
0.0
 70
     8
  0
VERTEX
  5
39C
330
34F
100
AcDbEntity
  8
0
  6
Continuous
 62
   252
100
AcDbVertex
100
AcDb2dVertex
 10
258.4812415402
 20
31.5329696907
 30
0.0
 70
     8
  0
VERTEX
  5
39D
330
34F
100
AcDbEntity
  8
0
  6
Continuous
 62
   252
100
AcDbVertex
100
AcDb2dVertex
 10
258.8382394599
 20
31.6229942233
 30
0.0
 70
     8
  0
VERTEX
  5
39E
330
34F
100
AcDbEntity
  8
0
  6
Continuous
 62
   252
100
AcDbVertex
100
AcDb2dVertex
 10
259.0762376535
 20
31.6748817173
 30
0.0
 70
     8
  0
VERTEX
  5
39F
330
34F
100
AcDbEntity
  8
0
  6
Continuous
 62
   252
100
AcDbVertex
100
AcDb2dVertex
 10
259.3142360668
 20
31.7192560346
 30
0.0
 70
     8
  0
VERTEX
  5
3A0
330
34F
100
AcDbEntity
  8
0
  6
Continuous
 62
   252
100
AcDbVertex
100
AcDb2dVertex
 10
259.5522351759
 20
31.7552513858
 30
0.0
 70
     8
  0
VERTEX
  5
3A1
330
34F
100
AcDbEntity
  8
0
  6
Continuous
 62
   252
100
AcDbVertex
100
AcDb2dVertex
 10
259.7902354566
 20
31.7820019812
 30
0.0
 70
     8
  0
VERTEX
  5
3A2
330
34F
100
AcDbEntity
  8
0
  6
Continuous
 62
   252
100
AcDbVertex
100
AcDb2dVertex
 10
260.0282373851
 20
31.7986420314
 30
0.0
 70
     8
  0
VERTEX
  5
3A3
330
34F
100
AcDbEntity
  8
0
  6
Continuous
 62
   252
100
AcDbVertex
100
AcDb2dVertex
 10
260.2662414373
 20
31.8043057468
 30
0.0
 70
     8
  0
VERTEX
  5
3A4
330
34F
100
AcDbEntity
  8
0
  6
Continuous
 62
   252
100
AcDbVertex
100
AcDb2dVertex
 10
260.6966841733
 20
31.7855902533
 30
0.0
 70
     8
  0
VERTEX
  5
3A5
330
34F
100
AcDbEntity
  8
0
  6
Continuous
 62
   252
100
AcDbVertex
100
AcDb2dVertex
 10
261.1271348492
 20
31.7332740958
 30
0.0
 70
     8
  0
VERTEX
  5
3A6
330
34F
100
AcDbEntity
  8
0
  6
Continuous
 62
   252
100
AcDbVertex
100
AcDb2dVertex
 10
261.557592902
 20
31.6524894053
 30
0.0
 70
     8
  0
VERTEX
  5
3A7
330
34F
100
AcDbEntity
  8
0
  6
Continuous
 62
   252
100
AcDbVertex
100
AcDb2dVertex
 10
261.9880577685
 20
31.5483683127
 30
0.0
 70
     8
  0
VERTEX
  5
3A8
330
34F
100
AcDbEntity
  8
0
  6
Continuous
 62
   252
100
AcDbVertex
100
AcDb2dVertex
 10
262.4185288856
 20
31.4260429489
 30
0.0
 70
     8
  0
VERTEX
  5
3A9
330
34F
100
AcDbEntity
  8
0
  6
Continuous
 62
   252
100
AcDbVertex
100
AcDb2dVertex
 10
263.1359931081
 20
31.1956525276
 30
0.0
 70
     8
  0
VERTEX
  5
3AA
330
34F
100
AcDbEntity
  8
0
  6
Continuous
 62
   252
100
AcDbVertex
100
AcDb2dVertex
 10
263.853470522
 20
30.9527104711
 30
0.0
 70
     8
  0
VERTEX
  5
3AB
330
34F
100
AcDbEntity
  8
0
  6
Continuous
 62
   252
100
AcDbVertex
100
AcDb2dVertex
 10
264.57095852
 20
30.7209766447
 30
0.0
 70
     8
  0
VERTEX
  5
3AC
330
34F
100
AcDbEntity
  8
0
  6
Continuous
 62
   252
100
AcDbVertex
100
AcDb2dVertex
 10
265.0014553147
 20
30.5972004034
 30
0.0
 70
     8
  0
VERTEX
  5
3AD
330
34F
100
AcDbEntity
  8
0
  6
Continuous
 62
   252
100
AcDbVertex
100
AcDb2dVertex
 10
265.431954418
 20
30.4911448075
 30
0.0
 70
     8
  0
VERTEX
  5
3AE
330
34F
100
AcDbEntity
  8
0
  6
Continuous
 62
   252
100
AcDbVertex
100
AcDb2dVertex
 10
265.8624552667
 20
30.4079419879
 30
0.0
 70
     8
  0
VERTEX
  5
3AF
330
34F
100
AcDbEntity
  8
0
  6
Continuous
 62
   252
100
AcDbVertex
100
AcDb2dVertex
 10
266.2929572977
 20
30.3527240755
 30
0.0
 70
     8
  0
VERTEX
  5
3B0
330
34F
100
AcDbEntity
  8
0
  6
Continuous
 62
   252
100
AcDbVertex
100
AcDb2dVertex
 10
266.723459948
 20
30.3306232012
 30
0.0
 70
     8
  0
SEQEND
  5
3B1
330
34F
100
AcDbEntity
  8
0
  6
Continuous
 62
   252
 48
25.4
370
     0
  0
HATCH
  5
3B2
330
1F
100
AcDbEntity
  8
0
  6
Continuous
 62
   252
 48
25.4
100
AcDbHatch
 10
0.0
 20
0.0
 30
0.0
210
0.0
220
0.0
230
1.0
  2
SOLID
 70
     1
 71
     0
 91
        1
 92
        1
 93
      130
 72
     1
 10
280.243763947996
 20
32.4181453230031
 11
280.32833325476
 21
32.51838474015059
 72
     1
 10
280.32833325476
 20
32.51838474015059
 11
280.4095365653352
 21
32.62156356987053
 72
     1
 10
280.4095365653352
 20
32.62156356987053
 11
280.5123136419326
 21
32.76340889913485
 72
     1
 10
280.5123136419326
 20
32.76340889913485
 11
280.6085180849767
 21
32.90973765533248
 72
     1
 10
280.6085180849767
 20
32.90973765533248
 11
280.697867947966
 21
33.06008744503377
 72
     1
 10
280.697867947966
 20
33.06008744503377
 11
280.5354792869609
 21
33.03434715218898
 72
     1
 10
280.5354792869609
 20
33.03434715218898
 11
280.3730925936986
 21
33.01273259903378
 72
     1
 10
280.3730925936986
 20
33.01273259903378
 11
280.1565810549507
 21
32.99080146871988
 72
     1
 10
280.1565810549507
 20
32.99080146871988
 11
279.9400753936169
 21
32.97733408257839
 72
     1
 10
279.9400753936169
 20
32.97733408257839
 11
279.7235769692429
 21
32.97297563822946
 72
     1
 10
279.7235769692429
 20
32.97297563822946
 11
279.2901057031936
 21
32.99248150936082
 72
     1
 10
279.2901057031936
 20
32.99248150936082
 11
278.856666030403
 21
33.04587061767675
 72
     1
 10
278.856666030403
 20
33.04587061767675
 11
278.4232550787567
 21
33.12791960446968
 72
     1
 10
278.4232550787567
 20
33.12791960446968
 11
277.9898699761403
 21
33.23340511103221
 72
     1
 10
277.9898699761403
 20
33.23340511103221
 11
277.5565078504393
 21
33.35710377865684
 72
     1
 10
277.5565078504393
 20
33.35710377865684
 11
276.8342808999452
 21
33.58955501575364
 72
     1
 10
276.8342808999452
 20
33.58955501575364
 11
276.1120964992945
 21
33.83390682093032
 72
     1
 10
276.1120964992945
 20
33.83390682093032
 11
275.3899413516612
 21
34.06597697794842
 72
     1
 10
275.3899413516612
 20
34.06597697794842
 11
274.9566567730499
 21
34.18926407908804
 72
     1
 10
274.9566567730499
 20
34.18926407908804
 11
274.5233750665529
 21
34.29420083033732
 72
     1
 10
274.5233750665529
 20
34.29420083033732
 11
274.090093360056
 21
34.37556387298865
 72
     1
 10
274.090093360056
 20
34.37556387298865
 11
273.6568087814447
 21
34.42812984833463
 72
     1
 10
273.6568087814447
 20
34.42812984833463
 11
273.2235184586045
 21
34.44667539766774
 72
     1
 10
273.2235184586045
 20
34.44667539766774
 11
272.790220093844
 21
34.42772011103404
 72
     1
 10
272.790220093844
 20
34.42772011103404
 11
272.3569136871629
 21
34.37475537349374
 72
     1
 10
272.3569136871629
 20
34.37475537349374
 11
271.9235998129844
 21
34.29301551886063
 72
     1
 10
271.9235998129844
 20
34.29301551886063
 11
271.4902790457313
 21
34.18773488094837
 72
     1
 10
271.4902790457313
 20
34.18773488094837
 11
271.0569519598263
 21
34.06414779357078
 72
     1
 10
271.0569519598263
 20
34.06414779357078
 11
270.3347276686974
 21
33.8317050249202
 72
     1
 10
270.3347276686974
 20
33.8317050249202
 11
269.6124900807425
 21
33.58718385081968
 72
     1
 10
269.6124900807425
 20
33.58718385081968
 11
268.8902418553266
 21
33.35481729818476
 72
     1
 10
268.8902418553266
 20
33.35481729818476
 11
268.4568889203918
 21
33.23131252410425
 72
     1
 10
268.4568889203918
 20
33.23131252410425
 11
268.0235336877655
 21
33.12614163725466
 72
     1
 10
268.0235336877655
 20
33.12614163725466
 11
267.5901767318705
 21
33.04453897144985
 72
     1
 10
267.5901767318705
 20
33.04453897144985
 11
267.1568186271298
 21
32.99173886050352
 72
     1
 10
267.1568186271298
 20
32.99173886050352
 11
266.723459947966
 21
32.97297563822946
 72
     1
 10
266.723459947966
 20
32.97297563822946
 11
266.2901012688024
 21
32.99173886050352
 72
     1
 10
266.2901012688024
 20
32.99173886050352
 11
265.8567431640616
 21
33.04453897144985
 72
     1
 10
265.8567431640616
 20
33.04453897144985
 11
265.4233862081668
 21
33.12614163725466
 72
     1
 10
265.4233862081668
 20
33.12614163725466
 11
264.9900309755405
 21
33.23131252410425
 72
     1
 10
264.9900309755405
 20
33.23131252410425
 11
264.5566780406056
 21
33.35481729818476
 72
     1
 10
264.5566780406056
 20
33.35481729818476
 11
263.8344298151898
 21
33.58718385081968
 72
     1
 10
263.8344298151898
 20
33.58718385081968
 11
263.1121922272349
 21
33.83170502492025
 72
     1
 10
263.1121922272349
 20
33.83170502492025
 11
262.389967936106
 21
34.06414779357084
 72
     1
 10
262.389967936106
 20
34.06414779357084
 11
261.956640850201
 21
34.18773488094837
 72
     1
 10
261.956640850201
 20
34.18773488094837
 11
261.5233200829479
 21
34.29301551886063
 72
     1
 10
261.5233200829479
 20
34.29301551886063
 11
261.0900062087694
 21
34.37475537349374
 72
     1
 10
261.0900062087694
 20
34.37475537349374
 11
260.6566998020884
 21
34.42772011103409
 72
     1
 10
260.6566998020884
 20
34.42772011103409
 11
260.2234014373279
 21
34.4466753976678
 72
     1
 10
260.2234014373279
 20
34.4466753976678
 11
259.7901111144876
 21
34.42812984833468
 72
     1
 10
259.7901111144876
 20
34.42812984833468
 11
259.3568265358763
 21
34.37556387298865
 72
     1
 10
259.3568265358763
 20
34.37556387298865
 11
258.9235448293794
 21
34.29420083033738
 72
     1
 10
258.9235448293794
 20
34.29420083033738
 11
258.4902631228824
 21
34.18926407908815
 72
     1
 10
258.4902631228824
 20
34.18926407908815
 11
258.0569785442711
 21
34.06597697794847
 72
     1
 10
258.0569785442711
 20
34.06597697794847
 11
257.3348233966378
 21
33.83390682093032
 72
     1
 10
257.3348233966378
 20
33.83390682093032
 11
256.612638995987
 21
33.58955501575364
 72
     1
 10
256.612638995987
 20
33.58955501575364
 11
255.890412045493
 21
33.35710377865684
 72
     1
 10
255.890412045493
 20
33.35710377865684
 11
255.457049919792
 21
33.23340511103226
 72
     1
 10
255.457049919792
 20
33.23340511103226
 11
255.0236648171756
 21
33.12791960446979
 72
     1
 10
255.0236648171756
 20
33.12791960446979
 11
254.5902538655293
 21
33.04587061767681
 72
     1
 10
254.5902538655293
 20
33.04587061767681
 11
254.1568141927388
 21
32.99248150936094
 72
     1
 10
254.1568141927388
 20
32.99248150936094
 11
253.7233429266896
 21
32.97297563822951
 72
     1
 10
253.7233429266896
 20
32.97297563822951
 11
253.5609698399812
 21
32.97536530516612
 72
     1
 10
253.5609698399812
 20
32.97536530516612
 11
253.3985924912969
 21
32.98296948277643
 72
     1
 10
253.3985924912969
 20
32.98296948277643
 11
253.182083721313
 21
33.0007493907066
 72
     1
 10
253.182083721313
 20
33.0007493907066
 11
252.9655697536875
 21
33.02667044399907
 72
     1
 10
252.9655697536875
 20
33.02667044399907
 11
252.7490519479663
 21
33.06008744503372
 72
     1
 10
252.7490519479663
 20
33.06008744503372
 11
252.8154116562073
 21
32.94696672402678
 72
     1
 10
252.8154116562073
 20
32.94696672402678
 11
252.8856638368063
 21
32.83604116487529
 72
     1
 10
252.8856638368063
 20
32.83604116487529
 11
252.9851924704777
 21
32.69189791672558
 72
     1
 10
252.9851924704777
 20
32.69189791672558
 11
253.0911372160354
 21
32.5524593616677
 72
     1
 10
253.0911372160354
 20
32.5524593616677
 11
253.2031559479066
 21
32.41814532300638
 72
     1
 10
253.2031559479066
 20
32.41814532300638
 11
253.3908365911666
 21
32.40150684614992
 72
     1
 10
253.3908365911666
 20
32.40150684614992
 11
253.5785125459489
 21
32.3913580908208
 72
     1
 10
253.5785125459489
 20
32.3913580908208
 11
253.7661829266896
 21
32.38811936736316
 72
     1
 10
253.7661829266896
 20
32.38811936736316
 11
254.1996541927389
 21
32.40762753962426
 72
     1
 10
254.1996541927389
 20
32.40762753962426
 11
254.6330938655294
 21
32.46102294631373
 72
     1
 10
254.6330938655294
 20
32.46102294631373
 11
255.0665048171756
 21
32.54308161251859
 72
     1
 10
255.0665048171756
 20
32.54308161251859
 11
255.4998899197921
 21
32.64857956332576
 72
     1
 10
255.4998899197921
 20
32.64857956332576
 11
255.9332520454929
 21
32.7722928238223
 72
     1
 10
255.9332520454929
 20
32.7722928238223
 11
256.6554789959871
 21
33.00477148345479
 72
     1
 10
256.6554789959871
 20
33.00477148345479
 11
257.3776633966377
 21
33.24915211509064
 72
     1
 10
257.3776633966377
 20
33.24915211509064
 11
258.0998185442712
 21
33.48124964968799
 72
     1
 10
258.0998185442712
 20
33.48124964968799
 11
258.5331031228826
 21
33.60455129514659
 72
     1
 10
258.5331031228826
 20
33.60455129514659
 11
258.9663848293794
 21
33.70950042590318
 72
     1
 10
258.9663848293794
 20
33.70950042590318
 11
259.3996665358764
 21
33.79087306704484
 72
     1
 10
259.3996665358764
 20
33.79087306704484
 11
259.8329511144876
 21
33.84344524365843
 72
     1
 10
259.8329511144876
 20
33.84344524365843
 11
260.2662414373278
 21
33.86199298083101
 72
     1
 10
260.2662414373278
 20
33.86199298083101
 11
260.6966841732523
 21
33.84327748735602
 72
     1
 10
260.6966841732523
 20
33.84327748735602
 11
261.1271348491837
 21
33.79096132989182
 72
     1
 10
261.1271348491837
 20
33.79096132989182
 11
261.5575929019815
 21
33.71017663937345
 72
     1
 10
261.5575929019815
 20
33.71017663937345
 11
261.988057768505
 21
33.60605554673582
 72
     1
 10
261.988057768505
 20
33.60605554673582
 11
262.4185288856139
 21
33.48373018291409
 72
     1
 10
262.4185288856139
 20
33.48373018291409
 11
263.1359931081339
 21
33.25333976163778
 72
     1
 10
263.1359931081339
 20
33.25333976163778
 11
263.853470521979
 21
33.01039770510925
 72
     1
 10
263.853470521979
 20
33.01039770510925
 11
264.570958520017
 21
32.77866387876835
 72
     1
 10
264.570958520017
 20
32.77866387876835
 11
265.0014553146854
 21
32.6548876374769
 72
     1
 10
265.0014553146854
 20
32.6548876374769
 11
265.4319544179551
 21
32.54883204154643
 72
     1
 10
265.4319544179551
 20
32.54883204154643
 11
265.8624552666855
 21
32.46562922191185
 72
     1
 10
265.8624552666855
 20
32.46562922191185
 11
266.292957297736
 21
32.41041130950826
 72
     1
 10
266.292957297736
 20
32.41041130950826
 11
266.723459947966
 21
32.3883104352706
 72
     1
 10
266.723459947966
 20
32.3883104352706
 11
267.1539625981962
 21
32.41041130950826
 72
     1
 10
267.1539625981962
 20
32.41041130950826
 11
267.5844646292467
 21
32.46562922191185
 72
     1
 10
267.5844646292467
 20
32.46562922191185
 11
268.0149654779772
 21
32.54883204154643
 72
     1
 10
268.0149654779772
 20
32.54883204154643
 11
268.4454645812468
 21
32.6548876374769
 72
     1
 10
268.4454645812468
 20
32.6548876374769
 11
268.8759613759153
 21
32.77866387876835
 72
     1
 10
268.8759613759153
 20
32.77866387876835
 11
269.5934493739533
 21
33.01039770510919
 72
     1
 10
269.5934493739533
 20
33.01039770510919
 11
270.3109267877985
 21
33.25333976163772
 72
     1
 10
270.3109267877985
 20
33.25333976163772
 11
271.0283910103184
 21
33.48373018291404
 72
     1
 10
271.0283910103184
 20
33.48373018291404
 11
271.4588621274273
 21
33.60605554673576
 72
     1
 10
271.4588621274273
 20
33.60605554673576
 11
271.8893269939509
 21
33.71017663937334
 72
     1
 10
271.8893269939509
 20
33.71017663937334
 11
272.3197850467486
 21
33.79096132989176
 72
     1
 10
272.3197850467486
 20
33.79096132989176
 11
272.75023572268
 21
33.84327748735597
 72
     1
 10
272.75023572268
 20
33.84327748735597
 11
273.1806784586046
 21
33.86199298083101
 72
     1
 10
273.1806784586046
 20
33.86199298083101
 11
273.6139687814447
 21
33.84344524365843
 72
     1
 10
273.6139687814447
 20
33.84344524365843
 11
274.047253360056
 21
33.79087306704479
 72
     1
 10
274.047253360056
 20
33.79087306704479
 11
274.4805350665529
 21
33.70950042590312
 72
     1
 10
274.4805350665529
 20
33.70950042590312
 11
274.9138167730499
 21
33.60455129514653
 72
     1
 10
274.9138167730499
 20
33.60455129514653
 11
275.3471013516613
 21
33.48124964968799
 72
     1
 10
275.3471013516613
 20
33.48124964968799
 11
276.0692564992945
 21
33.24915211509058
 72
     1
 10
276.0692564992945
 20
33.24915211509058
 11
276.7914408999452
 21
33.00477148345468
 72
     1
 10
276.7914408999452
 20
33.00477148345468
 11
277.5136678504394
 21
32.77229282382218
 72
     1
 10
277.5136678504394
 20
32.77229282382218
 11
277.9470299761404
 21
32.64857956332576
 72
     1
 10
277.9470299761404
 20
32.64857956332576
 11
278.3804150787568
 21
32.54308161251853
 72
     1
 10
278.3804150787568
 20
32.54308161251853
 11
278.8138260304031
 21
32.46102294631367
 72
     1
 10
278.8138260304031
 20
32.46102294631367
 11
279.2472657031936
 21
32.4076275396242
 72
     1
 10
279.2472657031936
 20
32.4076275396242
 11
279.6807369692429
 21
32.3881193673631
 72
     1
 10
279.6807369692429
 20
32.3881193673631
 11
279.8684073499823
 21
32.39135809082064
 72
     1
 10
279.8684073499823
 20
32.39135809082064
 11
280.0560833047568
 21
32.40150684614893
 72
     1
 10
280.0560833047568
 20
32.40150684614893
 11
280.243763947996
 21
32.4181453230031
 97
        0
 75
     0
 76
     1
 98
        0
  0
POLYLINE
  5
3B3
330
1F
100
AcDbEntity
  8
0
  6
Continuous
 62
   252
 48
25.4
370
     0
100
AcDb2dPolyline
 66
     1
 10
0.0
 20
0.0
 30
0.0
 70
     1
  0
VERTEX
  5
3B4
330
3B3
100
AcDbEntity
  8
0
  6
Continuous
 62
   252
100
AcDbVertex
100
AcDb2dVertex
 10
280.243763948
 20
32.418145323
 30
0.0
 70
     8
  0
VERTEX
  5
3B5
330
3B3
100
AcDbEntity
  8
0
  6
Continuous
 62
   252
100
AcDbVertex
100
AcDb2dVertex
 10
280.0560833048
 20
32.4015068461
 30
0.0
 70
     8
  0
VERTEX
  5
3B6
330
3B3
100
AcDbEntity
  8
0
  6
Continuous
 62
   252
100
AcDbVertex
100
AcDb2dVertex
 10
279.86840735
 20
32.3913580908
 30
0.0
 70
     8
  0
VERTEX
  5
3B7
330
3B3
100
AcDbEntity
  8
0
  6
Continuous
 62
   252
100
AcDbVertex
100
AcDb2dVertex
 10
279.6807369692
 20
32.3881193674
 30
0.0
 70
     8
  0
VERTEX
  5
3B8
330
3B3
100
AcDbEntity
  8
0
  6
Continuous
 62
   252
100
AcDbVertex
100
AcDb2dVertex
 10
279.2472657032
 20
32.4076275396
 30
0.0
 70
     8
  0
VERTEX
  5
3B9
330
3B3
100
AcDbEntity
  8
0
  6
Continuous
 62
   252
100
AcDbVertex
100
AcDb2dVertex
 10
278.8138260304
 20
32.4610229463
 30
0.0
 70
     8
  0
VERTEX
  5
3BA
330
3B3
100
AcDbEntity
  8
0
  6
Continuous
 62
   252
100
AcDbVertex
100
AcDb2dVertex
 10
278.3804150788
 20
32.5430816125
 30
0.0
 70
     8
  0
VERTEX
  5
3BB
330
3B3
100
AcDbEntity
  8
0
  6
Continuous
 62
   252
100
AcDbVertex
100
AcDb2dVertex
 10
277.9470299761
 20
32.6485795633
 30
0.0
 70
     8
  0
VERTEX
  5
3BC
330
3B3
100
AcDbEntity
  8
0
  6
Continuous
 62
   252
100
AcDbVertex
100
AcDb2dVertex
 10
277.5136678504
 20
32.7722928238
 30
0.0
 70
     8
  0
VERTEX
  5
3BD
330
3B3
100
AcDbEntity
  8
0
  6
Continuous
 62
   252
100
AcDbVertex
100
AcDb2dVertex
 10
276.7914408999
 20
33.0047714835
 30
0.0
 70
     8
  0
VERTEX
  5
3BE
330
3B3
100
AcDbEntity
  8
0
  6
Continuous
 62
   252
100
AcDbVertex
100
AcDb2dVertex
 10
276.0692564993
 20
33.2491521151
 30
0.0
 70
     8
  0
VERTEX
  5
3BF
330
3B3
100
AcDbEntity
  8
0
  6
Continuous
 62
   252
100
AcDbVertex
100
AcDb2dVertex
 10
275.3471013517
 20
33.4812496497
 30
0.0
 70
     8
  0
VERTEX
  5
3C0
330
3B3
100
AcDbEntity
  8
0
  6
Continuous
 62
   252
100
AcDbVertex
100
AcDb2dVertex
 10
274.913816773
 20
33.6045512951
 30
0.0
 70
     8
  0
VERTEX
  5
3C1
330
3B3
100
AcDbEntity
  8
0
  6
Continuous
 62
   252
100
AcDbVertex
100
AcDb2dVertex
 10
274.4805350666
 20
33.7095004259
 30
0.0
 70
     8
  0
VERTEX
  5
3C2
330
3B3
100
AcDbEntity
  8
0
  6
Continuous
 62
   252
100
AcDbVertex
100
AcDb2dVertex
 10
274.0472533601
 20
33.790873067
 30
0.0
 70
     8
  0
VERTEX
  5
3C3
330
3B3
100
AcDbEntity
  8
0
  6
Continuous
 62
   252
100
AcDbVertex
100
AcDb2dVertex
 10
273.6139687814
 20
33.8434452437
 30
0.0
 70
     8
  0
VERTEX
  5
3C4
330
3B3
100
AcDbEntity
  8
0
  6
Continuous
 62
   252
100
AcDbVertex
100
AcDb2dVertex
 10
273.1806784586
 20
33.8619929808
 30
0.0
 70
     8
  0
VERTEX
  5
3C5
330
3B3
100
AcDbEntity
  8
0
  6
Continuous
 62
   252
100
AcDbVertex
100
AcDb2dVertex
 10
272.7502357227
 20
33.8432774874
 30
0.0
 70
     8
  0
VERTEX
  5
3C6
330
3B3
100
AcDbEntity
  8
0
  6
Continuous
 62
   252
100
AcDbVertex
100
AcDb2dVertex
 10
272.3197850467
 20
33.7909613299
 30
0.0
 70
     8
  0
VERTEX
  5
3C7
330
3B3
100
AcDbEntity
  8
0
  6
Continuous
 62
   252
100
AcDbVertex
100
AcDb2dVertex
 10
271.889326994
 20
33.7101766394
 30
0.0
 70
     8
  0
VERTEX
  5
3C8
330
3B3
100
AcDbEntity
  8
0
  6
Continuous
 62
   252
100
AcDbVertex
100
AcDb2dVertex
 10
271.4588621274
 20
33.6060555467
 30
0.0
 70
     8
  0
VERTEX
  5
3C9
330
3B3
100
AcDbEntity
  8
0
  6
Continuous
 62
   252
100
AcDbVertex
100
AcDb2dVertex
 10
271.0283910103
 20
33.4837301829
 30
0.0
 70
     8
  0
VERTEX
  5
3CA
330
3B3
100
AcDbEntity
  8
0
  6
Continuous
 62
   252
100
AcDbVertex
100
AcDb2dVertex
 10
270.3109267878
 20
33.2533397616
 30
0.0
 70
     8
  0
VERTEX
  5
3CB
330
3B3
100
AcDbEntity
  8
0
  6
Continuous
 62
   252
100
AcDbVertex
100
AcDb2dVertex
 10
269.593449374
 20
33.0103977051
 30
0.0
 70
     8
  0
VERTEX
  5
3CC
330
3B3
100
AcDbEntity
  8
0
  6
Continuous
 62
   252
100
AcDbVertex
100
AcDb2dVertex
 10
268.8759613759
 20
32.7786638788
 30
0.0
 70
     8
  0
VERTEX
  5
3CD
330
3B3
100
AcDbEntity
  8
0
  6
Continuous
 62
   252
100
AcDbVertex
100
AcDb2dVertex
 10
268.4454645812
 20
32.6548876375
 30
0.0
 70
     8
  0
VERTEX
  5
3CE
330
3B3
100
AcDbEntity
  8
0
  6
Continuous
 62
   252
100
AcDbVertex
100
AcDb2dVertex
 10
268.014965478
 20
32.5488320415
 30
0.0
 70
     8
  0
VERTEX
  5
3CF
330
3B3
100
AcDbEntity
  8
0
  6
Continuous
 62
   252
100
AcDbVertex
100
AcDb2dVertex
 10
267.5844646292
 20
32.4656292219
 30
0.0
 70
     8
  0
VERTEX
  5
3D0
330
3B3
100
AcDbEntity
  8
0
  6
Continuous
 62
   252
100
AcDbVertex
100
AcDb2dVertex
 10
267.1539625982
 20
32.4104113095
 30
0.0
 70
     8
  0
VERTEX
  5
3D1
330
3B3
100
AcDbEntity
  8
0
  6
Continuous
 62
   252
100
AcDbVertex
100
AcDb2dVertex
 10
266.723459948
 20
32.3883104353
 30
0.0
 70
     8
  0
VERTEX
  5
3D2
330
3B3
100
AcDbEntity
  8
0
  6
Continuous
 62
   252
100
AcDbVertex
100
AcDb2dVertex
 10
266.2929572977
 20
32.4104113095
 30
0.0
 70
     8
  0
VERTEX
  5
3D3
330
3B3
100
AcDbEntity
  8
0
  6
Continuous
 62
   252
100
AcDbVertex
100
AcDb2dVertex
 10
265.8624552667
 20
32.4656292219
 30
0.0
 70
     8
  0
VERTEX
  5
3D4
330
3B3
100
AcDbEntity
  8
0
  6
Continuous
 62
   252
100
AcDbVertex
100
AcDb2dVertex
 10
265.431954418
 20
32.5488320415
 30
0.0
 70
     8
  0
VERTEX
  5
3D5
330
3B3
100
AcDbEntity
  8
0
  6
Continuous
 62
   252
100
AcDbVertex
100
AcDb2dVertex
 10
265.0014553147
 20
32.6548876375
 30
0.0
 70
     8
  0
VERTEX
  5
3D6
330
3B3
100
AcDbEntity
  8
0
  6
Continuous
 62
   252
100
AcDbVertex
100
AcDb2dVertex
 10
264.57095852
 20
32.7786638788
 30
0.0
 70
     8
  0
VERTEX
  5
3D7
330
3B3
100
AcDbEntity
  8
0
  6
Continuous
 62
   252
100
AcDbVertex
100
AcDb2dVertex
 10
263.853470522
 20
33.0103977051
 30
0.0
 70
     8
  0
VERTEX
  5
3D8
330
3B3
100
AcDbEntity
  8
0
  6
Continuous
 62
   252
100
AcDbVertex
100
AcDb2dVertex
 10
263.1359931081
 20
33.2533397616
 30
0.0
 70
     8
  0
VERTEX
  5
3D9
330
3B3
100
AcDbEntity
  8
0
  6
Continuous
 62
   252
100
AcDbVertex
100
AcDb2dVertex
 10
262.4185288856
 20
33.4837301829
 30
0.0
 70
     8
  0
VERTEX
  5
3DA
330
3B3
100
AcDbEntity
  8
0
  6
Continuous
 62
   252
100
AcDbVertex
100
AcDb2dVertex
 10
261.9880577685
 20
33.6060555467
 30
0.0
 70
     8
  0
VERTEX
  5
3DB
330
3B3
100
AcDbEntity
  8
0
  6
Continuous
 62
   252
100
AcDbVertex
100
AcDb2dVertex
 10
261.557592902
 20
33.7101766394
 30
0.0
 70
     8
  0
VERTEX
  5
3DC
330
3B3
100
AcDbEntity
  8
0
  6
Continuous
 62
   252
100
AcDbVertex
100
AcDb2dVertex
 10
261.1271348492
 20
33.7909613299
 30
0.0
 70
     8
  0
VERTEX
  5
3DD
330
3B3
100
AcDbEntity
  8
0
  6
Continuous
 62
   252
100
AcDbVertex
100
AcDb2dVertex
 10
260.6966841733
 20
33.8432774874
 30
0.0
 70
     8
  0
VERTEX
  5
3DE
330
3B3
100
AcDbEntity
  8
0
  6
Continuous
 62
   252
100
AcDbVertex
100
AcDb2dVertex
 10
260.2662414373
 20
33.8619929808
 30
0.0
 70
     8
  0
VERTEX
  5
3DF
330
3B3
100
AcDbEntity
  8
0
  6
Continuous
 62
   252
100
AcDbVertex
100
AcDb2dVertex
 10
259.8329511145
 20
33.8434452437
 30
0.0
 70
     8
  0
VERTEX
  5
3E0
330
3B3
100
AcDbEntity
  8
0
  6
Continuous
 62
   252
100
AcDbVertex
100
AcDb2dVertex
 10
259.3996665359
 20
33.790873067
 30
0.0
 70
     8
  0
VERTEX
  5
3E1
330
3B3
100
AcDbEntity
  8
0
  6
Continuous
 62
   252
100
AcDbVertex
100
AcDb2dVertex
 10
258.9663848294
 20
33.7095004259
 30
0.0
 70
     8
  0
VERTEX
  5
3E2
330
3B3
100
AcDbEntity
  8
0
  6
Continuous
 62
   252
100
AcDbVertex
100
AcDb2dVertex
 10
258.5331031229
 20
33.6045512951
 30
0.0
 70
     8
  0
VERTEX
  5
3E3
330
3B3
100
AcDbEntity
  8
0
  6
Continuous
 62
   252
100
AcDbVertex
100
AcDb2dVertex
 10
258.0998185443
 20
33.4812496497
 30
0.0
 70
     8
  0
VERTEX
  5
3E4
330
3B3
100
AcDbEntity
  8
0
  6
Continuous
 62
   252
100
AcDbVertex
100
AcDb2dVertex
 10
257.3776633966
 20
33.2491521151
 30
0.0
 70
     8
  0
VERTEX
  5
3E5
330
3B3
100
AcDbEntity
  8
0
  6
Continuous
 62
   252
100
AcDbVertex
100
AcDb2dVertex
 10
256.655478996
 20
33.0047714835
 30
0.0
 70
     8
  0
VERTEX
  5
3E6
330
3B3
100
AcDbEntity
  8
0
  6
Continuous
 62
   252
100
AcDbVertex
100
AcDb2dVertex
 10
255.9332520455
 20
32.7722928238
 30
0.0
 70
     8
  0
VERTEX
  5
3E7
330
3B3
100
AcDbEntity
  8
0
  6
Continuous
 62
   252
100
AcDbVertex
100
AcDb2dVertex
 10
255.4998899198
 20
32.6485795633
 30
0.0
 70
     8
  0
VERTEX
  5
3E8
330
3B3
100
AcDbEntity
  8
0
  6
Continuous
 62
   252
100
AcDbVertex
100
AcDb2dVertex
 10
255.0665048172
 20
32.5430816125
 30
0.0
 70
     8
  0
VERTEX
  5
3E9
330
3B3
100
AcDbEntity
  8
0
  6
Continuous
 62
   252
100
AcDbVertex
100
AcDb2dVertex
 10
254.6330938655
 20
32.4610229463
 30
0.0
 70
     8
  0
VERTEX
  5
3EA
330
3B3
100
AcDbEntity
  8
0
  6
Continuous
 62
   252
100
AcDbVertex
100
AcDb2dVertex
 10
254.1996541927
 20
32.4076275396
 30
0.0
 70
     8
  0
VERTEX
  5
3EB
330
3B3
100
AcDbEntity
  8
0
  6
Continuous
 62
   252
100
AcDbVertex
100
AcDb2dVertex
 10
253.7661829267
 20
32.3881193674
 30
0.0
 70
     8
  0
VERTEX
  5
3EC
330
3B3
100
AcDbEntity
  8
0
  6
Continuous
 62
   252
100
AcDbVertex
100
AcDb2dVertex
 10
253.5785125459
 20
32.3913580908
 30
0.0
 70
     8
  0
VERTEX
  5
3ED
330
3B3
100
AcDbEntity
  8
0
  6
Continuous
 62
   252
100
AcDbVertex
100
AcDb2dVertex
 10
253.3908365912
 20
32.4015068461
 30
0.0
 70
     8
  0
VERTEX
  5
3EE
330
3B3
100
AcDbEntity
  8
0
  6
Continuous
 62
   252
100
AcDbVertex
100
AcDb2dVertex
 10
253.2031559479
 20
32.418145323
 30
0.0
 70
     8
  0
VERTEX
  5
3EF
330
3B3
100
AcDbEntity
  8
0
  6
Continuous
 62
   252
100
AcDbVertex
100
AcDb2dVertex
 10
253.091137216
 20
32.5524593617
 30
0.0
 70
     8
  0
VERTEX
  5
3F0
330
3B3
100
AcDbEntity
  8
0
  6
Continuous
 62
   252
100
AcDbVertex
100
AcDb2dVertex
 10
252.9851924705
 20
32.6918979167
 30
0.0
 70
     8
  0
VERTEX
  5
3F1
330
3B3
100
AcDbEntity
  8
0
  6
Continuous
 62
   252
100
AcDbVertex
100
AcDb2dVertex
 10
252.8856638368
 20
32.8360411649
 30
0.0
 70
     8
  0
VERTEX
  5
3F2
330
3B3
100
AcDbEntity
  8
0
  6
Continuous
 62
   252
100
AcDbVertex
100
AcDb2dVertex
 10
252.8154116562
 20
32.946966724
 30
0.0
 70
     8
  0
VERTEX
  5
3F3
330
3B3
100
AcDbEntity
  8
0
  6
Continuous
 62
   252
100
AcDbVertex
100
AcDb2dVertex
 10
252.749051948
 20
33.060087445
 30
0.0
 70
     8
  0
VERTEX
  5
3F4
330
3B3
100
AcDbEntity
  8
0
  6
Continuous
 62
   252
100
AcDbVertex
100
AcDb2dVertex
 10
252.9655697537
 20
33.026670444
 30
0.0
 70
     8
  0
VERTEX
  5
3F5
330
3B3
100
AcDbEntity
  8
0
  6
Continuous
 62
   252
100
AcDbVertex
100
AcDb2dVertex
 10
253.1820837213
 20
33.0007493907
 30
0.0
 70
     8
  0
VERTEX
  5
3F6
330
3B3
100
AcDbEntity
  8
0
  6
Continuous
 62
   252
100
AcDbVertex
100
AcDb2dVertex
 10
253.3985924913
 20
32.9829694828
 30
0.0
 70
     8
  0
VERTEX
  5
3F7
330
3B3
100
AcDbEntity
  8
0
  6
Continuous
 62
   252
100
AcDbVertex
100
AcDb2dVertex
 10
253.56096984
 20
32.9753653052
 30
0.0
 70
     8
  0
VERTEX
  5
3F8
330
3B3
100
AcDbEntity
  8
0
  6
Continuous
 62
   252
100
AcDbVertex
100
AcDb2dVertex
 10
253.7233429267
 20
32.9729756382
 30
0.0
 70
     8
  0
VERTEX
  5
3F9
330
3B3
100
AcDbEntity
  8
0
  6
Continuous
 62
   252
100
AcDbVertex
100
AcDb2dVertex
 10
254.1568141927
 20
32.9924815094
 30
0.0
 70
     8
  0
VERTEX
  5
3FA
330
3B3
100
AcDbEntity
  8
0
  6
Continuous
 62
   252
100
AcDbVertex
100
AcDb2dVertex
 10
254.5902538655
 20
33.0458706177
 30
0.0
 70
     8
  0
VERTEX
  5
3FB
330
3B3
100
AcDbEntity
  8
0
  6
Continuous
 62
   252
100
AcDbVertex
100
AcDb2dVertex
 10
255.0236648172
 20
33.1279196045
 30
0.0
 70
     8
  0
VERTEX
  5
3FC
330
3B3
100
AcDbEntity
  8
0
  6
Continuous
 62
   252
100
AcDbVertex
100
AcDb2dVertex
 10
255.4570499198
 20
33.233405111
 30
0.0
 70
     8
  0
VERTEX
  5
3FD
330
3B3
100
AcDbEntity
  8
0
  6
Continuous
 62
   252
100
AcDbVertex
100
AcDb2dVertex
 10
255.8904120455
 20
33.3571037787
 30
0.0
 70
     8
  0
VERTEX
  5
3FE
330
3B3
100
AcDbEntity
  8
0
  6
Continuous
 62
   252
100
AcDbVertex
100
AcDb2dVertex
 10
256.612638996
 20
33.5895550158
 30
0.0
 70
     8
  0
VERTEX
  5
3FF
330
3B3
100
AcDbEntity
  8
0
  6
Continuous
 62
   252
100
AcDbVertex
100
AcDb2dVertex
 10
257.3348233966
 20
33.8339068209
 30
0.0
 70
     8
  0
VERTEX
  5
400
330
3B3
100
AcDbEntity
  8
0
  6
Continuous
 62
   252
100
AcDbVertex
100
AcDb2dVertex
 10
258.0569785443
 20
34.0659769779
 30
0.0
 70
     8
  0
VERTEX
  5
401
330
3B3
100
AcDbEntity
  8
0
  6
Continuous
 62
   252
100
AcDbVertex
100
AcDb2dVertex
 10
258.4902631229
 20
34.1892640791
 30
0.0
 70
     8
  0
VERTEX
  5
402
330
3B3
100
AcDbEntity
  8
0
  6
Continuous
 62
   252
100
AcDbVertex
100
AcDb2dVertex
 10
258.9235448294
 20
34.2942008303
 30
0.0
 70
     8
  0
VERTEX
  5
403
330
3B3
100
AcDbEntity
  8
0
  6
Continuous
 62
   252
100
AcDbVertex
100
AcDb2dVertex
 10
259.3568265359
 20
34.375563873
 30
0.0
 70
     8
  0
VERTEX
  5
404
330
3B3
100
AcDbEntity
  8
0
  6
Continuous
 62
   252
100
AcDbVertex
100
AcDb2dVertex
 10
259.7901111145
 20
34.4281298483
 30
0.0
 70
     8
  0
VERTEX
  5
405
330
3B3
100
AcDbEntity
  8
0
  6
Continuous
 62
   252
100
AcDbVertex
100
AcDb2dVertex
 10
260.2234014373
 20
34.4466753977
 30
0.0
 70
     8
  0
VERTEX
  5
406
330
3B3
100
AcDbEntity
  8
0
  6
Continuous
 62
   252
100
AcDbVertex
100
AcDb2dVertex
 10
260.6566998021
 20
34.427720111
 30
0.0
 70
     8
  0
VERTEX
  5
407
330
3B3
100
AcDbEntity
  8
0
  6
Continuous
 62
   252
100
AcDbVertex
100
AcDb2dVertex
 10
261.0900062088
 20
34.3747553735
 30
0.0
 70
     8
  0
VERTEX
  5
408
330
3B3
100
AcDbEntity
  8
0
  6
Continuous
 62
   252
100
AcDbVertex
100
AcDb2dVertex
 10
261.5233200829
 20
34.2930155189
 30
0.0
 70
     8
  0
VERTEX
  5
409
330
3B3
100
AcDbEntity
  8
0
  6
Continuous
 62
   252
100
AcDbVertex
100
AcDb2dVertex
 10
261.9566408502
 20
34.1877348809
 30
0.0
 70
     8
  0
VERTEX
  5
40A
330
3B3
100
AcDbEntity
  8
0
  6
Continuous
 62
   252
100
AcDbVertex
100
AcDb2dVertex
 10
262.3899679361
 20
34.0641477936
 30
0.0
 70
     8
  0
VERTEX
  5
40B
330
3B3
100
AcDbEntity
  8
0
  6
Continuous
 62
   252
100
AcDbVertex
100
AcDb2dVertex
 10
263.1121922272
 20
33.8317050249
 30
0.0
 70
     8
  0
VERTEX
  5
40C
330
3B3
100
AcDbEntity
  8
0
  6
Continuous
 62
   252
100
AcDbVertex
100
AcDb2dVertex
 10
263.8344298152
 20
33.5871838508
 30
0.0
 70
     8
  0
VERTEX
  5
40D
330
3B3
100
AcDbEntity
  8
0
  6
Continuous
 62
   252
100
AcDbVertex
100
AcDb2dVertex
 10
264.5566780406
 20
33.3548172982
 30
0.0
 70
     8
  0
VERTEX
  5
40E
330
3B3
100
AcDbEntity
  8
0
  6
Continuous
 62
   252
100
AcDbVertex
100
AcDb2dVertex
 10
264.9900309755
 20
33.2313125241
 30
0.0
 70
     8
  0
VERTEX
  5
40F
330
3B3
100
AcDbEntity
  8
0
  6
Continuous
 62
   252
100
AcDbVertex
100
AcDb2dVertex
 10
265.4233862082
 20
33.1261416373
 30
0.0
 70
     8
  0
VERTEX
  5
410
330
3B3
100
AcDbEntity
  8
0
  6
Continuous
 62
   252
100
AcDbVertex
100
AcDb2dVertex
 10
265.8567431641
 20
33.0445389714
 30
0.0
 70
     8
  0
VERTEX
  5
411
330
3B3
100
AcDbEntity
  8
0
  6
Continuous
 62
   252
100
AcDbVertex
100
AcDb2dVertex
 10
266.2901012688
 20
32.9917388605
 30
0.0
 70
     8
  0
VERTEX
  5
412
330
3B3
100
AcDbEntity
  8
0
  6
Continuous
 62
   252
100
AcDbVertex
100
AcDb2dVertex
 10
266.723459948
 20
32.9729756382
 30
0.0
 70
     8
  0
VERTEX
  5
413
330
3B3
100
AcDbEntity
  8
0
  6
Continuous
 62
   252
100
AcDbVertex
100
AcDb2dVertex
 10
267.1568186271
 20
32.9917388605
 30
0.0
 70
     8
  0
VERTEX
  5
414
330
3B3
100
AcDbEntity
  8
0
  6
Continuous
 62
   252
100
AcDbVertex
100
AcDb2dVertex
 10
267.5901767319
 20
33.0445389714
 30
0.0
 70
     8
  0
VERTEX
  5
415
330
3B3
100
AcDbEntity
  8
0
  6
Continuous
 62
   252
100
AcDbVertex
100
AcDb2dVertex
 10
268.0235336878
 20
33.1261416373
 30
0.0
 70
     8
  0
VERTEX
  5
416
330
3B3
100
AcDbEntity
  8
0
  6
Continuous
 62
   252
100
AcDbVertex
100
AcDb2dVertex
 10
268.4568889204
 20
33.2313125241
 30
0.0
 70
     8
  0
VERTEX
  5
417
330
3B3
100
AcDbEntity
  8
0
  6
Continuous
 62
   252
100
AcDbVertex
100
AcDb2dVertex
 10
268.8902418553
 20
33.3548172982
 30
0.0
 70
     8
  0
VERTEX
  5
418
330
3B3
100
AcDbEntity
  8
0
  6
Continuous
 62
   252
100
AcDbVertex
100
AcDb2dVertex
 10
269.6124900807
 20
33.5871838508
 30
0.0
 70
     8
  0
VERTEX
  5
419
330
3B3
100
AcDbEntity
  8
0
  6
Continuous
 62
   252
100
AcDbVertex
100
AcDb2dVertex
 10
270.3347276687
 20
33.8317050249
 30
0.0
 70
     8
  0
VERTEX
  5
41A
330
3B3
100
AcDbEntity
  8
0
  6
Continuous
 62
   252
100
AcDbVertex
100
AcDb2dVertex
 10
271.0569519598
 20
34.0641477936
 30
0.0
 70
     8
  0
VERTEX
  5
41B
330
3B3
100
AcDbEntity
  8
0
  6
Continuous
 62
   252
100
AcDbVertex
100
AcDb2dVertex
 10
271.4902790457
 20
34.1877348809
 30
0.0
 70
     8
  0
VERTEX
  5
41C
330
3B3
100
AcDbEntity
  8
0
  6
Continuous
 62
   252
100
AcDbVertex
100
AcDb2dVertex
 10
271.923599813
 20
34.2930155189
 30
0.0
 70
     8
  0
VERTEX
  5
41D
330
3B3
100
AcDbEntity
  8
0
  6
Continuous
 62
   252
100
AcDbVertex
100
AcDb2dVertex
 10
272.3569136872
 20
34.3747553735
 30
0.0
 70
     8
  0
VERTEX
  5
41E
330
3B3
100
AcDbEntity
  8
0
  6
Continuous
 62
   252
100
AcDbVertex
100
AcDb2dVertex
 10
272.7902200938
 20
34.427720111
 30
0.0
 70
     8
  0
VERTEX
  5
41F
330
3B3
100
AcDbEntity
  8
0
  6
Continuous
 62
   252
100
AcDbVertex
100
AcDb2dVertex
 10
273.2235184586
 20
34.4466753977
 30
0.0
 70
     8
  0
VERTEX
  5
420
330
3B3
100
AcDbEntity
  8
0
  6
Continuous
 62
   252
100
AcDbVertex
100
AcDb2dVertex
 10
273.6568087814
 20
34.4281298483
 30
0.0
 70
     8
  0
VERTEX
  5
421
330
3B3
100
AcDbEntity
  8
0
  6
Continuous
 62
   252
100
AcDbVertex
100
AcDb2dVertex
 10
274.0900933601
 20
34.375563873
 30
0.0
 70
     8
  0
VERTEX
  5
422
330
3B3
100
AcDbEntity
  8
0
  6
Continuous
 62
   252
100
AcDbVertex
100
AcDb2dVertex
 10
274.5233750666
 20
34.2942008303
 30
0.0
 70
     8
  0
VERTEX
  5
423
330
3B3
100
AcDbEntity
  8
0
  6
Continuous
 62
   252
100
AcDbVertex
100
AcDb2dVertex
 10
274.956656773
 20
34.1892640791
 30
0.0
 70
     8
  0
VERTEX
  5
424
330
3B3
100
AcDbEntity
  8
0
  6
Continuous
 62
   252
100
AcDbVertex
100
AcDb2dVertex
 10
275.3899413517
 20
34.0659769779
 30
0.0
 70
     8
  0
VERTEX
  5
425
330
3B3
100
AcDbEntity
  8
0
  6
Continuous
 62
   252
100
AcDbVertex
100
AcDb2dVertex
 10
276.1120964993
 20
33.8339068209
 30
0.0
 70
     8
  0
VERTEX
  5
426
330
3B3
100
AcDbEntity
  8
0
  6
Continuous
 62
   252
100
AcDbVertex
100
AcDb2dVertex
 10
276.8342808999
 20
33.5895550158
 30
0.0
 70
     8
  0
VERTEX
  5
427
330
3B3
100
AcDbEntity
  8
0
  6
Continuous
 62
   252
100
AcDbVertex
100
AcDb2dVertex
 10
277.5565078504
 20
33.3571037787
 30
0.0
 70
     8
  0
VERTEX
  5
428
330
3B3
100
AcDbEntity
  8
0
  6
Continuous
 62
   252
100
AcDbVertex
100
AcDb2dVertex
 10
277.9898699761
 20
33.233405111
 30
0.0
 70
     8
  0
VERTEX
  5
429
330
3B3
100
AcDbEntity
  8
0
  6
Continuous
 62
   252
100
AcDbVertex
100
AcDb2dVertex
 10
278.4232550788
 20
33.1279196045
 30
0.0
 70
     8
  0
VERTEX
  5
42A
330
3B3
100
AcDbEntity
  8
0
  6
Continuous
 62
   252
100
AcDbVertex
100
AcDb2dVertex
 10
278.8566660304
 20
33.0458706177
 30
0.0
 70
     8
  0
VERTEX
  5
42B
330
3B3
100
AcDbEntity
  8
0
  6
Continuous
 62
   252
100
AcDbVertex
100
AcDb2dVertex
 10
279.2901057032
 20
32.9924815094
 30
0.0
 70
     8
  0
VERTEX
  5
42C
330
3B3
100
AcDbEntity
  8
0
  6
Continuous
 62
   252
100
AcDbVertex
100
AcDb2dVertex
 10
279.7235769692
 20
32.9729756382
 30
0.0
 70
     8
  0
VERTEX
  5
42D
330
3B3
100
AcDbEntity
  8
0
  6
Continuous
 62
   252
100
AcDbVertex
100
AcDb2dVertex
 10
279.9400753936
 20
32.9773340826
 30
0.0
 70
     8
  0
VERTEX
  5
42E
330
3B3
100
AcDbEntity
  8
0
  6
Continuous
 62
   252
100
AcDbVertex
100
AcDb2dVertex
 10
280.156581055
 20
32.9908014687
 30
0.0
 70
     8
  0
VERTEX
  5
42F
330
3B3
100
AcDbEntity
  8
0
  6
Continuous
 62
   252
100
AcDbVertex
100
AcDb2dVertex
 10
280.3730925937
 20
33.012732599
 30
0.0
 70
     8
  0
VERTEX
  5
430
330
3B3
100
AcDbEntity
  8
0
  6
Continuous
 62
   252
100
AcDbVertex
100
AcDb2dVertex
 10
280.535479287
 20
33.0343471522
 30
0.0
 70
     8
  0
VERTEX
  5
431
330
3B3
100
AcDbEntity
  8
0
  6
Continuous
 62
   252
100
AcDbVertex
100
AcDb2dVertex
 10
280.697867948
 20
33.060087445
 30
0.0
 70
     8
  0
VERTEX
  5
432
330
3B3
100
AcDbEntity
  8
0
  6
Continuous
 62
   252
100
AcDbVertex
100
AcDb2dVertex
 10
280.608518085
 20
32.9097376553
 30
0.0
 70
     8
  0
VERTEX
  5
433
330
3B3
100
AcDbEntity
  8
0
  6
Continuous
 62
   252
100
AcDbVertex
100
AcDb2dVertex
 10
280.5123136419
 20
32.7634088991
 30
0.0
 70
     8
  0
VERTEX
  5
434
330
3B3
100
AcDbEntity
  8
0
  6
Continuous
 62
   252
100
AcDbVertex
100
AcDb2dVertex
 10
280.4095365653
 20
32.6215635699
 30
0.0
 70
     8
  0
VERTEX
  5
435
330
3B3
100
AcDbEntity
  8
0
  6
Continuous
 62
   252
100
AcDbVertex
100
AcDb2dVertex
 10
280.3283332548
 20
32.5183847402
 30
0.0
 70
     8
  0
VERTEX
  5
436
330
3B3
100
AcDbEntity
  8
0
  6
Continuous
 62
   252
100
AcDbVertex
100
AcDb2dVertex
 10
280.243763948
 20
32.418145323
 30
0.0
 70
     8
  0
SEQEND
  5
437
330
3B3
100
AcDbEntity
  8
0
  6
Continuous
 62
   252
 48
25.4
370
     0
  0
SPLINE
  5
438
330
1F
100
AcDbEntity
  8
Standard
  6
Continuous
 62
     7
 48
25.4
100
AcDbSpline
210
0.0
220
0.0
230
1.0
 70
    11
 71
     1
 72
   133
 73
   131
 74
     0
 42
0.0000000001
 43
0.0000000001
 40
0.0
 40
0.0
 40
0.0076923076923077
 40
0.0153846153846154
 40
0.0230769230769231
 40
0.0307692307692308
 40
0.0384615384615385
 40
0.0461538461538462
 40
0.0538461538461538
 40
0.0615384615384615
 40
0.0692307692307692
 40
0.0769230769230769
 40
0.0846153846153846
 40
0.0923076923076923
 40
0.1
 40
0.1076923076923077
 40
0.1153846153846154
 40
0.1230769230769231
 40
0.1307692307692308
 40
0.1384615384615385
 40
0.1461538461538462
 40
0.1538461538461539
 40
0.1615384615384616
 40
0.1692307692307692
 40
0.1769230769230769
 40
0.1846153846153846
 40
0.1923076923076923
 40
0.2
 40
0.2076923076923077
 40
0.2153846153846154
 40
0.2230769230769231
 40
0.2307692307692308
 40
0.2384615384615385
 40
0.2461538461538462
 40
0.2538461538461538
 40
0.2615384615384616
 40
0.2692307692307693
 40
0.2769230769230769
 40
0.2846153846153846
 40
0.2923076923076923
 40
0.3
 40
0.3076923076923077
 40
0.3153846153846154
 40
0.3230769230769231
 40
0.3307692307692308
 40
0.3384615384615385
 40
0.3461538461538462
 40
0.3538461538461539
 40
0.3615384615384616
 40
0.3692307692307693
 40
0.3769230769230769
 40
0.3846153846153846
 40
0.3923076923076924
 40
0.4
 40
0.4076923076923077
 40
0.4153846153846154
 40
0.4230769230769231
 40
0.4307692307692308
 40
0.4384615384615385
 40
0.4461538461538462
 40
0.4538461538461539
 40
0.4615384615384616
 40
0.4692307692307692
 40
0.476923076923077
 40
0.4846153846153847
 40
0.4923076923076923
 40
0.5
 40
0.5076923076923077
 40
0.5153846153846154
 40
0.5230769230769231
 40
0.5307692307692308
 40
0.5384615384615386
 40
0.5461538461538462
 40
0.5538461538461539
 40
0.5615384615384615
 40
0.5692307692307692
 40
0.576923076923077
 40
0.5846153846153847
 40
0.5923076923076923
 40
0.6000000000000001
 40
0.6076923076923078
 40
0.6153846153846154
 40
0.6230769230769231
 40
0.6307692307692308
 40
0.6384615384615385
 40
0.6461538461538462
 40
0.6538461538461539
 40
0.6615384615384616
 40
0.6692307692307693
 40
0.676923076923077
 40
0.6846153846153846
 40
0.6923076923076923
 40
0.7000000000000001
 40
0.7076923076923077
 40
0.7153846153846154
 40
0.7230769230769232
 40
0.7307692307692308
 40
0.7384615384615385
 40
0.7461538461538462
 40
0.7538461538461538
 40
0.7615384615384616
 40
0.7692307692307693
 40
0.7769230769230769
 40
0.7846153846153847
 40
0.7923076923076924
 40
0.8
 40
0.8076923076923077
 40
0.8153846153846154
 40
0.8230769230769232
 40
0.8307692307692308
 40
0.8384615384615385
 40
0.8461538461538463
 40
0.8538461538461539
 40
0.8615384615384616
 40
0.8692307692307693
 40
0.8769230769230769
 40
0.8846153846153847
 40
0.8923076923076924
 40
0.9
 40
0.9076923076923078
 40
0.9153846153846155
 40
0.9230769230769231
 40
0.9307692307692308
 40
0.9384615384615385
 40
0.9461538461538462
 40
0.9538461538461539
 40
0.9615384615384616
 40
0.9692307692307693
 40
0.976923076923077
 40
0.9846153846153847
 40
0.9923076923076923
 40
1.0
 40
1.0
 10
280.243763947996
 20
32.4181453230031
 30
0.0
 10
280.0560833047568
 20
32.40150684614893
 30
0.0
 10
279.8684073499823
 20
32.39135809082064
 30
0.0
 10
279.6807369692429
 20
32.3881193673631
 30
0.0
 10
279.2472657031936
 20
32.4076275396242
 30
0.0
 10
278.8138260304031
 20
32.46102294631367
 30
0.0
 10
278.3804150787568
 20
32.54308161251853
 30
0.0
 10
277.9470299761404
 20
32.64857956332576
 30
0.0
 10
277.5136678504394
 20
32.77229282382218
 30
0.0
 10
276.7914408999452
 20
33.00477148345468
 30
0.0
 10
276.0692564992945
 20
33.24915211509058
 30
0.0
 10
275.3471013516613
 20
33.48124964968799
 30
0.0
 10
274.9138167730499
 20
33.60455129514653
 30
0.0
 10
274.4805350665529
 20
33.70950042590312
 30
0.0
 10
274.047253360056
 20
33.79087306704479
 30
0.0
 10
273.6139687814447
 20
33.84344524365843
 30
0.0
 10
273.1806784586046
 20
33.86199298083101
 30
0.0
 10
272.75023572268
 20
33.84327748735597
 30
0.0
 10
272.3197850467486
 20
33.79096132989176
 30
0.0
 10
271.8893269939509
 20
33.71017663937334
 30
0.0
 10
271.4588621274273
 20
33.60605554673576
 30
0.0
 10
271.0283910103184
 20
33.48373018291404
 30
0.0
 10
270.3109267877985
 20
33.25333976163772
 30
0.0
 10
269.5934493739533
 20
33.01039770510919
 30
0.0
 10
268.8759613759153
 20
32.77866387876835
 30
0.0
 10
268.4454645812468
 20
32.6548876374769
 30
0.0
 10
268.0149654779772
 20
32.54883204154643
 30
0.0
 10
267.5844646292467
 20
32.46562922191185
 30
0.0
 10
267.1539625981962
 20
32.41041130950826
 30
0.0
 10
266.723459947966
 20
32.3883104352706
 30
0.0
 10
266.292957297736
 20
32.41041130950826
 30
0.0
 10
265.8624552666855
 20
32.46562922191185
 30
0.0
 10
265.4319544179551
 20
32.54883204154643
 30
0.0
 10
265.0014553146854
 20
32.6548876374769
 30
0.0
 10
264.570958520017
 20
32.77866387876835
 30
0.0
 10
263.853470521979
 20
33.01039770510925
 30
0.0
 10
263.1359931081339
 20
33.25333976163778
 30
0.0
 10
262.4185288856139
 20
33.48373018291409
 30
0.0
 10
261.988057768505
 20
33.60605554673582
 30
0.0
 10
261.5575929019815
 20
33.71017663937345
 30
0.0
 10
261.1271348491837
 20
33.79096132989182
 30
0.0
 10
260.6966841732523
 20
33.84327748735602
 30
0.0
 10
260.2662414373278
 20
33.86199298083101
 30
0.0
 10
259.8329511144876
 20
33.84344524365843
 30
0.0
 10
259.3996665358764
 20
33.79087306704484
 30
0.0
 10
258.9663848293794
 20
33.70950042590318
 30
0.0
 10
258.5331031228826
 20
33.60455129514659
 30
0.0
 10
258.0998185442712
 20
33.48124964968799
 30
0.0
 10
257.3776633966377
 20
33.24915211509064
 30
0.0
 10
256.6554789959871
 20
33.00477148345479
 30
0.0
 10
255.9332520454929
 20
32.7722928238223
 30
0.0
 10
255.4998899197921
 20
32.64857956332576
 30
0.0
 10
255.0665048171756
 20
32.54308161251859
 30
0.0
 10
254.6330938655294
 20
32.46102294631373
 30
0.0
 10
254.1996541927389
 20
32.40762753962426
 30
0.0
 10
253.7661829266896
 20
32.38811936736316
 30
0.0
 10
253.5785125459489
 20
32.3913580908208
 30
0.0
 10
253.3908365911666
 20
32.40150684614992
 30
0.0
 10
253.2031559479066
 20
32.41814532300638
 30
0.0
 10
253.0911372160354
 20
32.5524593616677
 30
0.0
 10
252.9851924704777
 20
32.69189791672558
 30
0.0
 10
252.8856638368063
 20
32.83604116487529
 30
0.0
 10
252.8154116562073
 20
32.94696672402678
 30
0.0
 10
252.7490519479663
 20
33.06008744503372
 30
0.0
 10
252.9655697536875
 20
33.02667044399907
 30
0.0
 10
253.182083721313
 20
33.0007493907066
 30
0.0
 10
253.3985924912969
 20
32.98296948277643
 30
0.0
 10
253.5609698399812
 20
32.97536530516612
 30
0.0
 10
253.7233429266896
 20
32.97297563822951
 30
0.0
 10
254.1568141927388
 20
32.99248150936094
 30
0.0
 10
254.5902538655293
 20
33.04587061767681
 30
0.0
 10
255.0236648171756
 20
33.12791960446979
 30
0.0
 10
255.457049919792
 20
33.23340511103226
 30
0.0
 10
255.890412045493
 20
33.35710377865684
 30
0.0
 10
256.612638995987
 20
33.58955501575364
 30
0.0
 10
257.3348233966378
 20
33.83390682093032
 30
0.0
 10
258.0569785442711
 20
34.06597697794847
 30
0.0
 10
258.4902631228824
 20
34.18926407908815
 30
0.0
 10
258.9235448293794
 20
34.29420083033738
 30
0.0
 10
259.3568265358763
 20
34.37556387298865
 30
0.0
 10
259.7901111144876
 20
34.42812984833468
 30
0.0
 10
260.2234014373279
 20
34.4466753976678
 30
0.0
 10
260.6566998020884
 20
34.42772011103409
 30
0.0
 10
261.0900062087694
 20
34.37475537349374
 30
0.0
 10
261.5233200829479
 20
34.29301551886063
 30
0.0
 10
261.956640850201
 20
34.18773488094837
 30
0.0
 10
262.389967936106
 20
34.06414779357084
 30
0.0
 10
263.1121922272349
 20
33.83170502492025
 30
0.0
 10
263.8344298151898
 20
33.58718385081968
 30
0.0
 10
264.5566780406056
 20
33.35481729818476
 30
0.0
 10
264.9900309755405
 20
33.23131252410425
 30
0.0
 10
265.4233862081668
 20
33.12614163725466
 30
0.0
 10
265.8567431640616
 20
33.04453897144985
 30
0.0
 10
266.2901012688024
 20
32.99173886050352
 30
0.0
 10
266.723459947966
 20
32.97297563822946
 30
0.0
 10
267.1568186271298
 20
32.99173886050352
 30
0.0
 10
267.5901767318705
 20
33.04453897144985
 30
0.0
 10
268.0235336877655
 20
33.12614163725466
 30
0.0
 10
268.4568889203918
 20
33.23131252410425
 30
0.0
 10
268.8902418553266
 20
33.35481729818476
 30
0.0
 10
269.6124900807425
 20
33.58718385081968
 30
0.0
 10
270.3347276686974
 20
33.8317050249202
 30
0.0
 10
271.0569519598263
 20
34.06414779357078
 30
0.0
 10
271.4902790457313
 20
34.18773488094837
 30
0.0
 10
271.9235998129844
 20
34.29301551886063
 30
0.0
 10
272.3569136871629
 20
34.37475537349374
 30
0.0
 10
272.790220093844
 20
34.42772011103404
 30
0.0
 10
273.2235184586045
 20
34.44667539766774
 30
0.0
 10
273.6568087814447
 20
34.42812984833463
 30
0.0
 10
274.090093360056
 20
34.37556387298865
 30
0.0
 10
274.5233750665529
 20
34.29420083033732
 30
0.0
 10
274.9566567730499
 20
34.18926407908804
 30
0.0
 10
275.3899413516612
 20
34.06597697794842
 30
0.0
 10
276.1120964992945
 20
33.83390682093032
 30
0.0
 10
276.8342808999452
 20
33.58955501575364
 30
0.0
 10
277.5565078504393
 20
33.35710377865684
 30
0.0
 10
277.9898699761403
 20
33.23340511103221
 30
0.0
 10
278.4232550787567
 20
33.12791960446968
 30
0.0
 10
278.856666030403
 20
33.04587061767675
 30
0.0
 10
279.2901057031936
 20
32.99248150936082
 30
0.0
 10
279.7235769692429
 20
32.97297563822946
 30
0.0
 10
279.9400753936169
 20
32.97733408257839
 30
0.0
 10
280.1565810549507
 20
32.99080146871988
 30
0.0
 10
280.3730925936986
 20
33.01273259903378
 30
0.0
 10
280.5354792869609
 20
33.03434715218898
 30
0.0
 10
280.697867947966
 20
33.06008744503377
 30
0.0
 10
280.6085180849767
 20
32.90973765533248
 30
0.0
 10
280.5123136419326
 20
32.76340889913485
 30
0.0
 10
280.4095365653352
 20
32.62156356987053
 30
0.0
 10
280.32833325476
 20
32.51838474015059
 30
0.0
 10
280.243763947996
 20
32.4181453230031
 30
0.0
  0
HATCH
  5
439
330
1F
100
AcDbEntity
  8
0
  6
Continuous
 62
   252
 48
25.4
100
AcDbHatch
 10
0.0
 20
0.0
 30
0.0
210
0.0
220
0.0
230
1.0
  2
SOLID
 70
     1
 71
     0
 91
        1
 92
        1
 93
       12
 72
     1
 10
276.0769814798811
 20
40.80878873619112
 11
274.7096107139236
 21
40.80878873619112
 72
     1
 10
274.7096107139236
 20
40.80878873619112
 11
274.7096107139236
 21
38.87016829499548
 72
     1
 10
274.7096107139236
 20
38.87016829499548
 11
272.2862339479661
 21
38.87016829499548
 72
     1
 10
272.2862339479661
 20
38.87016829499548
 11
272.2862339479661
 21
40.80878873619118
 72
     1
 10
272.2862339479661
 20
40.80878873619118
 11
270.9274311820088
 21
40.80878873619118
 72
     1
 10
270.9274311820088
 20
40.80878873619118
 11
270.9274311820088
 21
35.55234701839968
 72
     1
 10
270.9274311820088
 20
35.55234701839968
 11
272.2862339479661
 21
35.55234701839968
 72
     1
 10
272.2862339479661
 20
35.55234701839968
 11
272.2862339479661
 21
37.7854959545699
 72
     1
 10
272.2862339479661
 20
37.7854959545699
 11
274.7096107139236
 21
37.7854959545699
 72
     1
 10
274.7096107139236
 20
37.7854959545699
 11
274.7096107139236
 21
35.55234701839963
 72
     1
 10
274.7096107139236
 20
35.55234701839963
 11
276.0769814798811
 21
35.55234701839963
 72
     1
 10
276.0769814798811
 20
35.55234701839963
 11
276.0769814798811
 21
40.80878873619112
 97
        0
 75
     0
 76
     1
 98
        0
  0
POLYLINE
  5
43A
330
1F
100
AcDbEntity
  8
0
  6
Continuous
 62
   252
 48
25.4
370
     0
100
AcDb2dPolyline
 66
     1
 10
0.0
 20
0.0
 30
0.0
 70
     1
  0
VERTEX
  5
43B
330
43A
100
AcDbEntity
  8
0
  6
Continuous
 62
   252
100
AcDbVertex
100
AcDb2dVertex
 10
276.0769814799
 20
40.8087887362
 30
0.0
 70
     8
  0
VERTEX
  5
43C
330
43A
100
AcDbEntity
  8
0
  6
Continuous
 62
   252
100
AcDbVertex
100
AcDb2dVertex
 10
274.7096107139
 20
40.8087887362
 30
0.0
 70
     8
  0
VERTEX
  5
43D
330
43A
100
AcDbEntity
  8
0
  6
Continuous
 62
   252
100
AcDbVertex
100
AcDb2dVertex
 10
274.7096107139
 20
38.870168295
 30
0.0
 70
     8
  0
VERTEX
  5
43E
330
43A
100
AcDbEntity
  8
0
  6
Continuous
 62
   252
100
AcDbVertex
100
AcDb2dVertex
 10
272.286233948
 20
38.870168295
 30
0.0
 70
     8
  0
VERTEX
  5
43F
330
43A
100
AcDbEntity
  8
0
  6
Continuous
 62
   252
100
AcDbVertex
100
AcDb2dVertex
 10
272.286233948
 20
40.8087887362
 30
0.0
 70
     8
  0
VERTEX
  5
440
330
43A
100
AcDbEntity
  8
0
  6
Continuous
 62
   252
100
AcDbVertex
100
AcDb2dVertex
 10
270.927431182
 20
40.8087887362
 30
0.0
 70
     8
  0
VERTEX
  5
441
330
43A
100
AcDbEntity
  8
0
  6
Continuous
 62
   252
100
AcDbVertex
100
AcDb2dVertex
 10
270.927431182
 20
35.5523470184
 30
0.0
 70
     8
  0
VERTEX
  5
442
330
43A
100
AcDbEntity
  8
0
  6
Continuous
 62
   252
100
AcDbVertex
100
AcDb2dVertex
 10
272.286233948
 20
35.5523470184
 30
0.0
 70
     8
  0
VERTEX
  5
443
330
43A
100
AcDbEntity
  8
0
  6
Continuous
 62
   252
100
AcDbVertex
100
AcDb2dVertex
 10
272.286233948
 20
37.7854959546
 30
0.0
 70
     8
  0
VERTEX
  5
444
330
43A
100
AcDbEntity
  8
0
  6
Continuous
 62
   252
100
AcDbVertex
100
AcDb2dVertex
 10
274.7096107139
 20
37.7854959546
 30
0.0
 70
     8
  0
VERTEX
  5
445
330
43A
100
AcDbEntity
  8
0
  6
Continuous
 62
   252
100
AcDbVertex
100
AcDb2dVertex
 10
274.7096107139
 20
35.5523470184
 30
0.0
 70
     8
  0
VERTEX
  5
446
330
43A
100
AcDbEntity
  8
0
  6
Continuous
 62
   252
100
AcDbVertex
100
AcDb2dVertex
 10
276.0769814799
 20
35.5523470184
 30
0.0
 70
     8
  0
VERTEX
  5
447
330
43A
100
AcDbEntity
  8
0
  6
Continuous
 62
   252
100
AcDbVertex
100
AcDb2dVertex
 10
276.0769814799
 20
40.8087887362
 30
0.0
 70
     8
  0
SEQEND
  5
448
330
43A
100
AcDbEntity
  8
0
  6
Continuous
 62
   252
 48
25.4
370
     0
  0
SPLINE
  5
449
330
1F
100
AcDbEntity
  8
Standard
  6
Continuous
 62
     7
 48
25.4
100
AcDbSpline
210
0.0
220
0.0
230
1.0
 70
    11
 71
     1
 72
    15
 73
    13
 74
     0
 42
0.0000000001
 43
0.0000000001
 40
0.0
 40
0.0
 40
0.0833333333333333
 40
0.1666666666666667
 40
0.25
 40
0.3333333333333333
 40
0.4166666666666666
 40
0.5
 40
0.5833333333333333
 40
0.6666666666666666
 40
0.75
 40
0.8333333333333333
 40
0.9166666666666666
 40
1.0
 40
1.0
 10
276.0769814798811
 20
40.80878873619112
 30
0.0
 10
274.7096107139236
 20
40.80878873619112
 30
0.0
 10
274.7096107139236
 20
38.87016829499548
 30
0.0
 10
272.2862339479661
 20
38.87016829499548
 30
0.0
 10
272.2862339479661
 20
40.80878873619118
 30
0.0
 10
270.9274311820088
 20
40.80878873619118
 30
0.0
 10
270.9274311820088
 20
35.55234701839968
 30
0.0
 10
272.2862339479661
 20
35.55234701839968
 30
0.0
 10
272.2862339479661
 20
37.7854959545699
 30
0.0
 10
274.7096107139236
 20
37.7854959545699
 30
0.0
 10
274.7096107139236
 20
35.55234701839963
 30
0.0
 10
276.0769814798811
 20
35.55234701839963
 30
0.0
 10
276.0769814798811
 20
40.80878873619112
 30
0.0
  0
HATCH
  5
44A
330
1F
100
AcDbEntity
  8
0
  6
Continuous
 62
   252
 48
25.4
100
AcDbHatch
 10
0.0
 20
0.0
 30
0.0
210
0.0
220
0.0
230
1.0
  2
SOLID
 70
     1
 71
     0
 91
        1
 92
        1
 93
       12
 72
     1
 10
281.5021205862643
 20
35.55234701839963
 11
281.5021205862643
 21
36.55726403967633
 72
     1
 10
281.5021205862643
 20
36.55726403967633
 11
278.9210105862642
 21
36.55726403967633
 72
     1
 10
278.9210105862642
 20
36.55726403967633
 11
278.9210105862642
 21
37.84930020988905
 72
     1
 10
278.9210105862642
 20
37.84930020988905
 11
280.7922982458385
 21
37.84930020988905
 72
     1
 10
280.7922982458385
 20
37.84930020988905
 11
280.7922982458385
 21
38.82231510350606
 72
     1
 10
280.7922982458385
 20
38.82231510350606
 11
278.9210105862642
 21
38.82231510350606
 72
     1
 10
278.9210105862642
 20
38.82231510350606
 11
278.9210105862642
 21
39.80387171491459
 72
     1
 10
278.9210105862642
 20
39.80387171491459
 11
281.1511971820087
 21
39.80387171491454
 72
     1
 10
281.1511971820087
 20
39.80387171491454
 11
281.1511971820087
 21
40.80878873619112
 72
     1
 10
281.1511971820087
 20
40.80878873619112
 11
277.5622078203067
 21
40.80878873619112
 72
     1
 10
277.5622078203067
 20
40.80878873619112
 11
277.5622078203066
 21
35.55234701839963
 72
     1
 10
277.5622078203066
 20
35.55234701839963
 11
281.5021205862643
 21
35.55234701839963
 97
        0
 75
     0
 76
     1
 98
        0
  0
POLYLINE
  5
44B
330
1F
100
AcDbEntity
  8
0
  6
Continuous
 62
   252
 48
25.4
370
     0
100
AcDb2dPolyline
 66
     1
 10
0.0
 20
0.0
 30
0.0
 70
     1
  0
VERTEX
  5
44C
330
44B
100
AcDbEntity
  8
0
  6
Continuous
 62
   252
100
AcDbVertex
100
AcDb2dVertex
 10
281.5021205863
 20
35.5523470184
 30
0.0
 70
     8
  0
VERTEX
  5
44D
330
44B
100
AcDbEntity
  8
0
  6
Continuous
 62
   252
100
AcDbVertex
100
AcDb2dVertex
 10
277.5622078203
 20
35.5523470184
 30
0.0
 70
     8
  0
VERTEX
  5
44E
330
44B
100
AcDbEntity
  8
0
  6
Continuous
 62
   252
100
AcDbVertex
100
AcDb2dVertex
 10
277.5622078203
 20
40.8087887362
 30
0.0
 70
     8
  0
VERTEX
  5
44F
330
44B
100
AcDbEntity
  8
0
  6
Continuous
 62
   252
100
AcDbVertex
100
AcDb2dVertex
 10
281.151197182
 20
40.8087887362
 30
0.0
 70
     8
  0
VERTEX
  5
450
330
44B
100
AcDbEntity
  8
0
  6
Continuous
 62
   252
100
AcDbVertex
100
AcDb2dVertex
 10
281.151197182
 20
39.8038717149
 30
0.0
 70
     8
  0
VERTEX
  5
451
330
44B
100
AcDbEntity
  8
0
  6
Continuous
 62
   252
100
AcDbVertex
100
AcDb2dVertex
 10
278.9210105863
 20
39.8038717149
 30
0.0
 70
     8
  0
VERTEX
  5
452
330
44B
100
AcDbEntity
  8
0
  6
Continuous
 62
   252
100
AcDbVertex
100
AcDb2dVertex
 10
278.9210105863
 20
38.8223151035
 30
0.0
 70
     8
  0
VERTEX
  5
453
330
44B
100
AcDbEntity
  8
0
  6
Continuous
 62
   252
100
AcDbVertex
100
AcDb2dVertex
 10
280.7922982458
 20
38.8223151035
 30
0.0
 70
     8
  0
VERTEX
  5
454
330
44B
100
AcDbEntity
  8
0
  6
Continuous
 62
   252
100
AcDbVertex
100
AcDb2dVertex
 10
280.7922982458
 20
37.8493002099
 30
0.0
 70
     8
  0
VERTEX
  5
455
330
44B
100
AcDbEntity
  8
0
  6
Continuous
 62
   252
100
AcDbVertex
100
AcDb2dVertex
 10
278.9210105863
 20
37.8493002099
 30
0.0
 70
     8
  0
VERTEX
  5
456
330
44B
100
AcDbEntity
  8
0
  6
Continuous
 62
   252
100
AcDbVertex
100
AcDb2dVertex
 10
278.9210105863
 20
36.5572640397
 30
0.0
 70
     8
  0
VERTEX
  5
457
330
44B
100
AcDbEntity
  8
0
  6
Continuous
 62
   252
100
AcDbVertex
100
AcDb2dVertex
 10
281.5021205863
 20
36.5572640397
 30
0.0
 70
     8
  0
VERTEX
  5
458
330
44B
100
AcDbEntity
  8
0
  6
Continuous
 62
   252
100
AcDbVertex
100
AcDb2dVertex
 10
281.5021205863
 20
35.5523470184
 30
0.0
 70
     8
  0
SEQEND
  5
459
330
44B
100
AcDbEntity
  8
0
  6
Continuous
 62
   252
 48
25.4
370
     0
  0
SPLINE
  5
45A
330
1F
100
AcDbEntity
  8
Standard
  6
Continuous
 62
     7
 48
25.4
100
AcDbSpline
210
0.0
220
0.0
230
1.0
 70
    11
 71
     1
 72
    15
 73
    13
 74
     0
 42
0.0000000001
 43
0.0000000001
 40
0.0
 40
0.0
 40
0.0833333333333333
 40
0.1666666666666667
 40
0.25
 40
0.3333333333333333
 40
0.4166666666666666
 40
0.5
 40
0.5833333333333333
 40
0.6666666666666666
 40
0.75
 40
0.8333333333333333
 40
0.9166666666666666
 40
1.0
 40
1.0
 10
281.5021205862643
 20
35.55234701839963
 30
0.0
 10
277.5622078203066
 20
35.55234701839963
 30
0.0
 10
277.5622078203067
 20
40.80878873619112
 30
0.0
 10
281.1511971820087
 20
40.80878873619112
 30
0.0
 10
281.1511971820087
 20
39.80387171491454
 30
0.0
 10
278.9210105862642
 20
39.80387171491459
 30
0.0
 10
278.9210105862642
 20
38.82231510350606
 30
0.0
 10
280.7922982458385
 20
38.82231510350606
 30
0.0
 10
280.7922982458385
 20
37.84930020988905
 30
0.0
 10
278.9210105862642
 20
37.84930020988905
 30
0.0
 10
278.9210105862642
 20
36.55726403967633
 30
0.0
 10
281.5021205862643
 20
36.55726403967633
 30
0.0
 10
281.5021205862643
 20
35.55234701839963
 30
0.0
  0
LINE
  5
45B
330
1F
100
AcDbEntity
  8
Default
  6
Continuous
 62
     7
 48
25.4
100
AcDbLine
 10
90.9
 20
45.0
 30
0.0
 11
291.2
 21
45.0
 31
0.0
  0
LINE
  5
45C
330
1F
100
AcDbEntity
  8
Default
  6
Continuous
 62
     7
 48
25.4
100
AcDbLine
 10
90.9
 20
25.02
 30
0.0
 11
291.2
 21
25.02
 31
0.0
  0
LINE
  5
45D
330
1F
100
AcDbEntity
  8
Default
  6
Continuous
 62
     7
 48
25.4
100
AcDbLine
 10
90.9
 20
40.02
 30
0.0
 11
189.3
 21
40.02
 31
0.0
  0
LINE
  5
45E
330
1F
100
AcDbEntity
  8
Default
  6
Continuous
 62
     7
 48
25.4
100
AcDbLine
 10
109.3
 20
35.02
 30
0.0
 11
189.3
 21
35.02
 31
0.0
  0
LINE
  5
45F
330
1F
100
AcDbEntity
  8
Default
  6
Continuous
 62
     7
 48
25.4
100
AcDbLine
 10
109.3
 20
30.02
 30
0.0
 11
169.3
 21
30.02
 31
0.0
  0
LINE
  5
460
330
1F
100
AcDbEntity
  8
Default
  6
Continuous
 62
     7
 48
25.4
100
AcDbLine
 10
109.3
 20
45.0
 30
0.0
 11
109.3
 21
5.02
 31
0.0
  0
LINE
  5
461
330
1F
100
AcDbEntity
  8
Default
  6
Continuous
 62
     7
 48
25.4
100
AcDbLine
 10
129.3
 20
45.0
 30
0.0
 11
129.3
 21
5.02
 31
0.0
  0
LINE
  5
462
330
1F
100
AcDbEntity
  8
Default
  6
Continuous
 62
     7
 48
25.4
100
AcDbLine
 10
149.3
 20
45.0
 30
0.0
 11
149.3
 21
25.02
 31
0.0
  0
LINE
  5
463
330
1F
100
AcDbEntity
  8
Default
  6
Continuous
 62
     7
 48
25.4
100
AcDbLine
 10
169.3
 20
45.0
 30
0.0
 11
169.3
 21
25.02
 31
0.0
  0
LINE
  5
464
330
1F
100
AcDbEntity
  8
Default
  6
Continuous
 62
     7
 48
25.4
100
AcDbLine
 10
189.3
 20
45.0
 30
0.0
 11
189.3
 21
25.02
 31
0.0
  0
LINE
  5
465
330
1F
100
AcDbEntity
  8
Default
  6
Continuous
 62
     7
 48
25.4
100
AcDbLine
 10
109.3
 20
12.02
 30
0.0
 11
291.2
 21
12.02
 31
0.0
  0
LINE
  5
466
330
1F
100
AcDbEntity
  8
Default
  6
Continuous
 62
     7
 48
25.4
100
AcDbLine
 10
90.9
 20
20.02
 30
0.0
 11
109.3
 21
20.02
 31
0.0
  0
LINE
  5
467
330
1F
100
AcDbEntity
  8
Default
  6
Continuous
 62
     7
 48
25.4
100
AcDbLine
 10
247.3
 20
25.02
 30
0.0
 11
247.3
 21
5.02
 31
0.0
  0
TEXT
  5
468
330
1F
100
AcDbEntity
  8
Default
  6
Continuous
 62
     7
 48
25.4
100
AcDbText
 10
91.2540142599
 20
41.8120376842
 30
0.0
 40
2.0
  1
Masstab / Scale
 41
0.9
  7
SEACAD_arial_ttf
 11
91.2540142599
 21
43.8120376842
 31
0.0
100
AcDbText
 73
     3
  0
TEXT
  5
469
330
1F
100
AcDbEntity
  8
Default
  6
Continuous
 62
     7
 48
25.4
100
AcDbText
 10
111.2540142599
 20
41.8120376842
 30
0.0
 40
2.0
  1
AM-Nr. / ECN
 41
0.9
  7
SEACAD_arial_ttf
 11
111.2540142599
 21
43.8120376842
 31
0.0
100
AcDbText
 73
     3
  0
TEXT
  5
46A
330
1F
100
AcDbEntity
  8
Default
  6
Continuous
 62
     7
 48
25.4
100
AcDbText
 10
111.2540142599
 20
36.8120376842
 30
0.0
 40
2.0
  1
Datum / Date
 41
0.9
  7
SEACAD_arial_ttf
 11
111.2540142599
 21
38.8120376842
 31
0.0
100
AcDbText
 73
     3
  0
TEXT
  5
46B
330
1F
100
AcDbEntity
  8
Default
  6
Continuous
 62
     7
 48
25.4
100
AcDbText
 10
109.8253978501
 20
31.6929863168
 30
0.0
 40
2.0
  1
Verantw. / Respons.
 41
0.8
  7
SEACAD_arial_ttf
 11
109.8253978501
 21
33.6929863168
 31
0.0
100
AcDbText
 73
     3
  0
TEXT
  5
46C
330
1F
100
AcDbEntity
  8
Default
  6
Continuous
 62
     7
 48
25.4
100
AcDbText
 10
109.9444492176
 20
26.8120376842
 30
0.0
 40
2.0
  1
Gepruft / Approved
 41
0.8
  7
SEACAD_arial_ttf
 11
109.9444492176
 21
28.8120376842
 31
0.0
100
AcDbText
 73
     3
  0
TEXT
  5
46D
330
1F
100
AcDbEntity
  8
Default
  6
Continuous
 62
     7
 48
25.4
100
AcDbText
 10
96.0260289
 20
21.7099061944
 30
0.0
 40
2.0
  1
Status
  7
SEACAD_arial_ttf
 11
96.0260289
 21
23.7099061944
 31
0.0
100
AcDbText
 73
     3
  0
TEXT
  5
46E
330
1F
100
AcDbEntity
  8
Default
  6
Continuous
 62
     7
 48
25.4
100
AcDbText
 10
110.3592381086
 20
18.1621194157
 30
0.0
 40
2.0
  1
Benennung /
  7
SEACAD_arial_ttf
 11
110.3592381086
 21
20.1621194157
 31
0.0
100
AcDbText
 73
     3
  0
TEXT
  5
46F
330
1F
100
AcDbEntity
  8
Default
  6
Continuous
 62
     7
 48
25.4
100
AcDbText
 10
110.3592381086
 20
15.0316846331
 30
0.0
 40
2.0
  1
Title
  7
SEACAD_arial_ttf
 11
110.3592381086
 21
17.0316846331
 31
0.0
100
AcDbText
 73
     3
  0
TEXT
  5
470
330
1F
100
AcDbEntity
  8
Default
  6
Continuous
 62
     7
 48
25.4
100
AcDbText
 10
110.3022330564
 20
8.7508567533
 30
0.0
 40
2.0
  1
Prod.-No. +
  7
SEACAD_arial_ttf
 11
110.3022330564
 21
10.7508567533
 31
0.0
100
AcDbText
 73
     3
  0
TEXT
  5
471
330
1F
100
AcDbEntity
  8
Default
  6
Continuous
 62
     7
 48
25.4
100
AcDbText
 10
110.3022330564
 20
5.6204219707
 30
0.0
 40
2.0
  1
variants:
  7
SEACAD_arial_ttf
 11
110.3022330564
 21
7.6204219707
 31
0.0
100
AcDbText
 73
     3
  0
TEXT
  5
472
330
1F
100
AcDbEntity
  8
Default
  6
Continuous
 62
     7
 48
25.4
100
AcDbText
 10
173.3181404555
 20
30.6886887902
 30
0.0
 40
2.0
  1
Copyright
  7
SEACAD_arial_ttf
 11
173.3181404555
 21
32.6886887902
 31
0.0
100
AcDbText
 73
     3
  0
TEXT
  5
473
330
1F
100
AcDbEntity
  8
Default
  6
Continuous
 62
     7
 48
25.4
100
AcDbText
 10
173.8181404555
 20
27.5582540076
 30
0.0
 40
2.0
  1
reserved
  7
SEACAD_arial_ttf
 11
173.8181404555
 21
29.5582540076
 31
0.0
100
AcDbText
 73
     3
  0
TEXT
  5
474
330
1F
100
AcDbEntity
  8
Default
  6
Continuous
 62
     7
 48
25.4
100
AcDbText
 10
192.3569338806
 20
40.3808143983
 30
0.0
 40
2.0
  1
Grohe Water Technology
  7
SEACAD_arial_ttf
 11
192.3569338806
 21
42.3808143983
 31
0.0
100
AcDbText
 73
     3
  0
TEXT
  5
475
330
1F
100
AcDbEntity
  8
Default
  6
Continuous
 62
     7
 48
25.4
100
AcDbText
 10
192.3569338806
 20
37.2503796157
 30
0.0
 40
2.0
  1
AG & Co. KG
  7
SEACAD_arial_ttf
 11
192.3569338806
 21
39.2503796157
 31
0.0
100
AcDbText
 73
     3
  0
TEXT
  5
476
330
1F
100
AcDbEntity
  8
Default
  6
Continuous
 62
     7
 48
25.4
100
AcDbText
 10
192.3569338806
 20
34.119944833
 30
0.0
 40
2.0
  1
Hauptstras137
  7
SEACAD_arial_ttf
 11
192.3569338806
 21
36.119944833
 31
0.0
100
AcDbText
 73
     3
  0
TEXT
  5
477
330
1F
100
AcDbEntity
  8
Default
  6
Continuous
 62
     7
 48
25.4
100
AcDbText
 10
192.3569338806
 20
30.9895100504
 30
0.0
 40
2.0
  1
D-58675 Hemer
  7
SEACAD_arial_ttf
 11
192.3569338806
 21
32.9895100504
 31
0.0
100
AcDbText
 73
     3
  0
TEXT
  5
478
330
1F
100
AcDbEntity
  8
Default
  6
Continuous
 62
     7
 48
25.4
100
AcDbText
 10
192.3569338806
 20
27.8590752678
 30
0.0
 40
2.0
  1
Tel. 02372 / 93-0
  7
SEACAD_arial_ttf
 11
192.3569338806
 21
29.8590752678
 31
0.0
100
AcDbText
 73
     3
  0
TEXT
  5
479
330
1F
100
AcDbEntity
  8
Default
  6
Continuous
 62
     7
 48
25.4
100
AcDbText
 10
248.2513570171
 20
22.2473824007
 30
0.0
 40
2.0
  1
Zeichnung Nr. / Drawing No.:
  7
SEACAD_arial_ttf
 11
248.2513570171
 21
24.2473824007
 31
0.0
100
AcDbText
 73
     3
  0
TEXT
  5
47A
330
1F
100
AcDbEntity
  8
Default
  6
Continuous
 62
     7
 48
25.4
100
AcDbText
 10
248.1580166214
 20
9.54675378
 30
0.0
 40
1.5
  1
TPI-Referenz / TPI-Reference:
  7
SEACAD_arial_ttf
 11
248.1580166214
 21
11.04675378
 31
0.0
100
AcDbText
 73
     3
  0
LINE
  5
47B
330
1F
100
AcDbEntity
  8
Default
  6
Continuous
 62
     7
 48
25.4
100
AcDbLine
 10
5.6
 20
5.02
 30
0.0
 11
5.6
 21
413.0
 31
0.0
  0
LINE
  5
47C
330
1F
100
AcDbEntity
  8
Default
  6
Continuous
 62
     7
 48
25.4
100
AcDbLine
 10
5.6
 20
413.0
 30
0.0
 11
291.0
 21
413.0
 31
0.0
  0
LINE
  5
47D
330
1F
100
AcDbEntity
  8
Default
  6
Continuous
 62
     7
 48
25.4
100
AcDbLine
 10
291.2
 20
413.0
 30
0.0
 11
291.2
 21
5.02
 31
0.0
  0
LINE
  5
47E
330
1F
100
AcDbEntity
  8
Default
  6
Continuous
 62
     7
 48
25.4
100
AcDbLine
 10
5.6
 20
5.02
 30
0.0
 11
291.2
 21
5.02
 31
0.0
  0
LINE
  5
47F
330
1F
100
AcDbEntity
  8
Default
  6
Continuous
 62
     7
 48
25.4
100
AcDbLine
 10
90.9
 20
45.0
 30
0.0
 11
90.9
 21
5.02
 31
0.0
  0
ENDSEC
  0
SECTION
  2
OBJECTS
  0
DICTIONARY
  5
C
330
0
100
AcDbDictionary
281
     1
  3
ACAD_GROUP
350
D
  3
ACAD_LAYOUT
350
1A
  3
ACAD_MLINESTYLE
350
17
  3
ACAD_PLOTSETTINGS
350
19
  3
ACAD_PLOTSTYLENAME
350
E
  0
DICTIONARY
  5
D
102
{ACAD_REACTORS
330
C
102
}
330
C
100
AcDbDictionary
281
     1
  0
DICTIONARY
  5
1A
102
{ACAD_REACTORS
330
C
102
}
330
C
100
AcDbDictionary
281
     1
  3
Layout1
350
1E
  3
Model
350
22
  0
DICTIONARY
  5
17
102
{ACAD_REACTORS
330
C
102
}
330
C
100
AcDbDictionary
281
     1
  3
Standard
350
18
  0
DICTIONARY
  5
19
102
{ACAD_REACTORS
330
C
102
}
330
C
100
AcDbDictionary
281
     1
  0
ACDBDICTIONARYWDFLT
  5
E
102
{ACAD_REACTORS
330
C
102
}
330
C
100
AcDbDictionary
281
     1
  3
Normal
350
F
100
AcDbDictionaryWithDefault
340
F
  0
LAYOUT
  5
1E
102
{ACAD_REACTORS
330
1A
102
}
330
1A
100
AcDbPlotSettings
  1

  2

  4

  6

 40
0.0
 41
0.0
 42
0.0
 43
0.0
 44
0.0
 45
0.0
 46
0.0
 47
0.0
 48
0.0
 49
0.0
140
0.0
141
0.0
142
1.0
143
1.0
 70
   688
 72
     0
 73
     0
 74
     5
  7

 75
    16
147
1.0
148
0.0
149
0.0
100
AcDbLayout
  1
Layout1
 70
     1
 71
     1
 10
0.0
 20
0.0
 11
297.0
 21
420.0
 12
0.0
 22
0.0
 32
0.0
 14
0.0
 24
0.0
 34
0.0
 15
297.0
 25
420.0
 35
0.0
146
0.0
 13
0.0
 23
0.0
 33
0.0
 16
1.0
 26
0.0
 36
0.0
 17
0.0
 27
1.0
 37
0.0
 76
     0
330
1B
  0
LAYOUT
  5
22
102
{ACAD_REACTORS
330
1A
102
}
330
1A
100
AcDbPlotSettings
  1

  2

  4

  6

 40
0.0
 41
0.0
 42
0.0
 43
0.0
 44
0.0
 45
0.0
 46
0.0
 47
0.0
 48
0.0
 49
0.0
140
0.0
141
0.0
142
1.0
143
1.0
 70
  1712
 72
     0
 73
     0
 74
     0
  7

 75
     0
147
1.0
148
0.0
149
0.0
100
AcDbLayout
  1
Model
 70
     1
 71
     0
 10
0.0
 20
0.0
 11
297.0
 21
420.0
 12
0.0
 22
0.0
 32
0.0
 14
0.0
 24
0.0
 34
0.0
 15
297.0
 25
420.0
 35
0.0
146
0.0
 13
0.0
 23
0.0
 33
0.0
 16
1.0
 26
0.0
 36
0.0
 17
0.0
 27
1.0
 37
0.0
 76
     0
330
1F
  0
MLINESTYLE
  5
18
102
{ACAD_REACTORS
330
17
102
}
330
17
100
AcDbMlineStyle
  2
Standard
 70
     0
  3

 62
   256
 51
90.0
 52
90.0
 71
     2
 49
0.5
 62
   256
  6
BYLAYER
 49
-0.5
 62
   256
  6
BYLAYER
  0
ACDBPLACEHOLDER
  5
F
102
{ACAD_REACTORS
330
E
102
}
330
E
  0
ENDSEC
  0
EOF
