  0
SECTION
  2
HEADER
  9
$ACADVER
  1
AC1015
  9
$ACADMAINTVER
 70
         6
  9
$DWGCODEPAGE
  3
ANSI_932
  9
$INSBASE
 10
0.0
 20
0.0
 30
0.0
  9
$EXTMIN
 10
0.0
 20
0.0
 30
0.0
  9
$EXTMAX
 10
210.0
 20
297.0
 30
0.0
  9
$LIMMIN
 10
0.0
 20
0.0
  9
$LIMMAX
 10
210.0
 20
297.0
  9
$ORTHOMODE
 70
         0
  9
$REGENMODE
 70
         1
  9
$FILLMODE
 70
         1
  9
$QTEXTMODE
 70
         0
  9
$MIRRTEXT
 70
         1
  9
$LTSCALE
 40
25.4
  9
$ATTMODE
 70
         1
  9
$TEXTSIZE
 40
0.2
  9
$TRACEWID
 40
0.05
  9
$TEXTSTYLE
  7
Standard
  9
$CLAYER
  8
0
  9
$CELTYPE
  6
CONTINUOUS
  9
$CECOLOR
 62
       256
  9
$CELTSCALE
 40
1.0
  9
$DISPSILH
 70
         0
  9
$DIMSCALE
 40
1.0
  9
$DIMASZ
 40
0.18
  9
$DIMEXO
 40
0.0625
  9
$DIMDLI
 40
0.38
  9
$DIMRND
 40
0.0
  9
$DIMDLE
 40
0.0
  9
$DIMEXE
 40
0.18
  9
$DIMTP
 40
0.0
  9
$DIMTM
 40
0.0
  9
$DIMTXT
 40
0.18
  9
$DIMCEN
 40
0.09
  9
$DIMTSZ
 40
0.0
  9
$DIMTOL
 70
         0
  9
$DIMLIM
 70
         0
  9
$DIMTIH
 70
         1
  9
$DIMTOH
 70
         1
  9
$DIMSE1
 70
         0
  9
$DIMSE2
 70
         0
  9
$DIMTAD
 70
         0
  9
$DIMZIN
 70
         0
  9
$DIMBLK
  1

  9
$DIMASO
 70
         1
  9
$DIMSHO
 70
         1
  9
$DIMPOST
  1

  9
$DIMAPOST
  1

  9
$DIMALT
 70
         0
  9
$DIMALTD
 70
         2
  9
$DIMALTF
 40
25.4
  9
$DIMLFAC
 40
1.0
  9
$DIMTOFL
 70
         0
  9
$DIMTVP
 40
0.0
  9
$DIMTIX
 70
         0
  9
$DIMSOXD
 70
         0
  9
$DIMSAH
 70
         0
  9
$DIMBLK1
  1

  9
$DIMBLK2
  1

  9
$DIMSTYLE
  2
Standard
  9
$DIMCLRD
 70
         0
  9
$DIMCLRE
 70
         0
  9
$DIMCLRT
 70
         0
  9
$DIMTFAC
 40
1.0
  9
$DIMGAP
 40
0.09
  9
$DIMJUST
 70
         0
  9
$DIMSD1
 70
         0
  9
$DIMSD2
 70
         0
  9
$DIMTOLJ
 70
         1
  9
$DIMTZIN
 70
         0
  9
$DIMALTZ
 70
         0
  9
$DIMALTTZ
 70
         0
  9
$DIMUPT
 70
         0
  9
$DIMDEC
 70
         4
  9
$DIMTDEC
 70
         4
  9
$DIMALTU
 70
         2
  9
$DIMALTTD
 70
         2
  9
$DIMTXSTY
  7
Standard
  9
$DIMAUNIT
 70
         0
  9
$DIMADEC
 70
         0
  9
$DIMALTRND
 40
0.0
  9
$DIMAZIN
 70
         0
  9
$DIMDSEP
 70
         0
  9
$DIMATFIT
 70
         3
  9
$DIMFRAC
 70
         0
  9
$DIMLDRBLK
  1

  9
$DIMLUNIT
 70
         2
  9
$DIMLWD
 70
         0
  9
$DIMLWE
 70
         0
  9
$DIMTMOVE
 70
         0
  9
$LUNITS
 70
         2
  9
$LUPREC
 70
         4
  9
$SKETCHINC
 40
0.1
  9
$FILLETRAD
 40
0.0
  9
$AUNITS
 70
         0
  9
$AUPREC
 70
         0
  9
$MENU
  1
acad
  9
$ELEVATION
 40
0.0
  9
$PELEVATION
 40
0.0
  9
$THICKNESS
 40
0.0
  9
$LIMCHECK
 70
         0
  9
$CHAMFERA
 40
0.0
  9
$CHAMFERB
 40
0.0
  9
$CHAMFERC
 40
0.0
  9
$CHAMFERD
 40
0.0
  9
$SKPOLY
 70
         0
  9
$TDCREATE
 40
0.000000000
  9
$TDUCREATE
 40
0.000000000
  9
$TDUPDATE
 40
0.000000000
  9
$TDUUPDATE
 40
0.000000000
  9
$TDINDWG
 40
0.0000000000
  9
$TDUSRTIMER
 40
0.0000000000
  9
$USRTIMER
 70
         1
  9
$ANGBASE
 50
0.0
  9
$ANGDIR
 70
         0
  9
$PDMODE
 70
         0
  9
$PDSIZE
 40
0.0
  9
$PLINEWID
 40
0.0
  9
$SPLFRAME
 70
         0
  9
$SPLINETYPE
 70
         6
  9
$SPLINESEGS
 70
         8
  9
$HANDSEED
  5
25E
  9
$SURFTAB1
 70
         6
  9
$SURFTAB2
 70
         6
  9
$SURFTYPE
 70
         6
  9
$SURFU
 70
         6
  9
$SURFV
 70
         6
  9
$UCSBASE
  2

  9
$UCSNAME
  2

  9
$UCSORG
 10
0.0
 20
0.0
 30
0.0
  9
$UCSXDIR
 10
1.0
 20
0.0
 30
0.0
  9
$UCSYDIR
 10
0.0
 20
1.0
 30
0.0
  9
$UCSORTHOREF
  2

  9
$UCSORTHOVIEW
 70
         0
  9
$UCSORGTOP
 10
0.0
 20
0.0
 30
0.0
  9
$UCSORGBOTTOM
 10
0.0
 20
0.0
 30
0.0
  9
$UCSORGLEFT
 10
0.0
 20
0.0
 30
0.0
  9
$UCSORGRIGHT
 10
0.0
 20
0.0
 30
0.0
  9
$UCSORGFRONT
 10
0.0
 20
0.0
 30
0.0
  9
$UCSORGBACK
 10
0.0
 20
0.0
 30
0.0
  9
$PUCSBASE
  2

  9
$PUCSNAME
  2

  9
$PUCSORG
 10
0.0
 20
0.0
 30
0.0
  9
$PUCSXDIR
 10
1.0
 20
0.0
 30
0.0
  9
$PUCSYDIR
 10
0.0
 20
1.0
 30
0.0
  9
$PUCSORTHOREF
  2

  9
$PUCSORTHOVIEW
 70
         0
  9
$PUCSORGTOP
 10
0.0
 20
0.0
 30
0.0
  9
$PUCSORGBOTTOM
 10
0.0
 20
0.0
 30
0.0
  9
$PUCSORGLEFT
 10
0.0
 20
0.0
 30
0.0
  9
$PUCSORGRIGHT
 10
0.0
 20
0.0
 30
0.0
  9
$PUCSORGFRONT
 10
0.0
 20
0.0
 30
0.0
  9
$PUCSORGBACK
 10
0.0
 20
0.0
 30
0.0
  9
$USERI1
 70
         0
  9
$USERI2
 70
         0
  9
$USERI3
 70
         0
  9
$USERI4
 70
         0
  9
$USERI5
 70
         0
  9
$USERR1
 40
0.0
  9
$USERR2
 40
0.0
  9
$USERR3
 40
0.0
  9
$USERR4
 40
0.0
  9
$USERR5
 40
0.0
  9
$WORLDVIEW
 70
         1
  9
$SHADEDGE
 70
         3
  9
$SHADEDIF
 70
        70
  9
$TILEMODE
 70
         1
  9
$MAXACTVP
 70
        16
  9
$PINSBASE
 10
0.0
 20
0.0
 30
0.0
  9
$PLIMCHECK
 70
         0
  9
$PEXTMIN
 10
1.0000000000E+20
 20
1.0000000000E+20
 30
1.0000000000E+20
  9
$PEXTMAX
 10
-1.0000000000E+20
 20
-1.0000000000E+20
 30
-1.0000000000E+20
  9
$PLIMMIN
 10
0.0
 20
0.0
  9
$PLIMMAX
 10
12.0
 20
9.0
  9
$UNITMODE
 70
         0
  9
$VISRETAIN
 70
         0
  9
$PLINEGEN
 70
         1
  9
$PSLTSCALE
 70
         0
  9
$TREEDEPTH
 70
      3020
  9
$CMLSTYLE
  2
Standard
  9
$CMLJUST
 70
         0
  9
$CMLSCALE
 40
1.0
  9
$PROXYGRAPHICS
 70
         0
  9
$MEASUREMENT
 70
         0
  9
$CELWEIGHT
370
         0
  9
$ENDCAPS
280
         0
  9
$JOINSTYLE
280
         0
  9
$LWDISPLAY
290
         0
  9
$INSUNITS
 70
         0
  9
$HYPERLINKBASE
  1

  9
$STYLESHEET
  1

  9
$XEDIT
290
         1
  9
$CEPSNTYPE
380
         0
  9
$PSTYLEMODE
290
         1
  9
$FINGERPRINTGUID
  2

  9
$VERSIONGUID
  2

  9
$EXTNAMES
290
         1
  9
$PSVPSCALE
 40
0.0
  0
ENDSEC
  0
SECTION
  2
CLASSES
  0
CLASS
  1
LWPOLYLINE
  2
AcDbPolyline
  3
AutoCAD 2000
 90
        0
280
         0
281
         1
  0
CLASS
  1
IMAGE
  2
AcDbRasterImage
  3
ISM
 90
      127
280
         0
281
         1
  0
CLASS
  1
OLE2FRAME
  2
AcDbOle2Frame
  3
AutoCAD 2000
 90
        0
280
         0
281
         1
  0
CLASS
  1
HATCH
  2
AcDbHatch
  3
AutoCAD 2000
 90
        0
280
         0
281
         1
  0
CLASS
  1
DICTIONARYVAR
  2
AcDbDictionaryVar
  3
AutoCAD 2000
 90
        0
280
         0
281
         0
  0
CLASS
  1
RASTERVARIABLES
  2
AcDbRasterVariables
  3
ISM
 90
        0
280
         0
281
         0
  0
CLASS
  1
IMAGEDEF
  2
AcDbRasterImageDef
  3
ISM
 90
        0
280
         0
281
         0
  0
CLASS
  1
IMAGEDEF_REACTOR
  2
AcDbRasterImageDefReactor
  3
ISM
 90
        1
280
         0
281
         0
  0
CLASS
  1
IDBUFFER
  2
AcDbIdBuffer
  3
AutoCAD 2000
 90
        0
280
         0
281
         0
  0
CLASS
  1
SPATIAL_FILTER
  2
AcDbSpatialFilter
  3
AutoCAD 2000
 90
        0
280
         0
281
         0
  0
CLASS
  1
XRECORD
  2
AcDbXrecord
  3
AutoCAD 2000
 90
        0
280
         0
281
         0
  0
CLASS
  1
SORTENTSTABLE
  2
AcDbSortentsTable
  3
AutoCAD 2000
 90
        0
280
         0
281
         0
  0
CLASS
  1
LAYER_INDEX
  2
AcDbLayerIndex
  3
AutoCAD 2000
 90
        0
280
         0
281
         0
  0
CLASS
  1
SPATIAL_INDEX
  2
AcDbSpatialIndex
  3
AutoCAD 2000
 90
        0
280
         0
281
         0
  0
CLASS
  1
OBJECT_PTR
  2
CAseDLPNTableRecord
  3
"ASE-LPNTableRecord"
 90
        1
280
         0
281
         0
  0
CLASS
  1
LAYOUT
  2
AcDbLayout
  3
AutoCAD 2000
 90
        0
280
         0
281
         0
  0
CLASS
  1
PLOTSETTINGS
  2
AcDbPlotSettings
  3
AutoCAD 2000
 90
        0
280
         0
281
         0
  0
CLASS
  1
ACDBDICTIONARYWDFLT
  2
AcDbDictionaryWithDefault
  3
AutoCAD 2000
 90
        0
280
         0
281
         0
  0
CLASS
  1
ACDBPLACEHOLDER
  2
AcDbPlaceHolder
  3
AutoCAD 2000
 90
        0
280
         0
281
         0
  0
CLASS
  1
VBA_PROJECT
  2
AcDbVbaProject
  3
acadvba
 90
        0
280
         0
281
         0
  0
CLASS
  1
WIPEOUT
  2
AcDbWipeout
  3
WipeOut|AutoCAD Express Tool|expresstools@autodesk.com
 90
      127
280
         0
281
         1
  0
CLASS
  1
WIPEOUTVARIABLES
  2
AcDbWipeoutVariables
  3
WipeOut|AutoCAD Express Tool|expresstools@autodesk.com
 90
        0
280
         0
281
         0
  0
CLASS
  1
RTEXT
  2
RText
  3
RText|AutoCAD Express Tool|expresstools@autodesk.com
 90
        0
280
         0
281
         1
  0
CLASS
  1
ARCALIGNEDTEXT
  2
AcDbArcAlignedText
  3
ATEXT|AutoCAD Express Tool|expresstools@autodesk.com
 90
        0
280
         0
281
         1
  0
ENDSEC
  0
SECTION
  2
TABLES
  0
TABLE
  2
VPORT
  5
7
100
AcDbSymbolTable
 70
         1
  0
VPORT
  5
15
100
AcDbSymbolTableRecord
100
AcDbViewportTableRecord
  2
*ACTIVE
 70
         0
 10
0.0
 20
0.0
 11
1.0
 21
1.0
 12
105.0
 22
148.5
 13
0.0
 23
0.0
 14
1.0
 24
1.0
 15
0.0
 25
0.0
 16
0.0
 26
0.0
 36
1.0
 17
0.0
 27
0.0
 37
0.0
 40
297.0
 41
1.604229
 42
50.0
 43
0.0
 44
0.0
 50
0.0
 51
0.0
 71
         0
 72
       100
 73
         1
 74
         1
 75
         0
 76
         0
 77
         0
 78
         0
281
         0
 65
         0
110
0.0
120
0.0
130
0.0
111
1.0
121
0.0
131
0.0
112
0.0
122
1.0
132
0.0
345
0
346
0
 79
         0
146
0.0
  0
ENDTAB
  0
TABLE
  2
LTYPE
  5
4
100
AcDbSymbolTable
 70
         7
  0
LTYPE
  5
11
100
AcDbSymbolTableRecord
100
AcDbLinetypeTableRecord
  2
ByBlock
 70
        64
  3

 72
        65
 73
         0
 40
0.0
  0
LTYPE
  5
12
100
AcDbSymbolTableRecord
100
AcDbLinetypeTableRecord
  2
ByLayer
 70
        64
  3

 72
        65
 73
         0
 40
0.0
  0
LTYPE
  5
13
100
AcDbSymbolTableRecord
100
AcDbLinetypeTableRecord
  2
CONTINUOUS
 70
         0
  3
Solid line
 72
        65
 73
         0
 40
0.0
  0
LTYPE
  5
28
100
AcDbSymbolTableRecord
100
AcDbLinetypeTableRecord
  2
HIDDEN2
 70
        64
  3
_ _ _ _ _ _ _ _ _ _ _ _ _ _ _ _ _ _ _ _ _ _ _ _
 72
        65
 73
         2
 40
0.1875
 49
0.125
 74
         0
 49
-0.0625
 74
         0
  0
LTYPE
  5
29
100
AcDbSymbolTableRecord
100
AcDbLinetypeTableRecord
  2
CENTER2
 70
        64
  3
___ _ ___ _ ___ _ ___ _ ___ _ ___ _ ___ _ ___ _
 72
        65
 73
         4
 40
1.125
 49
0.75
 74
         0
 49
-0.125
 74
         0
 49
0.125
 74
         0
 49
-0.125
 74
         0
  0
LTYPE
  5
2A
100
AcDbSymbolTableRecord
100
AcDbLinetypeTableRecord
  2
PHANTOM2
 70
        64
  3
___ _ _ ___ _ _ ___ _ _ ___ _ _ ___ _ _ ___ _ _
 72
        65
 73
         6
 40
1.25
 49
0.625
 74
         0
 49
-0.125
 74
         0
 49
0.125
 74
         0
 49
-0.125
 74
         0
 49
0.125
 74
         0
 49
-0.125
 74
         0
  0
LTYPE
  5
2B
100
AcDbSymbolTableRecord
100
AcDbLinetypeTableRecord
  2
DOT2
 70
        64
  3
...............................................
 72
        65
 73
         2
 40
0.125
 49
0.0
 74
         0
 49
-0.125
 74
         0
  0
ENDTAB
  0
TABLE
  2
LAYER
  5
2
100
AcDbSymbolTable
 70
        16
  0
LAYER
  5
14
100
AcDbSymbolTableRecord
100
AcDbLayerTableRecord
  2
0
 70
         0
 62
         7
  6
CONTINUOUS
290
         1
370
        -3
390
0
  0
LAYER
  5
2D
100
AcDbSymbolTableRecord
100
AcDbLayerTableRecord
  2
__ﾏ_ｷ
 70
         0
 62
        -1
  6
CONTINUOUS
290
         1
370
        -3
390
0
  0
LAYER
  5
2F
100
AcDbSymbolTableRecord
100
AcDbLayerTableRecord
  2
DEFAULT
 70
         0
 62
         7
  6
CONTINUOUS
290
         1
370
        -3
390
0
  0
LAYER
  5
31
100
AcDbSymbolTableRecord
100
AcDbLayerTableRecord
  2
MDS_LAYER_11
 70
         0
 62
         7
  6
CONTINUOUS
290
         1
370
        -3
390
0
  0
LAYER
  5
33
100
AcDbSymbolTableRecord
100
AcDbLayerTableRecord
  2
MDS_LAYER_12
 70
         0
 62
         7
  6
CONTINUOUS
290
         1
370
        -3
390
0
  0
LAYER
  5
35
100
AcDbSymbolTableRecord
100
AcDbLayerTableRecord
  2
MDS_LAYER_4
 70
         0
 62
         7
  6
CONTINUOUS
290
         1
370
        -3
390
0
  0
LAYER
  5
37
100
AcDbSymbolTableRecord
100
AcDbLayerTableRecord
  2
MDS_LAYER_6
 70
         0
 62
         7
  6
CONTINUOUS
290
         1
370
        -3
390
0
  0
LAYER
  5
39
100
AcDbSymbolTableRecord
100
AcDbLayerTableRecord
  2
MDS_LAYER_90
 70
         0
 62
         7
  6
CONTINUOUS
290
         1
370
        -3
390
0
  0
LAYER
  5
3B
100
AcDbSymbolTableRecord
100
AcDbLayerTableRecord
  2
MDS_LAYER_92
 70
         0
 62
         7
  6
CONTINUOUS
290
         1
370
        -3
390
0
  0
LAYER
  5
3D
100
AcDbSymbolTableRecord
100
AcDbLayerTableRecord
  2
MDS_LAYER_94
 70
         0
 62
         7
  6
CONTINUOUS
290
         1
370
        -3
390
0
  0
LAYER
  5
3F
100
AcDbSymbolTableRecord
100
AcDbLayerTableRecord
  2
STANDARD
 70
         0
 62
         7
  6
CONTINUOUS
290
         1
370
        -3
390
0
  0
LAYER
  5
41
100
AcDbSymbolTableRecord
100
AcDbLayerTableRecord
  2
ﾃ_ﾌｫﾙﾄ
 70
         0
 62
         7
  6
CONTINUOUS
290
         1
370
        -3
390
0
  0
LAYER
  5
43
100
AcDbSymbolTableRecord
100
AcDbLayerTableRecord
  2
_F_T_H___G
 70
         0
 62
         7
  6
CONTINUOUS
290
         1
370
        -3
390
0
  0
LAYER
  5
45
100
AcDbSymbolTableRecord
100
AcDbLayerTableRecord
  2
MDS_LAYER_0
 70
         0
 62
         7
  6
CONTINUOUS
290
         1
370
        -3
390
0
  0
LAYER
  5
47
100
AcDbSymbolTableRecord
100
AcDbLayerTableRecord
  2
AUTO_-_HIDE
 70
         0
 62
         7
  6
CONTINUOUS
290
         1
370
        -3
390
0
  0
LAYER
  5
12B
100
AcDbSymbolTableRecord
100
AcDbLayerTableRecord
  2
DV1__F_T_H___G
 70
         0
 62
         7
  6
CONTINUOUS
290
         1
370
        -3
390
0
  0
ENDTAB
  0
TABLE
  2
STYLE
  5
3
100
AcDbSymbolTable
 70
         4
  0
STYLE
  5
17
100
AcDbSymbolTableRecord
100
AcDbTextStyleTableRecord
  2
Standard
 70
         0
 40
0.0
 41
1.0
 50
0.0
 71
         0
 42
0.2
  3
txt
  4

  0
STYLE
  5
11A
100
AcDbSymbolTableRecord
100
AcDbTextStyleTableRecord
  2
seiso_ttf
 70
         0
 40
0.0
 41
1.0
 50
0.0
 71
         0
 42
0.2
  3
seiso.ttf
  4

1001
ACAD
1000
Solid Edge ISO
1071
        2
  0
STYLE
  5
122
100
AcDbSymbolTableRecord
100
AcDbTextStyleTableRecord
  2
arial_ttf
 70
         0
 40
0.0
 41
1.0
 50
0.0
 71
         0
 42
0.2
  3
arial.ttf
  4

1001
ACAD
1000
Arial
1071
    32770
  0
STYLE
  5
13C
100
AcDbSymbolTableRecord
100
AcDbTextStyleTableRecord
  2
semeca1_ttf
 70
         0
 40
0.0
 41
1.0
 50
0.0
 71
         0
 42
0.2
  3
semeca1.ttf
  4

1001
ACAD
1000
Solid Edge ANSI1 Symbols
1071
        2
  0
ENDTAB
  0
TABLE
  2
VIEW
  5
5
100
AcDbSymbolTable
 70
         0
  0
ENDTAB
  0
TABLE
  2
UCS
  5
6
100
AcDbSymbolTable
 70
         0
  0
ENDTAB
  0
TABLE
  2
APPID
  5
8
100
AcDbSymbolTable
 70
         1
  0
APPID
  5
16
100
AcDbSymbolTableRecord
100
AcDbRegAppTableRecord
  2
ACAD
 70
         0
  0
ENDTAB
  0
TABLE
  2
DIMSTYLE
  5
9
100
AcDbSymbolTable
 70
         1
100
AcDbDimStyleTable
 71
         0
  0
DIMSTYLE
105
18
100
AcDbSymbolTableRecord
100
AcDbDimStyleTableRecord
  2
Standard
 70
         0
  3

  4

 40
1.0
 41
0.18
 42
0.0625
 43
0.38
 44
0.18
 45
0.0
 46
0.0
 47
0.0
 48
0.0
 71
         0
 72
         0
 73
         1
 74
         1
 75
         0
 76
         0
 77
         0
 78
         0
 79
         0
140
0.18
141
0.09
142
0.0
143
25.4
144
1.0
145
0.0
146
1.0
147
0.09
148
0.0
170
         0
171
         2
172
         0
173
         0
174
         0
175
         0
176
         0
177
         0
178
         0
179
         0
271
         4
272
         4
273
         2
274
         2
275
         0
276
         0
277
         2
278
        46
279
         0
280
         0
281
         0
282
         0
283
         1
284
         0
285
         0
286
         0
288
         0
289
         0
340
17
341
0
342
0
343
0
344
0
371
        -2
372
        -2
  0
ENDTAB
  0
TABLE
  2
BLOCK_RECORD
  5
1
100
AcDbSymbolTable
 70
         6
  0
BLOCK_RECORD
  5
A
100
AcDbSymbolTableRecord
100
AcDbBlockTableRecord
  2
*MODEL_SPACE
340
20
  0
BLOCK_RECORD
  5
B
100
AcDbSymbolTableRecord
100
AcDbBlockTableRecord
  2
*PAPER_SPACE
340
21
  0
BLOCK_RECORD
  5
124
100
AcDbSymbolTableRecord
100
AcDbBlockTableRecord
  2
SE0
340
0
102
{BLKREFS
331
126
102
}
  0
BLOCK_RECORD
  5
129
100
AcDbSymbolTableRecord
100
AcDbBlockTableRecord
  2
SE1
340
0
102
{BLKREFS
331
130
102
}
  0
BLOCK_RECORD
  5
12A
100
AcDbSymbolTableRecord
100
AcDbBlockTableRecord
  2
SE2
340
0
102
{BLKREFS
331
12C
102
}
  0
BLOCK_RECORD
  5
131
100
AcDbSymbolTableRecord
100
AcDbBlockTableRecord
  2
SE3
340
0
102
{BLKREFS
331
134
102
}
  0
BLOCK_RECORD
  5
135
100
AcDbSymbolTableRecord
100
AcDbBlockTableRecord
  2
SE4
340
0
102
{BLKREFS
331
138
102
}
  0
BLOCK_RECORD
  5
139
100
AcDbSymbolTableRecord
100
AcDbBlockTableRecord
  2
SE5
340
0
102
{BLKREFS
331
13D
102
}
  0
ENDTAB
  0
ENDSEC
  0
SECTION
  2
BLOCKS
  0
BLOCK
  5
D
100
AcDbEntity
  8
0
390
0
100
AcDbBlockBegin
  2
*MODEL_SPACE
 70
         0
 10
0.0
 20
0.0
 30
0.0
  3
*MODEL_SPACE
  1

  0
ENDBLK
  5
E
100
AcDbEntity
  8
0
390
0
100
AcDbBlockEnd
  0
BLOCK
  5
F
100
AcDbEntity
 67
         1
  8
0
390
0
100
AcDbBlockBegin
  2
*PAPER_SPACE
 70
         0
 10
0.0
 20
0.0
 30
0.0
  3
*PAPER_SPACE
  1

  0
ENDBLK
  5
10
100
AcDbEntity
 67
         1
  8
0
390
0
100
AcDbBlockEnd
  0
BLOCK
  5
17D
100
AcDbEntity
  8
DEFAULT
370
         0
390
0
 62
         1
 48
0.0
100
AcDbBlockBegin
  2
SE0
 70
         0
 10
0.0
 20
0.0
 30
0.0
  3
SE0
  1

  0
LWPOLYLINE
  5
17E
100
AcDbEntity
  8
DEFAULT
370
         0
390
0
  6
CONTINUOUS
 62
       136
100
AcDbPolyline
 90
        2
 70
         0
 10
172.7581404707
 20
161.8989255155
 40
0.0
 41
0.0
 10
156.4067678458
 20
177.8814791591
 40
0.0
 41
0.0
  0
HATCH
  5
17F
100
AcDbEntity
  8
DEFAULT
390
0
  6
CONTINUOUS
 62
       136
100
AcDbHatch
 10
0.0
 20
0.0
 30
0.0
210
0.0
220
0.0
230
1.0
  2
SOLID
 70
         1
 71
         1
 91
        1
 92
        1
 93
        3
 72
         1
 10
167.76838926413501
 20
165.37777353459987
 11
172.75814047067891
 21
161.89892551549542
 72
         1
 10
172.75814047067891
 20
161.89892551549542
 11
169.16638057879285
 21
166.80802538433821
 72
         1
 10
169.16638057879285
 20
166.80802538433821
 11
167.76838926413501
 21
165.37777353459987
 97
        0
 75
         0
 76
         1
 98
        1
 10
0.0
 20
0.0
  0
LINE
  5
180
100
AcDbEntity
  8
DEFAULT
370
         0
390
0
  6
CONTINUOUS
 62
       136
100
AcDbLine
 10
156.4067678458
 20
177.8814791591
 30
0.0
 11
123.2763330632
 21
177.8814791591
 31
0.0
  0
TEXT
  5
181
100
AcDbEntity
  8
0
370
         0
390
0
  6
CONTINUOUS
 62
       136
100
AcDbText
 10
123.2763330632
 20
179.3814791591
 30
0.0
 40
6.0
  1
1250mm
  7
arial_ttf
 11
123.2763330632
 21
185.3814791591
 31
0.0
100
AcDbText
 73
         3
  0
ENDBLK
  5
182
100
AcDbEntity
  8
0
370
         0
390
0
  6
CONTINUOUS
 62
       136
100
AcDbBlockEnd
  0
BLOCK
  5
23E
100
AcDbEntity
  8
DEFAULT
370
         0
390
0
 62
         1
 48
0.0
100
AcDbBlockBegin
  2
SE1
 70
         0
 10
0.0
 20
0.0
 30
0.0
  3
SE1
  1

  0
ENDBLK
  5
23F
100
AcDbEntity
  8
DEFAULT
370
         0
390
0
 62
         1
 48
0.0
100
AcDbBlockEnd
  0
BLOCK
  5
183
100
AcDbEntity
  8
DEFAULT
370
         0
390
0
 62
         1
 48
0.0
100
AcDbBlockBegin
  2
SE2
 70
         0
 10
0.0
 20
0.0
 30
0.0
  3
SE2
  1

  0
LINE
  5
184
100
AcDbEntity
  8
DV1__F_T_H___G
370
         0
390
0
  6
CONTINUOUS
 62
         7
100
AcDbLine
 10
187.9553303151
 20
130.2732025211
 30
0.0
 11
187.9553303151
 21
132.9941999206
 31
0.0
  0
LINE
  5
185
100
AcDbEntity
  8
DV1__F_T_H___G
370
         0
390
0
  6
CONTINUOUS
 62
         7
100
AcDbLine
 10
22.7579803436
 20
128.1240149138
 30
0.0
 11
22.7579803436
 21
127.1232684861
 31
0.0
  0
LINE
  5
186
100
AcDbEntity
  8
DV1__F_T_H___G
370
         0
390
0
  6
CONTINUOUS
 62
         7
100
AcDbLine
 10
173.5589757877
 20
148.4212669608
 30
0.0
 11
173.5589757877
 21
145.8536403177
 31
0.0
  0
LINE
  5
187
100
AcDbEntity
  8
DV1__F_T_H___G
370
         0
390
0
  6
CONTINUOUS
 62
         7
100
AcDbLine
 10
38.753758249
 20
140.1216105956
 30
0.0
 11
38.753758249
 21
143.1216105956
 31
0.0
  0
LINE
  5
188
100
AcDbEntity
  8
DV1__F_T_H___G
370
         0
390
0
  6
CONTINUOUS
 62
         7
100
AcDbLine
 10
187.9535639532
 20
154.2718135504
 30
0.0
 11
187.9535639532
 21
156.9929551125
 31
0.0
  0
LINE
  5
189
100
AcDbEntity
  8
DV1__F_T_H___G
370
         0
390
0
  6
CONTINUOUS
 62
         7
100
AcDbLine
 10
173.5580856893
 20
160.4218743399
 30
0.0
 11
173.5580856893
 21
157.8511558248
 31
0.0
  0
LINE
  5
18A
100
AcDbEntity
  8
DV1__F_T_H___G
370
         0
390
0
  6
CONTINUOUS
 62
         7
100
AcDbLine
 10
38.7529806573
 20
128.1221140862
 30
0.0
 11
38.7529806573
 21
131.1221140862
 31
0.0
  0
LINE
  5
18B
100
AcDbEntity
  8
DV1__F_T_H___G
370
         0
390
0
  6
CONTINUOUS
 62
         7
100
AcDbLine
 10
187.9543319811
 20
142.2674627897
 30
0.0
 11
187.9543319811
 21
144.9934491213
 31
0.0
  0
LINE
  5
18C
100
AcDbEntity
  8
DV1__F_T_H___G
370
         0
390
0
  6
CONTINUOUS
 62
         7
100
AcDbLine
 10
187.956368464
 20
118.2704512911
 30
0.0
 11
187.956368464
 21
120.9937081743
 31
0.0
  0
LINE
  5
18D
100
AcDbEntity
  8
DV1__F_T_H___G
370
         0
390
0
  6
CONTINUOUS
 62
         7
100
AcDbLine
 10
22.7588926666
 20
140.1251248445
 30
0.0
 11
22.7588926666
 21
137.1251248445
 31
0.0
  0
LINE
  5
18E
100
AcDbEntity
  8
DV1__F_T_H___G
370
         0
390
0
  6
CONTINUOUS
 62
         7
100
AcDbLine
 10
187.9572162112
 20
106.2726096674
 30
0.0
 11
187.9572162112
 21
108.9955323944
 31
0.0
  0
LINE
  5
18F
100
AcDbEntity
  8
DV1__F_T_H___G
370
         0
390
0
  6
CONTINUOUS
 62
         7
100
AcDbLine
 10
22.7600403704
 20
152.1258164295
 30
0.0
 11
22.7600403704
 21
149.1258164295
 31
0.0
  0
LINE
  5
190
100
AcDbEntity
  8
DV1__F_T_H___G
370
         0
390
0
  6
CONTINUOUS
 62
         7
100
AcDbLine
 10
172.7625688286
 20
103.4228415972
 30
0.0
 11
172.7625688286
 21
100.4228415972
 31
0.0
  0
LINE
  5
191
100
AcDbEntity
  8
DV1__F_T_H___G
370
         0
390
0
  6
CONTINUOUS
 62
         7
100
AcDbLine
 10
37.9546013656
 20
149.1210583116
 30
0.0
 11
37.9546013656
 21
151.6947951643
 31
0.0
  0
LINE
  5
192
100
AcDbEntity
  8
DV1__F_T_H___G
370
         0
390
0
  6
CONTINUOUS
 62
         7
100
AcDbLine
 10
172.7621786872
 20
115.4219024084
 30
0.0
 11
172.7621786872
 21
112.4219024084
 31
0.0
  0
LINE
  5
193
100
AcDbEntity
  8
DV1__F_T_H___G
370
         0
390
0
  6
CONTINUOUS
 62
         7
100
AcDbLine
 10
37.9537514144
 20
137.1216318161
 30
0.0
 11
37.9537514144
 21
139.6931349891
 31
0.0
  0
LINE
  5
194
100
AcDbEntity
  8
DV1__F_T_H___G
370
         0
390
0
  6
CONTINUOUS
 62
         7
100
AcDbLine
 10
172.7613745077
 20
127.4212484146
 30
0.0
 11
172.7613745077
 21
124.4212484146
 31
0.0
  0
LINE
  5
195
100
AcDbEntity
  8
DV1__F_T_H___G
370
         0
390
0
  6
CONTINUOUS
 62
         7
100
AcDbLine
 10
172.7602920078
 20
139.4212438436
 30
0.0
 11
172.7602920078
 21
136.4212438436
 31
0.0
  0
LINE
  5
196
100
AcDbEntity
  8
DV1__F_T_H___G
370
         0
390
0
  6
CONTINUOUS
 62
         7
100
AcDbLine
 10
23.5592707105
 20
149.2764593167
 30
0.0
 11
23.5592707105
 21
146.5525633367
 31
0.0
  0
LINE
  5
197
100
AcDbEntity
  8
DV1__F_T_H___G
370
         0
390
0
  6
CONTINUOUS
 62
         7
100
AcDbLine
 10
188.7539693859
 20
145.4254508061
 30
0.0
 11
188.7539693859
 21
148.4254508061
 31
0.0
  0
LINE
  5
198
100
AcDbEntity
  8
DV1__F_T_H___G
370
         0
390
0
  6
CONTINUOUS
 62
         7
100
AcDbLine
 10
172.759129981
 20
151.4215405414
 30
0.0
 11
172.759129981
 21
148.4215405414
 31
0.0
  0
LINE
  5
199
100
AcDbEntity
  8
DV1__F_T_H___G
370
         0
390
0
  6
CONTINUOUS
 62
         7
100
AcDbLine
 10
23.5583083623
 20
137.2775148504
 30
0.0
 11
23.5583083623
 21
134.5506743262
 31
0.0
  0
LINE
  5
19A
100
AcDbEntity
  8
DV1__F_T_H___G
370
         0
390
0
  6
CONTINUOUS
 62
         7
100
AcDbLine
 10
188.7531153827
 20
157.4247854807
 30
0.0
 11
188.7531153827
 21
160.4247854807
 31
0.0
  0
LINE
  5
19B
100
AcDbEntity
  8
DV1__F_T_H___G
370
         0
390
0
  6
CONTINUOUS
 62
         7
100
AcDbLine
 10
172.7581404707
 20
163.4220874539
 30
0.0
 11
172.7581404707
 21
160.4220874539
 31
0.0
  0
LINE
  5
19C
100
AcDbEntity
  8
DV1__F_T_H___G
370
         0
390
0
  6
CONTINUOUS
 62
         7
100
AcDbLine
 10
173.5619481503
 20
106.4223811075
 30
0.0
 11
173.5619481503
 21
103.8549389737
 31
0.0
  0
LINE
  5
19D
100
AcDbEntity
  8
DV1__F_T_H___G
370
         0
390
0
  6
CONTINUOUS
 62
         7
100
AcDbLine
 10
188.7550771738
 20
133.4253935188
 30
0.0
 11
188.7550771738
 21
136.4253935188
 31
0.0
  0
SPLINE
  5
19E
100
AcDbEntity
  8
DV1__F_T_H___G
370
         0
390
0
  6
CONTINUOUS
 62
         7
100
AcDbSpline
210
0.0
220
0.0
230
1.0
 70
         8
 71
         3
 72
        20
 73
        16
 74
         0
 42
0.0
 43
0.0
 40
0.0
 40
0.0
 40
0.0
 40
0.0
 40
0.0147122720287422
 40
0.0147122720287422
 40
0.2098963628116255
 40
0.2098963628116255
 40
0.4050804535945069
 40
0.4050804535945069
 40
0.6002645443773896
 40
0.6002645443773896
 40
0.7954486351602716
 40
0.7954486351602716
 40
0.9906327259431538
 40
0.9906327259431538
 40
1.0
 40
1.0
 40
1.0
 40
1.0
 10
22.757980288979741
 20
128.12402258637013
 30
0.0
 10
22.757861175999594
 20
128.14084439034278
 30
0.0
 10
22.761550792333747
 20
128.15766619431545
 30
0.0
 10
22.869339219988959
 20
128.39765872999544
 30
0.0
 10
23.649155746313046
 20
128.62082946170275
 30
0.0
 10
26.210944258786895
 20
129.06717092511738
 30
0.0
 10
27.982838582531421
 20
129.29034165682472
 30
0.0
 10
31.69742877067258
 20
129.73668312023935
 30
0.0
 10
33.625512036992639
 20
129.95985385194666
 30
0.0
 10
36.740550785282558
 20
130.40619531536129
 30
0.0
 10
37.915252207742128
 20
130.62936604706863
 30
0.0
 10
38.961224016744666
 20
131.07570751048326
 30
0.0
 10
38.828379719063982
 20
131.29887824219054
 30
0.0
 10
38.033723555953721
 20
131.53275938270724
 30
0.0
 10
37.995906132528468
 20
131.54346979151663
 30
0.0
 10
37.956696819781932
 20
131.55418020032596
 30
0.0
  0
SPLINE
  5
19F
100
AcDbEntity
  8
DV1__F_T_H___G
370
         0
390
0
  6
CONTINUOUS
 62
         7
100
AcDbSpline
210
0.0
220
0.0
230
1.0
 70
         8
 71
         3
 72
        20
 73
        16
 74
         0
 42
0.0
 43
0.0
 40
0.0
 40
0.0
 40
0.0
 40
0.0
 40
0.0218736732587529
 40
0.0218736732587529
 40
0.217147432195722
 40
0.217147432195722
 40
0.4124211911326937
 40
0.4124211911326937
 40
0.6076949500696641
 40
0.6076949500696641
 40
0.8029687090066345
 40
0.8029687090066345
 40
0.9982424679436055
 40
0.9982424679436055
 40
1.0
 40
1.0
 40
1.0
 40
1.0
 10
22.758387142444882
 20
134.12510206075757
 30
0.0
 10
22.758340661110655
 20
134.15010062530027
 30
0.0
 10
22.766648011015576
 20
134.17509918984297
 30
0.0
 10
22.933739116072022
 20
134.42326848609298
 30
0.0
 10
23.76216187804847
 20
134.64643921780032
 30
0.0
 10
26.396069721377589
 20
135.09278068121495
 30
0.0
 10
28.1911934345212
 20
135.31595141292226
 30
0.0
 10
31.915947102299143
 20
135.76229287633689
 30
0.0
 10
33.830924477368917
 20
135.98546360804423
 30
0.0
 10
36.889376245707403
 20
136.43180507145885
 30
0.0
 10
38.020819183508955
 20
136.65497580316617
 30
0.0
 10
38.970148387554751
 20
137.10131726658082
 30
0.0
 10
38.784300145980232
 20
137.32448799828811
 30
0.0
 10
37.97324640127642
 20
137.5496673445536
 30
0.0
 10
37.965962201378531
 20
137.55167595911175
 30
0.0
 10
37.958628690485369
 20
137.55368457366987
 30
0.0
  0
SPLINE
  5
1A0
100
AcDbEntity
  8
DV1__F_T_H___G
370
         0
390
0
  6
CONTINUOUS
 62
         7
100
AcDbSpline
210
0.0
220
0.0
230
1.0
 70
         8
 71
         3
 72
        18
 73
        14
 74
         0
 42
0.0
 43
0.0
 40
0.0
 40
0.0
 40
0.0
 40
0.0
 40
0.0293517748406857
 40
0.0293517748406857
 40
0.2246893754768011
 40
0.2246893754768011
 40
0.4200269761129165
 40
0.4200269761129165
 40
0.6153645767490306
 40
0.6153645767490306
 40
0.8107021773851446
 40
0.8107021773851446
 40
0.9999999999999999
 40
0.9999999999999999
 40
0.9999999999999999
 40
0.9999999999999999
 10
22.758892756950864
 20
140.12510541882082
 30
0.0
 10
22.758733921142639
 20
140.15863944937496
 30
0.0
 10
22.773508588201874
 20
140.1921734799291
 30
0.0
 10
23.003765835365897
 20
140.44887824219055
 30
0.0
 10
23.880199041754146
 20
140.67204897389789
 30
0.0
 10
26.584331942514972
 20
141.11839043731251
 30
0.0
 10
28.401394014640381
 20
141.34156116901983
 30
0.0
 10
32.133632366021928
 20
141.78790263243445
 30
0.0
 10
34.034126622176586
 20
142.01107336414179
 30
0.0
 10
37.033791810483898
 20
142.45741482755642
 30
0.0
 10
38.121162544084115
 20
142.6805855592637
 30
0.0
 10
38.959994550102905
 20
143.12002665287775
 30
0.0
 10
38.748574586484622
 20
143.33629701478446
 30
0.0
 10
37.962635307123541
 20
143.55256737669114
 30
0.0
  0
SPLINE
  5
1A1
100
AcDbEntity
  8
DV1__F_T_H___G
370
         0
390
0
  6
CONTINUOUS
 62
         7
100
AcDbSpline
210
0.0
220
0.0
230
1.0
 70
         8
 71
         3
 72
        18
 73
        14
 74
         0
 42
0.0
 43
0.0
 40
0.0
 40
0.0
 40
0.0
 40
0.0
 40
0.0367208966517774
 40
0.0367208966517774
 40
0.2320627953392488
 40
0.2320627953392488
 40
0.4274046940267227
 40
0.4274046940267227
 40
0.6227465927141954
 40
0.6227465927141954
 40
0.8180884914016642
 40
0.8180884914016642
 40
1.0
 40
1.0
 40
1.0
 40
1.0
 10
22.75945469237195
 20
146.12546055949767
 30
0.0
 10
22.759324950007155
 20
146.16741279519201
 30
0.0
 10
22.782429668233821
 20
146.2093650308864
 30
0.0
 10
23.079369015534034
 20
146.47448799828814
 30
0.0
 10
24.003182346585106
 20
146.69765872999545
 30
0.0
 10
26.775595526375124
 20
147.14400019341011
 30
0.0
 10
28.613289149273079
 20
147.36717092511736
 30
0.0
 10
32.350328005334688
 20
147.81351238853202
 30
0.0
 10
34.23497233098653
 20
148.03668312023933
 30
0.0
 10
37.173693617752576
 20
148.48302458365396
 30
0.0
 10
38.216210123783554
 20
148.70619531536127
 30
0.0
 10
38.944353641178417
 20
149.13719306601664
 30
0.0
 10
38.715770728528874
 20
149.34502008496472
 30
0.0
 10
37.961366964377092
 20
149.5528471039128
 30
0.0
  0
SPLINE
  5
1A2
100
AcDbEntity
  8
DV1__F_T_H___G
370
         0
390
0
  6
CONTINUOUS
 62
         7
100
AcDbSpline
210
0.0
220
0.0
230
1.0
 70
         8
 71
         3
 72
        18
 73
        14
 74
         0
 42
0.0
 43
0.0
 40
0.0
 40
0.0
 40
0.0
 40
0.0
 40
0.0440859524534965
 40
0.0440859524534965
 40
0.2393666612383502
 40
0.2393666612383502
 40
0.4346473700232
 40
0.4346473700232
 40
0.6299280788080562
 40
0.6299280788080562
 40
0.8252087875929087
 40
0.8252087875929087
 40
1.0
 40
1.0
 40
1.0
 40
1.0
 10
22.760040383059842
 20
152.12578007639343
 30
0.0
 10
22.760014781104289
 20
152.17616239182175
 30
0.0
 10
22.793322156894835
 20
152.22654470725004
 30
0.0
 10
23.160494283719245
 20
152.50009775438568
 30
0.0
 10
24.131023344494018
 20
152.72326848609299
 30
0.0
 10
26.969722918592009
 20
153.16960994950762
 30
0.0
 10
28.826726446101027
 20
153.39278068121493
 30
0.0
 10
32.565878175456476
 20
153.83912214462958
 30
0.0
 10
34.433317158088684
 20
154.06229287633687
 30
0.0
 10
37.308981051891607
 20
154.50863433975155
 30
0.0
 10
38.305893565582366
 20
154.73180507145884
 30
0.0
 10
38.927085813853957
 20
155.15473072525566
 30
0.0
 10
38.682345629137181
 20
155.35448564734517
 30
0.0
 10
37.955917775301302
 20
155.55424056943465
 30
0.0
  0
SPLINE
  5
1A3
100
AcDbEntity
  8
DV1__F_T_H___G
370
         0
390
0
  6
CONTINUOUS
 62
         7
100
AcDbSpline
210
0.0
220
0.0
230
1.0
 70
         8
 71
         3
 72
        18
 73
        14
 74
         0
 42
0.0
 43
0.0
 40
0.0
 40
0.0
 40
0.0
 40
0.0
 40
0.0517210735297886
 40
0.0517210735297886
 40
0.2470853427832308
 40
0.2470853427832308
 40
0.4424496120366731
 40
0.4424496120366731
 40
0.637813881290118
 40
0.637813881290118
 40
0.8331781505435576
 40
0.8331781505435576
 40
1.0
 40
1.0
 40
1.0
 40
1.0
 10
22.760619297613026
 20
158.12528896572741
 30
0.0
 10
22.760390609626313
 20
158.18437157007693
 30
0.0
 10
22.805781328731843
 20
158.24345417442643
 30
0.0
 10
23.247083295648064
 20
158.52570751048322
 30
0.0
 10
24.263630093841581
 20
158.74887824219056
 30
0.0
 10
27.16657450518456
 20
159.19521970560518
 30
0.0
 10
29.041552403702529
 20
159.4183904373125
 30
0.0
 10
32.780127855413689
 20
159.86473190072715
 30
0.0
 10
34.629018456375896
 20
160.08790263243444
 30
0.0
 10
37.439556815878376
 20
160.53424409584909
 30
0.0
 10
38.390148370276087
 20
160.7574148275564
 30
0.0
 10
38.906120157663956
 20
161.1711513897005
 30
0.0
 10
38.651990868679626
 20
161.36171722013731
 30
0.0
 10
37.962537111004998
 20
161.55228305057412
 30
0.0
  0
SPLINE
  5
1A4
100
AcDbEntity
  8
DV1__F_T_H___G
370
         0
390
0
  6
CONTINUOUS
 62
         7
100
AcDbSpline
210
0.0
220
0.0
230
1.0
 70
         8
 71
         3
 72
        18
 73
        14
 74
         0
 42
0.0
 43
0.0
 40
0.0
 40
0.0
 40
0.0
 40
0.0
 40
0.1122950957324229
 40
0.1122950957324229
 40
0.3075919012935903
 40
0.3075919012935903
 40
0.5028887068547576
 40
0.5028887068547576
 40
0.6981855124159302
 40
0.6981855124159302
 40
0.8934823179770977
 40
0.8934823179770977
 40
1.0
 40
1.0
 40
1.0
 40
1.0
 10
188.75283164993252
 20
163.42408971145295
 30
0.0
 10
188.75263908023305
 20
163.29576718917852
 30
0.0
 10
188.53986686673423
 20
163.16744466690409
 30
0.0
 10
187.38698805649935
 20
162.81595141292232
 30
0.0
 10
186.03128229381394
 20
162.59278068121503
 30
0.0
 10
182.69309654769026
 20
162.14643921780041
 30
0.0
 10
180.72374844802442
 20
161.92326848609306
 30
0.0
 10
177.08613755593871
 20
161.47692702267844
 30
0.0
 10
175.43218453747312
 20
161.25375629097113
 30
0.0
 10
173.21118673162155
 20
160.8074148275565
 30
0.0
 10
172.65287899102194
 20
160.58424409584916
 30
0.0
 10
172.84093128606617
 20
160.23935284255668
 30
0.0
 10
173.10929652531664
 20
160.11763232097152
 30
0.0
 10
173.54992027807276
 20
159.99591179938642
 30
0.0
  0
SPLINE
  5
1A5
100
AcDbEntity
  8
DV1__F_T_H___G
370
         0
390
0
  6
CONTINUOUS
 62
         7
100
AcDbSpline
210
0.0
220
0.0
230
1.0
 70
         8
 71
         3
 72
        18
 73
        14
 74
         0
 42
0.0
 43
0.0
 40
0.0
 40
0.0
 40
0.0
 40
0.0
 40
0.1199083731756827
 40
0.1199083731756827
 40
0.3151074657045947
 40
0.3151074657045947
 40
0.5103065582335015
 40
0.5103065582335015
 40
0.7055056507624031
 40
0.7055056507624031
 40
0.9007047432913152
 40
0.9007047432913152
 40
1.0
 40
1.0
 40
1.0
 40
1.0
 10
188.75311538276949
 20
157.42478539753171
 30
0.0
 10
188.75317827104004
 20
157.28769439453183
 30
0.0
 10
188.51016827720792
 20
157.15060339153197
 30
0.0
 10
187.25448314958058
 20
156.79034165682478
 30
0.0
 10
185.86046296157909
 20
156.56717092511747
 30
0.0
 10
182.47829892751005
 20
156.12082946170284
 30
0.0
 10
180.50345996869942
 20
155.8976587299955
 30
0.0
 10
176.89037772192367
 20
155.45131726658087
 30
0.0
 10
175.26634771618234
 20
155.22814653487356
 30
0.0
 10
173.12681413220466
 20
154.78180507145893
 30
0.0
 10
172.61972713365833
 20
154.55863433975162
 30
0.0
 10
172.87872139242373
 20
154.22193953983449
 30
0.0
 10
173.14133405600589
 20
154.10841547162468
 30
0.0
 10
173.55365044628925
 20
153.99489140341487
 30
0.0
  0
SPLINE
  5
1A6
100
AcDbEntity
  8
DV1__F_T_H___G
370
         0
390
0
  6
CONTINUOUS
 62
         7
100
AcDbSpline
210
0.0
220
0.0
230
1.0
 70
         8
 71
         3
 72
        18
 73
        14
 74
         0
 42
0.0
 43
0.0
 40
0.0
 40
0.0
 40
0.0
 40
0.0
 40
0.1273788493222841
 40
0.1273788493222841
 40
0.322536945534096
 40
0.322536945534096
 40
0.5176950417459183
 40
0.5176950417459183
 40
0.7128531379577354
 40
0.7128531379577354
 40
0.9080112341695525
 40
0.9080112341695525
 40
1.0
 40
1.0
 40
1.0
 40
1.0
 10
188.75349965384351
 20
151.42489036021658
 30
0.0
 10
188.75318342373225
 20
151.27922778428922
 30
0.0
 10
188.47775031143391
 20
151.13356520836189
 30
0.0
 10
187.11730576671599
 20
150.76473190072724
 30
0.0
 10
185.68597371520073
 20
150.5415611690199
 30
0.0
 10
182.26226380305999
 20
150.09521970560527
 30
0.0
 10
180.28335426446816
 20
149.87204897389796
 30
0.0
 10
176.69739914635264
 20
149.42570751048333
 30
0.0
 10
175.10446013530824
 20
149.20253677877599
 30
0.0
 10
173.04792949887309
 20
148.7561953153614
 30
0.0
 10
172.5924279329775
 20
148.53302458365405
 30
0.0
 10
172.91837687165884
 20
148.20466118724195
 30
0.0
 10
173.17282868562063
 20
148.09946852253717
 30
0.0
 10
173.55581461785476
 20
147.99427585783241
 30
0.0
  0
SPLINE
  5
1A7
100
AcDbEntity
  8
DV1__F_T_H___G
370
         0
390
0
  6
CONTINUOUS
 62
         7
100
AcDbSpline
210
0.0
220
0.0
230
1.0
 70
         8
 71
         3
 72
        18
 73
        14
 74
         0
 42
0.0
 43
0.0
 40
0.0
 40
0.0
 40
0.0
 40
0.0
 40
0.1350293165093159
 40
0.1350293165093159
 40
0.3302150844454346
 40
0.3302150844454346
 40
0.5254008523815533
 40
0.5254008523815533
 40
0.7205866203176772
 40
0.7205866203176772
 40
0.9157723882537959
 40
0.9157723882537959
 40
1.0
 40
1.0
 40
1.0
 40
1.0
 10
188.75396938736205
 20
145.42546073461833
 30
0.0
 10
188.75395301317184
 20
145.27107144852454
 30
0.0
 10
188.44384121690817
 20
145.11668216243075
 30
0.0
 10
186.97555456415571
 20
144.73912214462968
 30
0.0
 10
185.50794004515208
 20
144.51595141292233
 30
0.0
 10
182.04514654408658
 20
144.06960994950771
 30
0.0
 10
180.06358963258708
 20
143.84643921780039
 30
0.0
 10
176.50734061699222
 20
143.40009775438574
 30
0.0
 10
174.94663822236495
 20
143.17692702267843
 30
0.0
 10
172.97458956446394
 20
142.7305855592638
 30
0.0
 10
172.57100102222151
 20
142.50741482755649
 30
0.0
 10
172.95927587063017
 20
142.18794026211108
 30
0.0
 10
173.20158284343484
 20
142.09163642837302
 30
0.0
 10
173.55179098178618
 20
141.99533259463493
 30
0.0
  0
SPLINE
  5
1A8
100
AcDbEntity
  8
DV1__F_T_H___G
370
         0
390
0
  6
CONTINUOUS
 62
         7
100
AcDbSpline
210
0.0
220
0.0
230
1.0
 70
         8
 71
         3
 72
        18
 73
        14
 74
         0
 42
0.0
 43
0.0
 40
0.0
 40
0.0
 40
0.0
 40
0.0
 40
0.1425013633099289
 40
0.1425013633099289
 40
0.3376639472966945
 40
0.3376639472966945
 40
0.5328265312834548
 40
0.5328265312834548
 40
0.7279891152702152
 40
0.7279891152702152
 40
0.9231516992569755
 40
0.9231516992569755
 40
0.9999999999999999
 40
0.9999999999999999
 40
0.9999999999999999
 40
0.9999999999999999
 10
188.75450338374179
 20
139.42553912228936
 30
0.0
 10
188.75426315692866
 20
139.26258712160606
 30
0.0
 10
188.40720693457874
 20
139.09963512092273
 30
0.0
 10
186.82933148758335
 20
138.71351238853208
 30
0.0
 10
185.32648999101158
 20
138.49034165682477
 30
0.0
 10
181.82710329859435
 20
138.04400019341014
 30
0.0
 10
179.84432412501803
 20
137.82082946170283
 30
0.0
 10
176.3203388215486
 20
137.37448799828823
 30
0.0
 10
174.79299548088912
 20
137.15131726658089
 30
0.0
 10
172.90684707413641
 20
136.70497580316626
 30
0.0
 10
172.55546181135526
 20
136.48180507145892
 30
0.0
 10
173.00249577460795
 20
136.17075739552931
 30
0.0
 10
173.23261382169414
 20
136.08288045130701
 30
0.0
 10
173.55271359508288
 20
135.9950035070847
 30
0.0
  0
SPLINE
  5
1A9
100
AcDbEntity
  8
DV1__F_T_H___G
370
         0
390
0
  6
CONTINUOUS
 62
         7
100
AcDbSpline
210
0.0
220
0.0
230
1.0
 70
         8
 71
         3
 72
        18
 73
        14
 74
         0
 42
0.0
 43
0.0
 40
0.0
 40
0.0
 40
0.0
 40
0.0
 40
0.1498526509955813
 40
0.1498526509955813
 40
0.3449099114676648
 40
0.3449099114676648
 40
0.5399671719397586
 40
0.5399671719397586
 40
0.7350244324118525
 40
0.7350244324118525
 40
0.9300816928839359
 40
0.9300816928839359
 40
0.9999999999999999
 40
0.9999999999999999
 40
0.9999999999999999
 40
0.9999999999999999
 10
188.75507729273008
 20
133.42542580131888
 30
0.0
 10
188.75446984753773
 20
133.25397498892656
 30
0.0
 10
188.36815602196916
 20
133.08252417653421
 30
0.0
 10
186.67874169879821
 20
132.68790263243454
 30
0.0
 10
185.14175404937828
 20
132.46473190072723
 30
0.0
 10
181.6082908805457
 20
132.01839043731258
 30
0.0
 10
179.62571543475869
 20
131.79521970560526
 30
0.0
 10
176.13652824936298
 20
131.34887824219064
 30
0.0
 10
174.64364240880951
 20
131.12570751048332
 30
0.0
 10
172.84475074743838
 20
130.6793660470687
 30
0.0
 10
172.54582147598404
 20
130.45619531536138
 30
0.0
 10
173.04846751473673
 20
130.15302899814722
 30
0.0
 10
173.26667540804166
 20
130.07303341264034
 30
0.0
 10
173.55953691755673
 20
129.99303782713352
 30
0.0
  0
SPLINE
  5
1AA
100
AcDbEntity
  8
DV1__F_T_H___G
370
         0
390
0
  6
CONTINUOUS
 62
         7
100
AcDbSpline
210
0.0
220
0.0
230
1.0
 70
         8
 71
         3
 72
        18
 73
        14
 74
         0
 42
0.0
 43
0.0
 40
0.0
 40
0.0
 40
0.0
 40
0.0
 40
0.1574383172795464
 40
0.1574383172795464
 40
0.3525422842221461
 40
0.3525422842221461
 40
0.547646251164751
 40
0.547646251164751
 40
0.7427502181073559
 40
0.7427502181073559
 40
0.9378541850499504
 40
0.9378541850499504
 40
1.0
 40
1.0
 40
1.0
 40
1.0
 10
188.75566489049129
 20
127.42572362966226
 30
0.0
 10
188.75550550967279
 20
127.24563695578964
 30
0.0
 10
188.3275269073651
 20
127.06555028191701
 30
0.0
 10
186.52389350008397
 20
126.66229287633709
 30
0.0
 10
184.95386508001977
 20
126.43912214462976
 30
0.0
 10
181.38886665708193
 20
125.99278068121514
 30
0.0
 10
179.40792078243223
 20
125.76960994950781
 30
0.0
 10
175.95604109468934
 20
125.32326848609316
 30
0.0
 10
174.49868641897899
 20
125.10009775438586
 30
0.0
 10
172.78834524326763
 20
124.65375629097123
 30
0.0
 10
172.54208694931586
 20
124.43058555926389
 30
0.0
 10
173.09458164241013
 20
124.13632899976803
 30
0.0
 10
173.29521662384929
 20
124.06524317197945
 30
0.0
 10
173.55501919122275
 20
123.99415734419087
 30
0.0
  0
SPLINE
  5
1AB
100
AcDbEntity
  8
DV1__F_T_H___G
370
         0
390
0
  6
CONTINUOUS
 62
         7
100
AcDbSpline
210
0.0
220
0.0
230
1.0
 70
         8
 71
         3
 72
        18
 73
        14
 74
         0
 42
0.0
 43
0.0
 40
0.0
 40
0.0
 40
0.0
 40
0.0
 40
0.1647562916291937
 40
0.1647562916291937
 40
0.3599202352805572
 40
0.3599202352805572
 40
0.5550841789319208
 40
0.5550841789319208
 40
0.7502481225832894
 40
0.7502481225832894
 40
0.9454120662346529
 40
0.9454120662346529
 40
1.0
 40
1.0
 40
1.0
 40
1.0
 10
188.75623130224128
 20
121.42505224056858
 30
0.0
 10
188.75519460482039
 20
121.23665277769464
 30
0.0
 10
188.28322855220679
 20
121.04825331482073
 30
0.0
 10
186.36489825631938
 20
120.63668312023951
 30
0.0
 10
184.76295821032181
 20
120.41351238853218
 30
0.0
 10
181.1689884353473
 20
119.96717092511757
 30
0.0
 10
179.19109680321577
 20
119.74400019341024
 30
0.0
 10
175.77900716162142
 20
119.29765872999562
 30
0.0
 10
174.35823176192409
 20
119.07448799828832
 30
0.0
 10
172.73767112775403
 20
118.62814653487366
 30
0.0
 10
172.54426091717536
 20
118.40497580316634
 30
0.0
 10
173.14282006802679
 20
118.11938355602497
 30
0.0
 10
173.32508214533337
 20
118.05696204059092
 30
0.0
 10
173.5531439260167
 20
117.99454052515686
 30
0.0
  0
SPLINE
  5
1AC
100
AcDbEntity
  8
DV1__F_T_H___G
370
         0
390
0
  6
CONTINUOUS
 62
         7
100
AcDbSpline
210
0.0
220
0.0
230
1.0
 70
         8
 71
         3
 72
        18
 73
        14
 74
         0
 42
0.0
 43
0.0
 40
0.0
 40
0.0
 40
0.0
 40
0.0
 40
0.1722576463417223
 40
0.1722576463417223
 40
0.36733831527719
 40
0.36733831527719
 40
0.5624189842126474
 40
0.5624189842126474
 40
0.7574996531481048
 40
0.7574996531481048
 40
0.9525803220835725
 40
0.9525803220835725
 40
1.0
 40
1.0
 40
1.0
 40
1.0
 10
188.75674805363607
 20
115.42542822269343
 30
0.0
 10
188.7568538575452
 20
115.22836684707872
 30
0.0
 10
188.23831316777421
 20
115.03130547146399
 30
0.0
 10
186.20187031488607
 20
114.61107336414194
 30
0.0
 10
184.56917073810641
 20
114.38790263243465
 30
0.0
 10
180.94881434899594
 20
113.94156116902002
 30
0.0
 10
178.97539943419042
 20
113.71839043731266
 30
0.0
 10
175.60555377073908
 20
113.27204897389807
 30
0.0
 10
174.222379450869
 20
113.04887824219072
 30
0.0
 10
172.69276484508472
 20
112.6025367787761
 30
0.0
 10
172.55234181607224
 20
112.3793660470688
 30
0.0
 10
173.19390031587872
 20
112.10194758145896
 30
0.0
 10
173.35790579973175
 20
112.04769984755646
 30
0.0
 10
173.55662143043006
 20
111.99345211365396
 30
0.0
  0
SPLINE
  5
1AD
100
AcDbEntity
  8
DV1__F_T_H___G
370
         0
390
0
  6
CONTINUOUS
 62
         7
100
AcDbSpline
210
0.0
220
0.0
230
1.0
 70
         8
 71
         3
 72
        18
 73
        14
 74
         0
 42
0.0
 43
0.0
 40
0.0
 40
0.0
 40
0.0
 40
0.0
 40
0.1793658458594535
 40
0.1793658458594535
 40
0.3744777784644738
 40
0.3744777784644738
 40
0.5695897110695044
 40
0.5695897110695044
 40
0.76470164367453
 40
0.76470164367453
 40
0.9598135762795605
 40
0.9598135762795605
 40
1.0
 40
1.0
 40
1.0
 40
1.0
 10
188.75717073191956
 20
109.42411500045721
 30
0.0
 10
188.7557385809086
 20
109.21895478022203
 30
0.0
 10
188.18836149461148
 20
109.01379455998689
 30
0.0
 10
186.03492692343065
 20
108.58546360804441
 30
0.0
 10
184.37264203288842
 20
108.36229287633705
 30
0.0
 10
180.72850274446427
 20
107.91595141292242
 30
0.0
 10
178.76098380219375
 20
107.69278068121513
 30
0.0
 10
175.43580566754147
 20
107.2464392178005
 30
0.0
 10
174.0912271890887
 20
107.02326848609317
 30
0.0
 10
172.65365869129386
 20
106.57692702267855
 30
0.0
 10
172.56632383432549
 20
106.35375629097125
 30
0.0
 10
173.24661662049385
 20
106.08461997701249
 30
0.0
 10
173.39025044354213
 20
106.03865439476107
 30
0.0
 10
173.55890910570182
 20
105.99268881250964
 30
0.0
  0
SPLINE
  5
1AE
100
AcDbEntity
  8
DV1__F_T_H___G
370
         0
390
0
  6
CONTINUOUS
 62
         7
100
AcDbSpline
210
0.0
220
0.0
230
1.0
 70
         8
 71
         3
 72
        16
 73
        12
 74
         0
 42
0.0
 43
0.0
 40
0.0
 40
0.0
 40
0.0
 40
0.0
 40
0.2136167933030404
 40
0.2136167933030404
 40
0.4366932740290813
 40
0.4366932740290813
 40
0.6597697547551163
 40
0.6597697547551163
 40
0.8828462354811573
 40
0.8828462354811573
 40
1.0
 40
1.0
 40
1.0
 40
1.0
 10
188.75747043224365
 20
103.42414572620469
 30
0.0
 10
188.75728519847402
 20
103.21043867868784
 30
0.0
 10
188.13830833647037
 20
102.99673163117102
 30
0.0
 10
185.86418814554267
 20
102.55985385194683
 30
0.0
 10
184.17351343564297
 20
102.33668312023953
 30
0.0
 10
180.5082120670896
 20
101.8903416568249
 30
0.0
 10
178.54800411225403
 20
101.66717092511757
 30
0.0
 10
175.26988493273157
 20
101.22082946170293
 30
0.0
 10
173.964869299642
 20
100.99765872999561
 30
0.0
 10
172.93958045358522
 20
100.65728473569044
 30
0.0
 10
172.76251723650336
 20
100.5400814730926
 30
0.0
 10
172.76256880674975
 20
100.42287821049476
 30
0.0
  0
SPLINE
  5
1AF
100
AcDbEntity
  8
DV1__F_T_H___G
370
         0
390
0
  6
CONTINUOUS
 62
         7
100
AcDbSpline
210
0.0
220
0.0
230
1.0
 70
         8
 71
         3
 72
        12
 73
         8
 74
         0
 42
0.0
 43
0.0
 40
0.0
 40
0.0
 40
0.0
 40
0.0
 40
0.3734566606267352
 40
0.3734566606267352
 40
0.8201933968849585
 40
0.8201933968849585
 40
1.0
 40
1.0
 40
1.0
 40
1.0
 10
30.757851403482167
 20
129.62333524461874
 30
0.0
 10
32.163760908276636
 20
129.80989835763049
 30
0.0
 10
33.568658655017863
 20
129.99646147064223
 30
0.0
 10
36.142255814733225
 20
130.40619531536129
 30
0.0
 10
37.199487094946832
 20
130.62936604706863
 30
0.0
 10
37.859620855192993
 20
130.94236053385615
 30
0.0
 10
37.953448815772937
 20
131.03218428893635
 30
0.0
 10
37.953442750303878
 20
131.12200804401655
 30
0.0
  0
SPLINE
  5
1B0
100
AcDbEntity
  8
DV1__F_T_H___G
370
         0
390
0
  6
CONTINUOUS
 62
         7
100
AcDbSpline
210
0.0
220
0.0
230
1.0
 70
         8
 71
         3
 72
        12
 73
         8
 74
         0
 42
0.0
 43
0.0
 40
0.0
 40
0.0
 40
0.0
 40
0.0
 40
0.3906589241213732
 40
0.3906589241213732
 40
0.8374679992932923
 40
0.8374679992932923
 40
1.0
 40
1.0
 40
1.0
 40
1.0
 10
30.757350610256072
 20
135.62325922459337
 30
0.0
 10
32.227806336556853
 20
135.81838426297944
 30
0.0
 10
33.696551108773562
 20
136.0135093013655
 30
0.0
 10
36.276198729115585
 20
136.43180507145885
 30
0.0
 10
37.294497373136977
 20
136.65497580316617
 30
0.0
 10
37.877093810441117
 20
136.95932748561765
 30
0.0
 10
37.953831449186168
 20
137.04050843636179
 30
0.0
 10
37.953751370488327
 20
137.12168938710596
 30
0.0
  0
SPLINE
  5
1B1
100
AcDbEntity
  8
DV1__F_T_H___G
370
         0
390
0
  6
CONTINUOUS
 62
         7
100
AcDbSpline
210
0.0
220
0.0
230
1.0
 70
         8
 71
         3
 72
        12
 73
         8
 74
         0
 42
0.0
 43
0.0
 40
0.0
 40
0.0
 40
0.0
 40
0.0
 40
0.4077717273781807
 40
0.4077717273781807
 40
0.8546171524391749
 40
0.8546171524391749
 40
1.0
 40
1.0
 40
1.0
 40
1.0
 10
30.757555507732111
 20
141.6232763450472
 30
0.0
 10
32.292406330184029
 20
141.82693226198117
 30
0.0
 10
33.824509526879197
 20
142.03058817891514
 30
0.0
 10
36.406172737414437
 20
142.45741482755642
 30
0.0
 10
37.384806397654621
 20
142.6805855592637
 30
0.0
 10
37.892949334663236
 20
142.97636573183848
 30
0.0
 10
37.954362903804423
 20
143.04897517270589
 30
0.0
 10
37.954142613575037
 20
143.1215846135733
 30
0.0
  0
SPLINE
  5
1B2
100
AcDbEntity
  8
DV1__F_T_H___G
370
         0
390
0
  6
CONTINUOUS
 62
         7
100
AcDbSpline
210
0.0
220
0.0
230
1.0
 70
         8
 71
         3
 72
        12
 73
         8
 74
         0
 42
0.0
 43
0.0
 40
0.0
 40
0.0
 40
0.0
 40
0.0
 40
0.4249796051996793
 40
0.4249796051996793
 40
0.8719628334600084
 40
0.8719628334600084
 40
1.0
 40
1.0
 40
1.0
 40
1.0
 10
30.757797120601573
 20
147.62329970322233
 30
0.0
 10
32.357145135123375
 20
147.8354844194638
 30
0.0
 10
33.952334140510729
 20
148.04766913570521
 30
0.0
 10
36.53208436395623
 20
148.48302458365396
 30
0.0
 10
37.470349219384119
 20
148.70619531536127
 30
0.0
 10
37.906878873419828
 20
148.99329271441508
 30
0.0
 10
37.954715990389481
 20
149.0572193817616
 30
0.0
 10
37.954601238229245
 20
149.12114604910806
 30
0.0
  0
SPLINE
  5
1B3
100
AcDbEntity
  8
DV1__F_T_H___G
370
         0
390
0
  6
CONTINUOUS
 62
         7
100
AcDbSpline
210
0.0
220
0.0
230
1.0
 70
         8
 71
         3
 72
        12
 73
         8
 74
         0
 42
0.0
 43
0.0
 40
0.0
 40
0.0
 40
0.0
 40
0.0
 40
0.44220904295616
 40
0.44220904295616
 40
0.8892805601490689
 40
0.8892805601490689
 40
0.9999999999999999
 40
0.9999999999999999
 40
0.9999999999999999
 40
0.9999999999999999
 10
30.757332884145949
 20
153.6232332138753
 30
0.0
 10
32.421564143087345
 20
153.8439766785983
 30
0.0
 10
34.07981998460928
 20
154.06472014332124
 30
0.0
 10
36.653843054681374
 20
154.50863433975155
 30
0.0
 10
37.551064317003046
 20
154.73180507145884
 30
0.0
 10
37.919139225044837
 20
155.01024512240372
 30
0.0
 10
37.955123197226406
 20
155.06551444164128
 30
0.0
 10
37.955105808974707
 20
155.12078376087885
 30
0.0
  0
SPLINE
  5
1B4
100
AcDbEntity
  8
DV1__F_T_H___G
370
         0
390
0
  6
CONTINUOUS
 62
         7
100
AcDbSpline
210
0.0
220
0.0
230
1.0
 70
         8
 71
         3
 72
        14
 73
        10
 74
         0
 42
0.0
 43
0.0
 40
0.0
 40
0.0
 40
0.0
 40
0.0
 40
0.0122304068723726
 40
0.0122304068723726
 40
0.4592445091253071
 40
0.4592445091253071
 40
0.9062586113782297
 40
0.9062586113782297
 40
1.0
 40
1.0
 40
1.0
 40
1.0
 10
30.757423471604
 20
159.62324316403723
 30
0.0
 10
30.803452948555577
 20
159.6293491656981
 30
0.0
 10
30.849486503370674
 20
159.63545516735894
 30
0.0
 10
32.57787517785124
 20
159.86473190072715
 30
0.0
 10
34.241876718717215
 20
160.08790263243444
 30
0.0
 10
36.771361242269471
 20
160.53424409584909
 30
0.0
 10
37.626893641227397
 20
160.7574148275564
 30
0.0
 10
37.929906818075665
 20
161.02738572548785
 30
0.0
 10
37.95574044057372
 20
161.07418589171201
 30
0.0
 10
37.955632197329713
 20
161.12098605793616
 30
0.0
  0
SPLINE
  5
1B5
100
AcDbEntity
  8
DV1__F_T_H___G
370
         0
390
0
  6
CONTINUOUS
 62
         7
100
AcDbSpline
210
0.0
220
0.0
230
1.0
 70
         8
 71
         3
 72
        12
 73
         8
 74
         0
 42
0.0
 43
0.0
 40
0.0
 40
0.0
 40
0.0
 40
0.0
 40
0.1486616388060012
 40
0.1486616388060012
 40
0.5945728227666365
 40
0.5945728227666365
 40
1.0
 40
1.0
 40
1.0
 40
1.0
 10
180.75754806214363
 20
161.92330538789562
 30
0.0
 10
180.196731767919
 20
161.84890284339232
 30
0.0
 10
179.63594066669572
 20
161.77450029888905
 30
0.0
 10
177.45328390832375
 20
161.47692702267844
 30
0.0
 10
175.96472619170473
 20
161.25375629097113
 30
0.0
 10
174.05656753787909
 20
160.82767636332585
 30
0.0
 10
173.55868675832366
 20
160.62476716738783
 30
0.0
 10
173.55808563973386
 20
160.42185797144987
 30
0.0
  0
SPLINE
  5
1B6
100
AcDbEntity
  8
DV1__F_T_H___G
370
         0
390
0
  6
CONTINUOUS
 62
         7
100
AcDbSpline
210
0.0
220
0.0
230
1.0
 70
         8
 71
         3
 72
        12
 73
         8
 74
         0
 42
0.0
 43
0.0
 40
0.0
 40
0.0
 40
0.0
 40
0.0
 40
0.1656071423350799
 40
0.1656071423350799
 40
0.6112754478466768
 40
0.6112754478466768
 40
1.0
 40
1.0
 40
1.0
 40
1.0
 10
180.75736013389977
 20
155.92327392275584
 30
0.0
 10
180.1322378409011
 20
155.84034528126662
 30
0.0
 10
179.50715500785131
 20
155.7574166397774
 30
0.0
 10
177.27710005771021
 20
155.45131726658087
 30
0.0
 10
175.81547305254298
 20
155.22814653487356
 30
0.0
 10
174.01291006206935
 20
154.81031995336991
 30
0.0
 10
173.55840636869834
 20
154.61566410357358
 30
0.0
 10
173.5584944893271
 20
154.42100825377725
 30
0.0
  0
SPLINE
  5
1B7
100
AcDbEntity
  8
DV1__F_T_H___G
370
         0
390
0
  6
CONTINUOUS
 62
         7
100
AcDbSpline
210
0.0
220
0.0
230
1.0
 70
         8
 71
         3
 72
        12
 73
         8
 74
         0
 42
0.0
 43
0.0
 40
0.0
 40
0.0
 40
0.0
 40
0.0
 40
0.1827096573602395
 40
0.1827096573602395
 40
0.6284219789598869
 40
0.6284219789598869
 40
1.0
 40
1.0
 40
1.0
 40
1.0
 10
180.75784916579241
 20
149.92332958185793
 30
0.0
 10
180.06820169307792
 20
149.83184580196883
 30
0.0
 10
179.37859057944323
 20
149.74036202207975
 30
0.0
 10
177.10341933969627
 20
149.42570751048333
 30
0.0
 10
175.66977422975634
 20
149.20253677877599
 30
0.0
 10
173.97282275192632
 20
148.7933147874933
 30
0.0
 10
173.55957869581897
 20
148.60726352791795
 30
0.0
 10
173.55897559855359
 20
148.42121226834257
 30
0.0
  0
SPLINE
  5
1B8
100
AcDbEntity
  8
DV1__F_T_H___G
370
         0
390
0
  6
CONTINUOUS
 62
         7
100
AcDbSpline
210
0.0
220
0.0
230
1.0
 70
         8
 71
         3
 72
        12
 73
         8
 74
         0
 42
0.0
 43
0.0
 40
0.0
 40
0.0
 40
0.0
 40
0.0
 40
0.1997498254054115
 40
0.1997498254054115
 40
0.6454912840435576
 40
0.6454912840435576
 40
1.0
 40
1.0
 40
1.0
 40
1.0
 10
180.75768466120425
 20
143.9232965438174
 30
0.0
 10
180.00374023855642
 20
143.82328719124263
 30
0.0
 10
179.24982550524459
 20
143.72327783866783
 30
0.0
 10
176.93236666327192
 20
143.40009775438574
 30
0.0
 10
175.52773450810736
 20
143.17692702267843
 30
0.0
 10
173.93452500628723
 20
142.77626333400374
 30
0.0
 10
173.5603097721133
 20
142.5987703770364
 30
0.0
 10
173.5594954177902
 20
142.42127742006909
 30
0.0
  0
SPLINE
  5
1B9
100
AcDbEntity
  8
DV1__F_T_H___G
370
         0
390
0
  6
CONTINUOUS
 62
         7
100
AcDbSpline
210
0.0
220
0.0
230
1.0
 70
         8
 71
         3
 72
        12
 73
         8
 74
         0
 42
0.0
 43
0.0
 40
0.0
 40
0.0
 40
0.0
 40
0.0
 40
0.2167047460285153
 40
0.2167047460285153
 40
0.6623104426823272
 40
0.6623104426823272
 40
1.0
 40
1.0
 40
1.0
 40
1.0
 10
180.75744673614381
 20
137.92325257068561
 30
0.0
 10
179.93924360762821
 20
137.81472129045557
 30
0.0
 10
179.12105358621542
 20
137.70619001022555
 30
0.0
 10
176.76406504737267
 20
137.37448799828823
 30
0.0
 10
175.38945604077909
 20
137.15131726658089
 30
0.0
 10
173.89747557940865
 20
136.75902296629619
 30
0.0
 10
173.5600846264831
 20
136.58989939771882
 30
0.0
 10
173.56002188028921
 20
136.42077582914141
 30
0.0
  0
SPLINE
  5
1BA
100
AcDbEntity
  8
DV1__F_T_H___G
370
         0
390
0
  6
CONTINUOUS
 62
         7
100
AcDbSpline
210
0.0
220
0.0
230
1.0
 70
         8
 71
         3
 72
        12
 73
         8
 74
         0
 42
0.0
 43
0.0
 40
0.0
 40
0.0
 40
0.0
 40
0.0
 40
0.2337412528464254
 40
0.2337412528464254
 40
0.679363858366689
 40
0.679363858366689
 40
1.0
 40
1.0
 40
1.0
 40
1.0
 10
180.75734577054595
 20
131.92322644412764
 30
0.0
 10
179.87485465269546
 20
131.8061672873844
 30
0.0
 10
178.9923481442915
 20
131.68910813064116
 30
0.0
 10
176.59863553240561
 20
131.34887824219064
 30
0.0
 10
175.25503827590745
 20
131.12570751048332
 30
0.0
 10
173.86308148526376
 20
130.74196009022003
 30
0.0
 10
173.56043258292235
 20
130.58138340166408
 30
0.0
 10
173.56053099195361
 20
130.42080671310816
 30
0.0
  0
SPLINE
  5
1BB
100
AcDbEntity
  8
DV1__F_T_H___G
370
         0
390
0
  6
CONTINUOUS
 62
         7
100
AcDbSpline
210
0.0
220
0.0
230
1.0
 70
         8
 71
         3
 72
        12
 73
         8
 74
         0
 42
0.0
 43
0.0
 40
0.0
 40
0.0
 40
0.0
 40
0.0
 40
0.2509155458783809
 40
0.2509155458783809
 40
0.6967096787310225
 40
0.6967096787310225
 40
1.0
 40
1.0
 40
1.0
 40
1.0
 10
180.75780072705163
 20
125.92327463471432
 30
0.0
 10
179.81085413624282
 20
125.79766282907637
 30
0.0
 10
178.8638447784532
 20
125.67205102343843
 30
0.0
 10
176.43619709319933
 20
125.32326848609316
 30
0.0
 10
175.12457788506003
 20
125.10009775438586
 30
0.0
 10
173.83130044778866
 20
124.72509567737968
 30
0.0
 10
173.56133284205379
 20
124.57326433208085
 30
0.0
 10
173.56099743979993
 20
124.42143298678202
 30
0.0
  0
SPLINE
  5
1BC
100
AcDbEntity
  8
DV1__F_T_H___G
370
         0
390
0
  6
CONTINUOUS
 62
         7
100
AcDbSpline
210
0.0
220
0.0
230
1.0
 70
         8
 71
         3
 72
        12
 73
         8
 74
         0
 42
0.0
 43
0.0
 40
0.0
 40
0.0
 40
0.0
 40
0.0
 40
0.2680050211007032
 40
0.2680050211007032
 40
0.7139060228756892
 40
0.7139060228756892
 40
1.0
 40
1.0
 40
1.0
 40
1.0
 10
180.7575759512651
 20
119.92323409696185
 30
0.0
 10
179.74641813856044
 20
119.7890992185422
 30
0.0
 10
178.73517030519753
 20
119.65496434012258
 30
0.0
 10
176.27686655343823
 20
119.29765872999562
 30
0.0
 10
174.9981686937106
 20
119.07448799828832
 30
0.0
 10
173.80102177293327
 20
118.70812897600139
 30
0.0
 10
173.56167479190165
 20
118.56494068542179
 30
0.0
 10
173.56139973775649
 20
118.42175239484217
 30
0.0
  0
SPLINE
  5
1BD
100
AcDbEntity
  8
DV1__F_T_H___G
370
         0
390
0
  6
CONTINUOUS
 62
         7
100
AcDbSpline
210
0.0
220
0.0
230
1.0
 70
         8
 71
         3
 72
        12
 73
         8
 74
         0
 42
0.0
 43
0.0
 40
0.0
 40
0.0
 40
0.0
 40
0.0
 40
0.2850589543040522
 40
0.2850589543040522
 40
0.7309928648989102
 40
0.7309928648989102
 40
1.0
 40
1.0
 40
1.0
 40
1.0
 10
180.75737497098294
 20
113.92319892337933
 30
0.0
 10
179.68201368585892
 20
113.78053918412134
 30
0.0
 10
178.60655266255094
 20
113.63787944486334
 30
0.0
 10
176.1207585016441
 20
113.27204897389807
 30
0.0
 10
174.87590161376102
 20
113.04887824219072
 30
0.0
 10
173.77234588968392
 20
112.69108101595441
 30
0.0
 10
173.56161097175033
 20
112.55645452142542
 30
0.0
 10
173.56172096580536
 20
112.42182802689642
 30
0.0
  0
SPLINE
  5
1BE
100
AcDbEntity
  8
DV1__F_T_H___G
370
         0
390
0
  6
CONTINUOUS
 62
         7
100
AcDbSpline
210
0.0
220
0.0
230
1.0
 70
         8
 71
         3
 72
        12
 73
         8
 74
         0
 42
0.0
 43
0.0
 40
0.0
 40
0.0
 40
0.0
 40
0.0
 40
0.3022442599257169
 40
0.3022442599257169
 40
0.748308587123348
 40
0.748308587123348
 40
1.0
 40
1.0
 40
1.0
 40
1.0
 10
180.75786309555482
 20
107.9232580123268
 30
0.0
 10
179.61808009505319
 20
107.77204199138714
 30
0.0
 10
178.47819873643908
 20
107.62082597044747
 30
0.0
 10
175.96798520876624
 20
107.2464392178005
 30
0.0
 10
174.75786457815875
 20
107.02326848609317
 30
0.0
 10
173.74594269948125
 20
106.67417386101152
 30
0.0
 10
173.56186176365307
 20
106.54824996763719
 30
0.0
 10
173.56194817636583
 20
106.42232607426286
 30
0.0
  0
SPLINE
  5
1BF
100
AcDbEntity
  8
DV1__F_T_H___G
370
         0
390
0
  6
CONTINUOUS
 62
         7
100
AcDbSpline
210
0.0
220
0.0
230
1.0
 70
         8
 71
         3
 72
        12
 73
         8
 74
         0
 42
0.0
 43
0.0
 40
0.0
 40
0.0
 40
0.0
 40
0.0
 40
0.3194495800612885
 40
0.3194495800612885
 40
0.765734891958528
 40
0.765734891958528
 40
1.0
 40
1.0
 40
1.0
 40
1.0
 10
180.7577065439902
 20
101.92323485311348
 30
0.0
 10
179.55372121965684
 20
101.76348996654575
 30
0.0
 10
178.34972036687927
 20
101.603745079978
 30
0.0
 10
175.81865654743734
 20
101.22082946170293
 30
0.0
 10
174.64414247765669
 20
100.99765872999561
 30
0.0
 10
173.72153425454445
 20
100.657340706676
 30
0.0
 10
173.56217786026656
 20
100.54019341506371
 30
0.0
 10
173.5620720766189
 20
100.42304612345141
 30
0.0
  0
LINE
  5
1C0
100
AcDbEntity
  8
DV1__F_T_H___G
370
         0
390
0
  6
CONTINUOUS
 62
         7
100
AcDbLine
 10
187.9533086064
 20
160.2689701308
 30
0.0
 11
187.9533086064
 21
162.992116931
 31
0.0
  0
LINE
  5
1C1
100
AcDbEntity
  8
DV1__F_T_H___G
370
         0
390
0
  6
CONTINUOUS
 62
         7
100
AcDbLine
 10
173.5584944766
 20
154.4210700493
 30
0.0
 11
173.5584944766
 21
151.8521159406
 31
0.0
  0
LINE
  5
1C2
100
AcDbEntity
  8
DV1__F_T_H___G
370
         0
390
0
  6
CONTINUOUS
 62
         7
100
AcDbLine
 10
38.7533236927
 20
134.1215834385
 30
0.0
 11
38.7533236927
 21
137.1215834385
 31
0.0
  0
LINE
  5
1C3
100
AcDbEntity
  8
DV1__F_T_H___G
370
         0
390
0
  6
CONTINUOUS
 62
         7
100
AcDbLine
 10
187.9539100163
 20
148.2707140923
 30
0.0
 11
187.9539100163
 21
150.993915234
 31
0.0
  0
LINE
  5
1C4
100
AcDbEntity
  8
DV1__F_T_H___G
370
         0
390
0
  6
CONTINUOUS
 62
         7
100
AcDbLine
 10
187.9548130127
 20
136.2718468738
 30
0.0
 11
187.9548130127
 21
138.9923913648
 31
0.0
  0
LINE
  5
1C5
100
AcDbEntity
  8
DV1__F_T_H___G
370
         0
390
0
  6
CONTINUOUS
 62
         7
100
AcDbLine
 10
187.9558577857
 20
124.269580695
 30
0.0
 11
187.9558577857
 21
126.9947208791
 31
0.0
  0
LINE
  5
1C6
100
AcDbEntity
  8
DV1__F_T_H___G
370
         0
390
0
  6
CONTINUOUS
 62
         7
100
AcDbLine
 10
22.7583870586
 20
134.1251534719
 30
0.0
 11
22.7583870586
 21
131.1251534719
 31
0.0
  0
LINE
  5
1C7
100
AcDbEntity
  8
DV1__F_T_H___G
370
         0
390
0
  6
CONTINUOUS
 62
         7
100
AcDbLine
 10
187.9568333396
 20
112.2734572288
 30
0.0
 11
187.9568333396
 21
114.9942768683
 31
0.0
  0
LINE
  5
1C8
100
AcDbEntity
  8
DV1__F_T_H___G
370
         0
390
0
  6
CONTINUOUS
 62
         7
100
AcDbLine
 10
22.7594546715
 20
146.1254673851
 30
0.0
 11
22.7594546715
 21
143.1254673851
 31
0.0
  0
LINE
  5
1C9
100
AcDbEntity
  8
DV1__F_T_H___G
370
         0
390
0
  6
CONTINUOUS
 62
         7
100
AcDbLine
 10
187.9574822191
 20
100.4232684861
 30
0.0
 11
187.9574822191
 21
102.995363619
 31
0.0
  0
LINE
  5
1CA
100
AcDbEntity
  8
DV1__F_T_H___G
370
         0
390
0
  6
CONTINUOUS
 62
         7
100
AcDbLine
 10
37.9551058146
 20
155.1207302044
 30
0.0
 11
37.9551058146
 21
157.6935293469
 31
0.0
  0
LINE
  5
1CB
100
AcDbEntity
  8
DV1__F_T_H___G
370
         0
390
0
  6
CONTINUOUS
 62
         7
100
AcDbLine
 10
22.7606193154
 20
158.1252843833
 30
0.0
 11
22.7606193154
 21
155.1252843833
 31
0.0
  0
LINE
  5
1CC
100
AcDbEntity
  8
DV1__F_T_H___G
370
         0
390
0
  6
CONTINUOUS
 62
         7
100
AcDbLine
 10
172.7624312601
 20
109.4225722941
 30
0.0
 11
172.7624312601
 21
106.4225722941
 31
0.0
  0
LINE
  5
1CD
100
AcDbEntity
  8
DV1__F_T_H___G
370
         0
390
0
  6
CONTINUOUS
 62
         7
100
AcDbLine
 10
37.9541426709
 20
143.1215652408
 30
0.0
 11
37.9541426709
 21
145.6947568127
 31
0.0
  0
LINE
  5
1CE
100
AcDbEntity
  8
DV1__F_T_H___G
370
         0
390
0
  6
CONTINUOUS
 62
         7
100
AcDbLine
 10
172.7618217537
 20
121.4217239618
 30
0.0
 11
172.7618217537
 21
118.4217239618
 31
0.0
  0
LINE
  5
1CF
100
AcDbEntity
  8
DV1__F_T_H___G
370
         0
390
0
  6
CONTINUOUS
 62
         7
100
AcDbLine
 10
37.9534427391
 20
131.1219448888
 30
0.0
 11
37.9534427391
 21
133.6935271453
 31
0.0
  0
LINE
  5
1D0
100
AcDbEntity
  8
DV1__F_T_H___G
370
         0
390
0
  6
CONTINUOUS
 62
         7
100
AcDbLine
 10
173.5613997717
 20
118.4217694968
 30
0.0
 11
173.5613997717
 21
115.8526444093
 31
0.0
  0
LINE
  5
1D1
100
AcDbEntity
  8
DV1__F_T_H___G
370
         0
390
0
  6
CONTINUOUS
 62
         7
100
AcDbLine
 10
188.7562311886
 20
121.4250319286
 30
0.0
 11
188.7562311886
 21
124.4250319286
 31
0.0
  0
SPLINE
  5
1D2
100
AcDbEntity
  8
DV1__F_T_H___G
370
         0
390
0
  6
CONTINUOUS
 62
         7
100
AcDbSpline
210
0.0
220
0.0
230
1.0
 70
         8
 71
         3
 72
        10
 73
         6
 74
         0
 42
0.0
 43
0.0
 40
0.0
 40
0.0
 40
0.0
 40
0.0
 40
0.0257977871991841
 40
0.0257977871991841
 40
1.0
 40
1.0
 40
1.0
 40
1.0
 10
188.05759849402756
 20
100.42302549635934
 30
0.0
 10
188.05760258075068
 20
100.42432600513237
 30
0.0
 10
188.0575855935318
 20
100.42562651390541
 30
0.0
 10
188.05610914855646
 20
100.47603815436844
 30
0.0
 10
188.02458116890855
 20
100.52514928605845
 30
0.0
 10
187.96449522958363
 20
100.57426041774846
 30
0.0
  0
SPLINE
  5
1D3
100
AcDbEntity
  8
DV1__F_T_H___G
370
         0
390
0
  6
CONTINUOUS
 62
         7
100
AcDbSpline
210
0.0
220
0.0
230
1.0
 70
         8
 71
         3
 72
        14
 73
        10
 74
         0
 42
0.0
 43
0.0
 40
0.0
 40
0.0
 40
0.0
 40
0.0
 40
0.1152690225118262
 40
0.1152690225118262
 40
0.5208562840171362
 40
0.5208562840171362
 40
0.9264435455224462
 40
0.9264435455224462
 40
1.0
 40
1.0
 40
1.0
 40
1.0
 10
180.75771042463774
 20
104.9232351692599
 30
0.0
 10
181.24238488215528
 20
104.9866609090173
 30
0.0
 10
181.72705684209251
 20
105.05008664877469
 30
0.0
 10
183.87462110450576
 20
105.33668312023941
 30
0.0
 10
185.41736177728924
 20
105.55985385194671
 30
0.0
 10
187.5374481980711
 20
106.00619531536137
 30
0.0
 10
188.10645386837982
 20
106.22936604706868
 30
0.0
 10
188.04469089228522
 20
106.49301055427532
 30
0.0
 10
188.01478822944102
 20
106.53348432977465
 30
0.0
 10
187.96538368562955
 20
106.57395810527397
 30
0.0
  0
SPLINE
  5
1D4
100
AcDbEntity
  8
DV1__F_T_H___G
370
         0
390
0
  6
CONTINUOUS
 62
         7
100
AcDbSpline
210
0.0
220
0.0
230
1.0
 70
         8
 71
         3
 72
        14
 73
        10
 74
         0
 42
0.0
 43
0.0
 40
0.0
 40
0.0
 40
0.0
 40
0.0
 40
0.1303521911717121
 40
0.1303521911717121
 40
0.5346447635264848
 40
0.5346447635264848
 40
0.9389373358812763
 40
0.9389373358812763
 40
1.0
 40
1.0
 40
1.0
 40
1.0
 10
180.75786453587918
 20
110.92325772460825
 30
0.0
 10
181.3077529175419
 20
110.99521253128204
 30
0.0
 10
181.85761873753196
 20
111.06716733795584
 30
0.0
 10
184.05632594949222
 20
111.36229287633695
 30
0.0
 10
185.573160912112
 20
111.58546360804431
 30
0.0
 10
187.62079489543154
 20
112.03180507145893
 30
0.0
 10
188.14353885463299
 20
112.25497580316623
 30
0.0
 10
188.03075011028656
 20
112.51185331150812
 30
0.0
 10
188.00180781328555
 20
112.54556008814268
 30
0.0
 10
187.95928928686359
 20
112.57926686477724
 30
0.0
  0
SPLINE
  5
1D5
100
AcDbEntity
  8
DV1__F_T_H___G
370
         0
390
0
  6
CONTINUOUS
 62
         7
100
AcDbSpline
210
0.0
220
0.0
230
1.0
 70
         8
 71
         3
 72
        14
 73
        10
 74
         0
 42
0.0
 43
0.0
 40
0.0
 40
0.0
 40
0.0
 40
0.0
 40
0.1459730250930718
 40
0.1459730250930718
 40
0.5506000014007658
 40
0.5506000014007658
 40
0.9552269777084358
 40
0.9552269777084358
 40
1.0
 40
1.0
 40
1.0
 40
1.0
 10
180.75737254538925
 20
116.92319901690797
 30
0.0
 10
181.37268874185901
 20
117.00370997818105
 30
0.0
 10
181.98797272318782
 20
117.08422093945414
 30
0.0
 10
184.23565839300366
 20
117.38790263243453
 30
0.0
 10
185.72549675681509
 20
117.61107336414184
 30
0.0
 10
187.69920567004166
 20
118.05741482755647
 30
0.0
 10
188.17531196724912
 20
118.2805855592638
 30
0.0
 10
188.01579337583132
 20
118.52845071010434
 30
0.0
 10
187.99232662325252
 20
118.55314512923758
 30
0.0
 10
187.96152209708205
 20
118.57783954837082
 30
0.0
  0
SPLINE
  5
1D6
100
AcDbEntity
  8
DV1__F_T_H___G
370
         0
390
0
  6
CONTINUOUS
 62
         7
100
AcDbSpline
210
0.0
220
0.0
230
1.0
 70
         8
 71
         3
 72
        14
 73
        10
 74
         0
 42
0.0
 43
0.0
 40
0.0
 40
0.0
 40
0.0
 40
0.0
 40
0.1616238454223545
 40
0.1616238454223545
 40
0.5667414719871743
 40
0.5667414719871743
 40
0.971859098552002
 40
0.971859098552002
 40
1.0
 40
1.0
 40
1.0
 40
1.0
 10
180.75759154722263
 20
122.92323618316192
 30
0.0
 10
181.43809309651539
 20
123.01227134104953
 30
0.0
 10
182.11855422738088
 20
123.10130649893716
 30
0.0
 10
184.41248946140021
 20
123.41351238853207
 30
0.0
 10
185.87425975337302
 20
123.6366831202394
 30
0.0
 10
187.77262412985769
 20
124.08302458365402
 30
0.0
 10
188.20175035540487
 20
124.30619531536135
 30
0.0
 10
187.99945084464238
 20
124.54486827445955
 30
0.0
 10
187.98333497476409
 20
124.5603705018504
 30
0.0
 10
187.96430477922968
 20
124.57587272924125
 30
0.0
  0
SPLINE
  5
1D7
100
AcDbEntity
  8
DV1__F_T_H___G
370
         0
390
0
  6
CONTINUOUS
 62
         7
100
AcDbSpline
210
0.0
220
0.0
230
1.0
 70
         8
 71
         3
 72
        14
 73
        10
 74
         0
 42
0.0
 43
0.0
 40
0.0
 40
0.0
 40
0.0
 40
0.0
 40
0.176853518259793
 40
0.176853518259793
 40
0.581414709179842
 40
0.581414709179842
 40
0.9859759000998803
 40
0.9859759000998803
 40
0.9999999999999999
 40
0.9999999999999999
 40
0.9999999999999999
 40
0.9999999999999999
 10
180.75780498721409
 20
128.9232748292988
 30
0.0
 10
181.5034843299714
 20
129.02083369050666
 30
0.0
 10
182.24912526186731
 20
129.11839255171449
 30
0.0
 10
184.58669197999959
 20
129.43912214462966
 30
0.0
 10
186.01934291330815
 20
129.66229287633698
 30
0.0
 10
187.84099747324578
 20
130.10863433975157
 30
0.0
 10
188.22283500494365
 20
130.33180507145892
 30
0.0
 10
187.98014651359273
 20
130.5627120089776
 30
0.0
 10
187.97127710404322
 20
130.57044821478894
 30
0.0
 10
187.96167731126417
 20
130.57818442060031
 30
0.0
  0
SPLINE
  5
1D8
100
AcDbEntity
  8
DV1__F_T_H___G
370
         0
390
0
  6
CONTINUOUS
 62
         7
100
AcDbSpline
210
0.0
220
0.0
230
1.0
 70
         8
 71
         3
 72
        14
 73
        10
 74
         0
 42
0.0
 43
0.0
 40
0.0
 40
0.0
 40
0.0
 40
0.0
 40
0.1919366667579699
 40
0.1919366667579699
 40
0.5956130103789279
 40
0.5956130103789279
 40
0.9992893539998859
 40
0.9992893539998859
 40
1.0
 40
1.0
 40
1.0
 40
1.0
 10
180.75734712315625
 20
134.92322708500387
 30
0.0
 10
181.5684150010602
 20
135.02933844634251
 30
0.0
 10
182.37946996729414
 20
135.13544980768123
 30
0.0
 10
184.75814066453924
 20
135.4647319007272
 30
0.0
 10
186.16064189463492
 20
135.68790263243451
 30
0.0
 10
187.90427652695669
 20
136.13424409584914
 30
0.0
 10
188.23855075205049
 20
136.35741482755648
 30
0.0
 10
187.95827157640389
 20
136.58097843685081
 30
0.0
 10
187.95777713397038
 20
136.58137131443786
 30
0.0
 10
187.95728079641702
 20
136.58176419202491
 30
0.0
  0
SPLINE
  5
1D9
100
AcDbEntity
  8
DV1__F_T_H___G
370
         0
390
0
  6
CONTINUOUS
 62
         7
100
AcDbSpline
210
0.0
220
0.0
230
1.0
 70
         8
 71
         3
 72
        12
 73
         8
 74
         0
 42
0.0
 43
0.0
 40
0.0
 40
0.0
 40
0.0
 40
0.0
 40
0.2078331676917712
 40
0.2078331676917712
 40
0.6124254257394534
 40
0.6124254257394534
 40
1.0
 40
1.0
 40
1.0
 40
1.0
 10
180.75744200962117
 20
140.92325223277294
 30
0.0
 10
181.63369820097759
 20
141.03789179688778
 30
0.0
 10
182.50996927459357
 20
141.15253136100262
 30
0.0
 10
184.92671221127966
 20
141.49034165682477
 30
0.0
 10
186.29805507690133
 20
141.71351238853208
 30
0.0
 10
187.92741317872759
 20
142.15046699674323
 30
0.0
 10
188.22382219424625
 20
142.3642508732471
 30
0.0
 10
187.96181869820776
 20
142.57803474975094
 30
0.0
  0
SPLINE
  5
1DA
100
AcDbEntity
  8
DV1__F_T_H___G
370
         0
390
0
  6
CONTINUOUS
 62
         7
100
AcDbSpline
210
0.0
220
0.0
230
1.0
 70
         8
 71
         3
 72
        12
 73
         8
 74
         0
 42
0.0
 43
0.0
 40
0.0
 40
0.0
 40
0.0
 40
0.0
 40
0.2233514080322488
 40
0.2233514080322488
 40
0.6280671303555212
 40
0.6280671303555212
 40
1.0
 40
1.0
 40
1.0
 40
1.0
 10
180.75767728708936
 20
146.92329542717832
 30
0.0
 10
181.6990572202545
 20
147.04645717852389
 30
0.0
 10
182.64048301582665
 20
147.16961892986944
 30
0.0
 10
185.09228538568283
 20
147.51595141292231
 30
0.0
 10
186.43148363427363
 20
147.73912214462965
 30
0.0
 10
187.95122416699283
 20
148.16738629397855
 30
0.0
 10
188.2115709125232
 20
148.37247971162009
 30
0.0
 10
187.96210253940271
 20
148.57757312926168
 30
0.0
  0
SPLINE
  5
1DB
100
AcDbEntity
  8
DV1__F_T_H___G
370
         0
390
0
  6
CONTINUOUS
 62
         7
100
AcDbSpline
210
0.0
220
0.0
230
1.0
 70
         8
 71
         3
 72
        12
 73
         8
 74
         0
 42
0.0
 43
0.0
 40
0.0
 40
0.0
 40
0.0
 40
0.0
 40
0.2381140413090881
 40
0.2381140413090881
 40
0.6416471559875001
 40
0.6416471559875001
 40
0.9999999999999999
 40
0.9999999999999999
 40
0.9999999999999999
 40
0.9999999999999999
 10
180.75785039543439
 20
152.92332929192614
 30
0.0
 10
181.76435664578685
 20
153.05501634038828
 30
0.0
 10
182.77093934224996
 20
153.18670338885042
 30
0.0
 10
185.25474110960221
 20
153.5415611690199
 30
0.0
 10
186.5608316066099
 20
153.76473190072721
 30
0.0
 10
187.97901243763255
 20
154.18608678015039
 30
0.0
 10
188.203752221537
 20
154.38427092786623
 30
0.0
 10
187.955687562169
 20
154.58245507558212
 30
0.0
  0
SPLINE
  5
1DC
100
AcDbEntity
  8
DV1__F_T_H___G
370
         0
390
0
  6
CONTINUOUS
 62
         7
100
AcDbSpline
210
0.0
220
0.0
230
1.0
 70
         8
 71
         3
 72
        12
 73
         8
 74
         0
 42
0.0
 43
0.0
 40
0.0
 40
0.0
 40
0.0
 40
0.0
 40
0.2539724447529545
 40
0.2539724447529545
 40
0.6581252507440226
 40
0.6581252507440226
 40
0.9999999999999999
 40
0.9999999999999999
 40
0.9999999999999999
 40
0.9999999999999999
 10
180.75735780580339
 20
158.92327405600255
 30
0.0
 10
181.8291955295328
 20
159.06351610180508
 30
0.0
 10
182.90114763881772
 20
159.20375814760763
 30
0.0
 10
185.41396254692248
 20
159.56717092511747
 30
0.0
 10
186.68600596847381
 20
159.79034165682475
 30
0.0
 10
187.99621924399744
 20
160.20229355449879
 30
0.0
 10
188.19032213413644
 20
160.39107472046553
 30
0.0
 10
187.95843975939238
 20
160.57985588643223
 30
0.0
  0
SPLINE
  5
1DD
100
AcDbEntity
  8
DV1__F_T_H___G
370
         0
390
0
  6
CONTINUOUS
 62
         7
100
AcDbSpline
210
0.0
220
0.0
230
1.0
 70
         8
 71
         3
 72
        12
 73
         8
 74
         0
 42
0.0
 43
0.0
 40
0.0
 40
0.0
 40
0.0
 40
0.0
 40
0.3945723764507078
 40
0.3945723764507078
 40
0.8002439253062617
 40
0.8002439253062617
 40
1.0
 40
1.0
 40
1.0
 40
1.0
 10
30.757422176190222
 20
156.62324331729533
 30
0.0
 10
29.098374560186837
 20
156.40617853616288
 30
0.0
 10
27.444551879201668
 20
156.18911375503038
 30
0.0
 10
24.831852555112
 20
155.74887824219061
 30
0.0
 10
23.904253601760406
 20
155.52570751048327
 30
0.0
 10
23.429077519972001
 20
155.19264563783167
 30
0.0
 10
23.420615445138182
 20
155.08275449688736
 30
0.0
 10
23.552455727295531
 20
154.97286335594305
 30
0.0
  0
SPLINE
  5
1DE
100
AcDbEntity
  8
DV1__F_T_H___G
370
         0
390
0
  6
CONTINUOUS
 62
         7
100
AcDbSpline
210
0.0
220
0.0
230
1.0
 70
         8
 71
         3
 72
        14
 73
        10
 74
         0
 42
0.0
 43
0.0
 40
0.0
 40
0.0
 40
0.0
 40
0.0
 40
0.0043978426866684
 40
0.0043978426866684
 40
0.4087103469810853
 40
0.4087103469810853
 40
0.8130228512755235
 40
0.8130228512755235
 40
1.0
 40
1.0
 40
1.0
 40
1.0
 10
30.757334568807249
 20
150.62323392157509
 30
0.0
 10
30.738778928934909
 20
150.62080641869082
 30
0.0
 10
30.7202225563539
 20
150.61837891580657
 30
0.0
 10
28.995677976548741
 20
150.39278068121499
 30
0.0
 10
27.301162257696799
 20
150.16960994950767
 30
0.0
 10
24.710848896332351
 20
149.72326848609305
 30
0.0
 10
23.825241128375364
 20
149.50009775438571
 30
0.0
 10
23.425497670341187
 20
149.17372015509412
 30
0.0
 10
23.430495249650185
 20
149.07051328750981
 30
0.0
 10
23.559174869592304
 20
148.96730641992554
 30
0.0
  0
SPLINE
  5
1DF
100
AcDbEntity
  8
DV1__F_T_H___G
370
         0
390
0
  6
CONTINUOUS
 62
         7
100
AcDbSpline
210
0.0
220
0.0
230
1.0
 70
         8
 71
         3
 72
        14
 73
        10
 74
         0
 42
0.0
 43
0.0
 40
0.0
 40
0.0
 40
0.0
 40
0.0
 40
0.0199616479392845
 40
0.0199616479392845
 40
0.4254646194432735
 40
0.4254646194432735
 40
0.8309675909472624
 40
0.8309675909472624
 40
1.0
 40
1.0
 40
1.0
 40
1.0
 10
30.757799484951111
 20
144.62329965631983
 30
0.0
 10
30.673842114277956
 20
144.61231365648814
 30
0.0
 10
30.589873439695868
 20
144.60132765665645
 30
0.0
 10
28.800916443193241
 20
144.36717092511745
 30
0.0
 10
27.124021012298854
 20
144.14400019341011
 30
0.0
 10
24.594193985740475
 20
143.69765872999548
 30
0.0
 10
23.751214321156343
 20
143.47448799828817
 30
0.0
 10
23.42805756112265
 20
143.1582893751436
 30
0.0
 10
23.440139519376345
 20
143.06526148370637
 30
0.0
 10
23.552935256351937
 20
142.97223359226913
 30
0.0
  0
SPLINE
  5
1E0
100
AcDbEntity
  8
DV1__F_T_H___G
370
         0
390
0
  6
CONTINUOUS
 62
         7
100
AcDbSpline
210
0.0
220
0.0
230
1.0
 70
         8
 71
         3
 72
        14
 73
        10
 74
         0
 42
0.0
 43
0.0
 40
0.0
 40
0.0
 40
0.0
 40
0.0
 40
0.0355039592010494
 40
0.0355039592010494
 40
0.4415316177679535
 40
0.4415316177679535
 40
0.8475592763348469
 40
0.8475592763348469
 40
1.0
 40
1.0
 40
1.0
 40
1.0
 10
30.75754866461601
 20
138.62327553232146
 30
0.0
 10
30.608434840162541
 20
138.60376098845668
 30
0.0
 10
30.459295441151959
 20
138.58424644459194
 30
0.0
 10
28.607562132840908
 20
138.34156116901988
 30
0.0
 10
26.949492992026453
 20
138.11839043731254
 30
0.0
 10
24.481971720082207
 20
137.67204897389792
 30
0.0
 10
23.682226419252938
 20
137.4488782421906
 30
0.0
 10
23.430984290269684
 20
137.1419193568328
 30
0.0
 10
23.449590236487072
 20
137.05813120318234
 30
0.0
 10
23.550101644948306
 20
136.97434304953185
 30
0.0
  0
SPLINE
  5
1E1
100
AcDbEntity
  8
DV1__F_T_H___G
370
         0
390
0
  6
CONTINUOUS
 62
         7
100
AcDbSpline
210
0.0
220
0.0
230
1.0
 70
         8
 71
         3
 72
        14
 73
        10
 74
         0
 42
0.0
 43
0.0
 40
0.0
 40
0.0
 40
0.0
 40
0.0
 40
0.0509503024229068
 40
0.0509503024229068
 40
0.4563879768027366
 40
0.4563879768027366
 40
0.8618256511825556
 40
0.8618256511825556
 40
0.9999999999999999
 40
0.9999999999999999
 40
0.9999999999999999
 40
0.9999999999999999
 10
30.757337836731985
 20
132.62325800809981
 30
0.0
 10
30.543054096263386
 20
132.59521272027641
 30
0.0
 10
30.328734531025678
 20
132.56716743245303
 30
0.0
 10
28.415754103482154
 20
132.31595141292232
 30
0.0
 10
26.777703715238633
 20
132.092780681215
 30
0.0
 10
24.374262808200765
 20
131.64643921780038
 30
0.0
 10
23.618327037897291
 20
131.42326848609304
 30
0.0
 10
23.434486897055294
 20
131.12404051432793
 30
0.0
 10
23.459758330685034
 20
131.04798327427017
 30
0.0
 10
23.552654864844371
 20
130.9719260342124
 30
0.0
  0
LINE
  5
1E2
100
AcDbEntity
  8
DV1__F_T_H___G
370
         0
390
0
  6
CONTINUOUS
 62
         7
100
AcDbLine
 10
173.5605309704
 20
130.4208599492
 30
0.0
 11
173.5605309704
 21
127.8538024136
 31
0.0
  0
LINE
  5
1E3
100
AcDbEntity
  8
DV1__F_T_H___G
370
         0
390
0
  6
CONTINUOUS
 62
         7
100
AcDbLine
 10
188.7571704641
 20
109.4240775422
 30
0.0
 11
188.7571704641
 21
112.4240775422
 31
0.0
  0
LINE
  5
1E4
100
AcDbEntity
  8
DV1__F_T_H___G
370
         0
390
0
  6
CONTINUOUS
 62
         7
100
AcDbLine
 10
38.7554138089
 20
158.1206967295
 30
0.0
 11
38.7554138089
 21
161.1206967295
 31
0.0
  0
SPLINE
  5
1E5
100
AcDbEntity
  8
DV1__F_T_H___G
370
         0
390
0
  6
CONTINUOUS
 62
         7
100
AcDbSpline
210
0.0
220
0.0
230
1.0
 70
         8
 71
         3
 72
         8
 73
         4
 74
         0
 42
0.0
 43
0.0
 40
0.0
 40
0.0
 40
0.0
 40
0.0
 40
1.0
 40
1.0
 40
1.0
 40
1.0
 10
38.553430622273638
 20
142.62152186563785
 30
0.0
 10
38.55347743360435
 20
142.75854449234993
 30
0.0
 10
38.316437659260338
 20
142.89556711906201
 30
0.0
 10
37.851911661099763
 20
143.03258974577409
 30
0.0
  0
SPLINE
  5
1E6
100
AcDbEntity
  8
DV1__F_T_H___G
370
         0
390
0
  6
CONTINUOUS
 62
         7
100
AcDbSpline
210
0.0
220
0.0
230
1.0
 70
         8
 71
         3
 72
         8
 73
         4
 74
         0
 42
0.0
 43
0.0
 40
0.0
 40
0.0
 40
0.0
 40
0.0
 40
1.0
 40
1.0
 40
1.0
 40
1.0
 10
38.55435074450579
 20
154.62133166051447
 30
0.0
 10
38.553869837588195
 20
154.75804684023808
 30
0.0
 10
38.315800863460453
 20
154.89476201996169
 30
0.0
 10
37.855096451379758
 20
155.0314771996853
 30
0.0
  0
SPLINE
  5
1E7
100
AcDbEntity
  8
DV1__F_T_H___G
370
         0
390
0
  6
CONTINUOUS
 62
         7
100
AcDbSpline
210
0.0
220
0.0
230
1.0
 70
         8
 71
         3
 72
         8
 73
         4
 74
         0
 42
0.0
 43
0.0
 40
0.0
 40
0.0
 40
0.0
 40
0.0
 40
1.0
 40
1.0
 40
1.0
 40
1.0
 10
38.554897870358261
 20
160.62070553442521
 30
0.0
 10
38.554942390806588
 20
160.75768062630175
 30
0.0
 10
38.315433635698923
 20
160.89465571817831
 30
0.0
 10
37.854118280863823
 20
161.03163081005488
 30
0.0
  0
SPLINE
  5
1E8
100
AcDbEntity
  8
DV1__F_T_H___G
370
         0
390
0
  6
CONTINUOUS
 62
         7
100
AcDbSpline
210
0.0
220
0.0
230
1.0
 70
         8
 71
         3
 72
        10
 73
         6
 74
         0
 42
0.0
 43
0.0
 40
0.0
 40
0.0
 40
0.0
 40
0.0
 40
0.2126275763127472
 40
0.2126275763127472
 40
1.0
 40
1.0
 40
1.0
 40
1.0
 10
172.95857034839239
 20
148.92163781210226
 30
0.0
 10
172.95842775561005
 20
148.8929130774163
 30
0.0
 10
172.96900749966562
 20
148.8641883427303
 30
0.0
 10
173.07032740631044
 20
148.72909422566363
 30
0.0
 10
173.30014555180335
 20
148.62272484328298
 30
0.0
 10
173.65948675043475
 20
148.5163554609023
 30
0.0
  0
SPLINE
  5
1E9
100
AcDbEntity
  8
DV1__F_T_H___G
370
         0
390
0
  6
CONTINUOUS
 62
         7
100
AcDbSpline
210
0.0
220
0.0
230
1.0
 70
         8
 71
         3
 72
        10
 73
         6
 74
         0
 42
0.0
 43
0.0
 40
0.0
 40
0.0
 40
0.0
 40
0.0
 40
0.2740010445413998
 40
0.2740010445413998
 40
1.0
 40
1.0
 40
1.0
 40
1.0
 10
172.95908942835433
 20
142.92082959875668
 30
0.0
 10
172.95908140285766
 20
142.88383768315336
 30
0.0
 10
172.97674685790821
 20
142.84684576755006
 30
0.0
 10
173.10741028684663
 20
142.7118392909681
 30
0.0
 10
173.32927089498705
 20
142.61382472998946
 30
0.0
 10
173.66117440076863
 20
142.51581016901079
 30
0.0
  0
SPLINE
  5
1EA
100
AcDbEntity
  8
DV1__F_T_H___G
370
         0
390
0
  6
CONTINUOUS
 62
         7
100
AcDbSpline
210
0.0
220
0.0
230
1.0
 70
         8
 71
         3
 72
        10
 73
         6
 74
         0
 42
0.0
 43
0.0
 40
0.0
 40
0.0
 40
0.0
 40
0.0
 40
0.4632147162670749
 40
0.4632147162670749
 40
1.0
 40
1.0
 40
1.0
 40
1.0
 10
172.96077512960198
 20
124.92091682368425
 30
0.0
 10
172.96075823241861
 20
124.85828607700752
 30
0.0
 10
173.01063496070756
 20
124.7956553303308
 30
0.0
 10
173.22920527304134
 20
124.6604464423631
 30
0.0
 10
173.41521169632279
 20
124.58786830107216
 30
0.0
 10
173.66194588256099
 20
124.51529015978122
 30
0.0
  0
SPLINE
  5
1EB
100
AcDbEntity
  8
DV1__F_T_H___G
370
         0
390
0
  6
CONTINUOUS
 62
         7
100
AcDbSpline
210
0.0
220
0.0
230
1.0
 70
         8
 71
         3
 72
        10
 73
         6
 74
         0
 42
0.0
 43
0.0
 40
0.0
 40
0.0
 40
0.0
 40
0.0
 40
0.5265007118237166
 40
0.5265007118237166
 40
1.0
 40
1.0
 40
1.0
 40
1.0
 10
172.96128058500892
 20
118.92147761309809
 30
0.0
 10
172.96108292626181
 20
118.85012335125094
 30
0.0
 10
173.02539842546688
 20
118.77876908940382
 30
0.0
 10
173.27349886221722
 20
118.64324360910588
 30
0.0
 10
173.44433959795839
 20
118.57907239065504
 30
0.0
 10
173.66280977173847
 20
118.5149011722042
 30
0.0
  0
SPLINE
  5
1EC
100
AcDbEntity
  8
DV1__F_T_H___G
370
         0
390
0
  6
CONTINUOUS
 62
         7
100
AcDbSpline
210
0.0
220
0.0
230
1.0
 70
         8
 71
         3
 72
        10
 73
         6
 74
         0
 42
0.0
 43
0.0
 40
0.0
 40
0.0
 40
0.0
 40
0.0
 40
0.5903998753148811
 40
0.5903998753148811
 40
1.0
 40
1.0
 40
1.0
 40
1.0
 10
172.96171617251926
 20
112.92168569622528
 30
0.0
 10
172.96159468852576
 20
112.8417254879699
 30
0.0
 10
173.04223881517711
 20
112.7617652797145
 30
0.0
 10
173.31899219684666
 20
112.62633129404041
 30
0.0
 10
173.47195787854
 20
112.5708575166217
 30
0.0
 10
173.66067407523343
 20
112.51538373920299
 30
0.0
  0
SPLINE
  5
1ED
100
AcDbEntity
  8
DV1__F_T_H___G
370
         0
390
0
  6
CONTINUOUS
 62
         7
100
AcDbSpline
210
0.0
220
0.0
230
1.0
 70
         8
 71
         3
 72
        10
 73
         6
 74
         0
 42
0.0
 43
0.0
 40
0.0
 40
0.0
 40
0.0
 40
0.0
 40
0.7150466706820802
 40
0.7150466706820802
 40
1.0
 40
1.0
 40
1.0
 40
1.0
 10
172.96231057790462
 20
100.92261980510973
 30
0.0
 10
172.96214310290057
 20
100.82527505649449
 30
0.0
 10
173.08120344298183
 20
100.72793030787928
 30
0.0
 10
173.41671410069884
 20
100.5917926925228
 30
0.0
 10
173.53137973135284
 20
100.55299982578157
 30
0.0
 10
173.66368643167945
 20
100.51420695904034
 30
0.0
  0
LINE
  5
1EE
100
AcDbEntity
  8
DV1__F_T_H___G
370
         0
390
0
  6
CONTINUOUS
 62
         7
100
AcDbLine
 10
173.5594955088
 20
142.4212969215
 30
0.0
 11
173.5594955088
 21
139.8521798451
 31
0.0
  0
LINE
  5
1EF
100
AcDbEntity
  8
DV1__F_T_H___G
370
         0
390
0
  6
CONTINUOUS
 62
         7
100
AcDbLine
 10
188.757598741
 20
100.4232983948
 30
0.0
 11
188.757598741
 21
100.4235891121
 31
0.0
  0
LINE
  5
1F0
100
AcDbEntity
  8
DV1__F_T_H___G
370
         0
390
0
  6
CONTINUOUS
 62
         7
100
AcDbLine
 10
38.7542681513
 20
146.120919042
 30
0.0
 11
38.7542681513
 21
149.120919042
 31
0.0
  0
SPLINE
  5
1F1
100
AcDbEntity
  8
DV1__F_T_H___G
370
         0
390
0
  6
CONTINUOUS
 62
         7
100
AcDbSpline
210
0.0
220
0.0
230
1.0
 70
         8
 71
         3
 72
        12
 73
         8
 74
         0
 42
0.0
 43
0.0
 40
0.0
 40
0.0
 40
0.0
 40
0.0
 40
0.0598288023107923
 40
0.0598288023107923
 40
0.7300800248051435
 40
0.7300800248051435
 40
1.0
 40
1.0
 40
1.0
 40
1.0
 10
34.757399717834687
 20
127.12326174932819
 30
0.0
 10
34.902020302846751
 20
127.14318269410346
 30
0.0
 10
35.04400217015516
 20
127.16310363887875
 30
0.0
 10
36.740550785282558
 20
127.40619531536134
 30
0.0
 10
37.915252207742128
 20
127.62936604706864
 30
0.0
 10
38.64885218892482
 20
127.94241089812853
 30
0.0
 10
38.753104329557722
 20
128.03228501748109
 30
0.0
 10
38.752980604024792
 20
128.12215913683363
 30
0.0
  0
SPLINE
  5
1F2
100
AcDbEntity
  8
DV1__F_T_H___G
370
         0
390
0
  6
CONTINUOUS
 62
         7
100
AcDbSpline
210
0.0
220
0.0
230
1.0
 70
         8
 71
         3
 72
        18
 73
        14
 74
         0
 42
0.0
 43
0.0
 40
0.0
 40
0.0
 40
0.0
 40
0.0
 40
0.1475163710173632
 40
0.1475163710173632
 40
0.3428761847242035
 40
0.3428761847242035
 40
0.538235998431047
 40
0.538235998431047
 40
0.7335958121378892
 40
0.7335958121378892
 40
0.9289556258447314
 40
0.9289556258447314
 40
1.0
 40
1.0
 40
1.0
 40
1.0
 10
23.552994072597034
 20
130.69454849375597
 30
0.0
 10
22.943904235281863
 20
130.8630649139659
 30
0.0
 10
22.670018180246277
 20
131.0315813341758
 30
0.0
 10
22.933739116072022
 20
131.42326848609304
 30
0.0
 10
23.76216187804847
 20
131.64643921780038
 30
0.0
 10
26.396069721377589
 20
132.092780681215
 30
0.0
 10
28.1911934345212
 20
132.31595141292232
 30
0.0
 10
31.915947102299143
 20
132.76229287633694
 30
0.0
 10
33.830924477368917
 20
132.98546360804426
 30
0.0
 10
36.889376245707403
 20
133.43180507145891
 30
0.0
 10
38.020819183508955
 20
133.65497580316622
 30
0.0
 10
38.668099887812637
 20
133.95930460245702
 30
0.0
 10
38.753364526204159
 20
134.04046267004051
 30
0.0
 10
38.75332367990665
 20
134.12162073762403
 30
0.0
  0
SPLINE
  5
1F3
100
AcDbEntity
  8
DV1__F_T_H___G
370
         0
390
0
  6
CONTINUOUS
 62
         7
100
AcDbSpline
210
0.0
220
0.0
230
1.0
 70
         8
 71
         3
 72
        18
 73
        14
 74
         0
 42
0.0
 43
0.0
 40
0.0
 40
0.0
 40
0.0
 40
0.0
 40
0.1548197377310696
 40
0.1548197377310696
 40
0.3502180914357188
 40
0.3502180914357188
 40
0.5456164451403666
 40
0.5456164451403666
 40
0.7410147988450138
 40
0.7410147988450138
 40
0.9364131525496622
 40
0.9364131525496622
 40
1.0
 40
1.0
 40
1.0
 40
1.0
 10
23.549975351518761
 20
136.69523373477682
 30
0.0
 10
22.911905369122632
 20
136.87205832667897
 30
0.0
 10
22.644980819920836
 20
137.04888291858114
 30
0.0
 10
23.003765835365897
 20
137.4488782421906
 30
0.0
 10
23.880199041754146
 20
137.67204897389792
 30
0.0
 10
26.584331942514972
 20
138.11839043731254
 30
0.0
 10
28.401394014640381
 20
138.34156116901988
 30
0.0
 10
32.133632366021928
 20
138.78790263243451
 30
0.0
 10
34.034126622176586
 20
139.01107336414182
 30
0.0
 10
37.033791810483898
 20
139.45741482755648
 30
0.0
 10
38.121162544084115
 20
139.68058555926376
 30
0.0
 10
38.685794704970441
 20
139.97638087046934
 30
0.0
 10
38.754031557545325
 20
140.04900544996761
 30
0.0
 10
38.753758177523288
 20
140.1216300294659
 30
0.0
  0
SPLINE
  5
1F4
100
AcDbEntity
  8
DV1__F_T_H___G
370
         0
390
0
  6
CONTINUOUS
 62
         7
100
AcDbSpline
210
0.0
220
0.0
230
1.0
 70
         8
 71
         3
 72
        18
 73
        14
 74
         0
 42
0.0
 43
0.0
 40
0.0
 40
0.0
 40
0.0
 40
0.0
 40
0.1625228552784887
 40
0.1625228552784887
 40
0.3579114330761165
 40
0.3579114330761165
 40
0.553300010873748
 40
0.553300010873748
 40
0.7486885886713758
 40
0.7486885886713758
 40
0.9440771664690022
 40
0.9440771664690022
 40
1.0
 40
1.0
 40
1.0
 40
1.0
 10
23.552360261225978
 20
142.69442169560386
 30
0.0
 10
22.881189930765071
 20
142.88005355259619
 30
0.0
 10
22.621507612379244
 20
143.06568540958853
 30
0.0
 10
23.079369015534034
 20
143.47448799828817
 30
0.0
 10
24.003182346585106
 20
143.69765872999548
 30
0.0
 10
26.775595526375124
 20
144.14400019341011
 30
0.0
 10
28.613289149273079
 20
144.36717092511745
 30
0.0
 10
32.350328005334688
 20
144.81351238853208
 30
0.0
 10
34.23497233098653
 20
145.03668312023936
 30
0.0
 10
37.173693617752576
 20
145.48302458365401
 30
0.0
 10
38.216210123783554
 20
145.70619531536133
 30
0.0
 10
38.701154869801563
 20
145.99324050594916
 30
0.0
 10
38.754308570002905
 20
146.05711496482971
 30
0.0
 10
38.754268128279492
 20
146.1209894237102
 30
0.0
  0
SPLINE
  5
1F5
100
AcDbEntity
  8
DV1__F_T_H___G
370
         0
390
0
  6
CONTINUOUS
 62
         7
100
AcDbSpline
210
0.0
220
0.0
230
1.0
 70
         8
 71
         3
 72
        18
 73
        14
 74
         0
 42
0.0
 43
0.0
 40
0.0
 40
0.0
 40
0.0
 40
0.0
 40
0.1704631713719853
 40
0.1704631713719853
 40
0.3657205261984892
 40
0.3657205261984892
 40
0.5609778810249892
 40
0.5609778810249892
 40
0.7562352358514944
 40
0.7562352358514944
 40
0.9514925906779983
 40
0.9514925906779983
 40
1.0
 40
1.0
 40
1.0
 40
1.0
 10
23.559060019212929
 20
148.69243087320368
 30
0.0
 10
22.85111859128569
 20
148.8872629230286
 30
0.0
 10
22.599436851090392
 20
149.0820949728535
 30
0.0
 10
23.160494283719245
 20
149.50009775438571
 30
0.0
 10
24.131023344494018
 20
149.72326848609305
 30
0.0
 10
26.969722918592009
 20
150.16960994950767
 30
0.0
 10
28.826726446101027
 20
150.39278068121499
 30
0.0
 10
32.565878175456476
 20
150.83912214462964
 30
0.0
 10
34.433317158088684
 20
151.06229287633693
 30
0.0
 10
37.308981051891607
 20
151.50863433975158
 30
0.0
 10
38.305893565582352
 20
151.73180507145889
 30
0.0
 10
38.715119136441807
 20
152.01041767904962
 30
0.0
 10
38.755097132608817
 20
152.06585955493307
 30
0.0
 10
38.754827205989187
 20
152.12130143081649
 30
0.0
  0
SPLINE
  5
1F6
100
AcDbEntity
  8
DV1__F_T_H___G
370
         0
390
0
  6
CONTINUOUS
 62
         7
100
AcDbSpline
210
0.0
220
0.0
230
1.0
 70
         8
 71
         3
 72
        18
 73
        14
 74
         0
 42
0.0
 43
0.0
 40
0.0
 40
0.0
 40
0.0
 40
0.0
 40
0.1775637018167084
 40
0.1775637018167084
 40
0.3729498175599331
 40
0.3729498175599331
 40
0.5683359333031539
 40
0.5683359333031539
 40
0.7637220490463785
 40
0.7637220490463785
 40
0.9591081647895994
 40
0.9591081647895994
 40
1.0
 40
1.0
 40
1.0
 40
1.0
 10
23.552574860944866
 20
154.69409506158908
 30
0.0
 10
22.817605869708991
 20
154.89690896731804
 30
0.0
 10
22.581058011401755
 20
155.09972287304703
 30
0.0
 10
23.247083295648064
 20
155.52570751048327
 30
0.0
 10
24.263630093841581
 20
155.74887824219061
 30
0.0
 10
27.16657450518456
 20
156.19521970560524
 30
0.0
 10
29.041552403702529
 20
156.41839043731252
 30
0.0
 10
32.780127855413689
 20
156.86473190072721
 30
0.0
 10
34.629018456375896
 20
157.08790263243449
 30
0.0
 10
37.439556815878376
 20
157.53424409584915
 30
0.0
 10
38.390148370276087
 20
157.75741482755646
 30
0.0
 10
38.72671324419516
 20
158.02729236209899
 30
0.0
 10
38.75541905939069
 20
158.07399916493424
 30
0.0
 10
38.755413808257686
 20
158.12070596776945
 30
0.0
  0
SPLINE
  5
1F7
100
AcDbEntity
  8
DV1__F_T_H___G
370
         0
390
0
  6
CONTINUOUS
 62
         7
100
AcDbSpline
210
0.0
220
0.0
230
1.0
 70
         8
 71
         3
 72
        18
 73
        14
 74
         0
 42
0.0
 43
0.0
 40
0.0
 40
0.0
 40
0.0
 40
0.0
 40
0.0419194089870521
 40
0.0419194089870521
 40
0.237091855774275
 40
0.237091855774275
 40
0.4322643025614928
 40
0.4322643025614928
 40
0.6274367493487105
 40
0.6274367493487105
 40
0.8226091961359334
 40
0.8226091961359334
 40
1.0
 40
1.0
 40
1.0
 40
1.0
 10
187.96133218855465
 20
166.8524330981887
 30
0.0
 10
188.13667742329974
 20
166.80450017870967
 30
0.0
 10
188.28482098775379
 20
166.75656725923062
 30
0.0
 10
188.95347483578988
 20
166.48546360804428
 30
0.0
 10
188.85096384969248
 20
166.26229287633694
 30
0.0
 10
187.38698805649929
 20
165.81595141292232
 30
0.0
 10
186.03128229381389
 20
165.59278068121503
 30
0.0
 10
182.69309654769017
 20
165.14643921780041
 30
0.0
 10
180.72374844802437
 20
164.92326848609306
 30
0.0
 10
177.08613755593865
 20
164.47692702267841
 30
0.0
 10
175.43218453747306
 20
164.2537562909711
 30
0.0
 10
173.31236133532929
 20
163.82774731980854
 30
0.0
 10
172.75919434907271
 20
163.62490908035326
 30
0.0
 10
172.75814038312191
 20
163.42207084089802
 30
0.0
  0
SPLINE
  5
1F8
100
AcDbEntity
  8
DV1__F_T_H___G
370
         0
390
0
  6
CONTINUOUS
 62
         7
100
AcDbSpline
210
0.0
220
0.0
230
1.0
 70
         8
 71
         3
 72
        18
 73
        14
 74
         0
 42
0.0
 43
0.0
 40
0.0
 40
0.0
 40
0.0
 40
0.0
 40
0.049600570263772
 40
0.049600570263772
 40
0.2446667712900479
 40
0.2446667712900479
 40
0.439732972316329
 40
0.439732972316329
 40
0.6347991733426048
 40
0.6347991733426048
 40
0.8298653743688808
 40
0.8298653743688808
 40
1.0
 40
1.0
 40
1.0
 40
1.0
 10
187.95777439356942
 20
160.85326518147099
 30
0.0
 10
188.16571364801425
 20
160.79651831553201
 30
0.0
 10
188.33572293749953
 20
160.73977144959304
 30
0.0
 10
188.9657716605436
 20
160.45985385194672
 30
0.0
 10
188.81019746353266
 20
160.23668312023943
 30
0.0
 10
187.25448314958058
 20
159.79034165682475
 30
0.0
 10
185.86046296157909
 20
159.56717092511747
 30
0.0
 10
182.47829892751005
 20
159.12082946170281
 30
0.0
 10
180.50345996869942
 20
158.89765872999547
 30
0.0
 10
176.89037772192367
 20
158.45131726658084
 30
0.0
 10
175.26634771618234
 20
158.22814653487356
 30
0.0
 10
173.26354192661182
 20
157.81032871058389
 30
0.0
 10
172.75854128454949
 20
157.61568161800156
 30
0.0
 10
172.7585937469058
 20
157.42103452541923
 30
0.0
  0
SPLINE
  5
1F9
100
AcDbEntity
  8
DV1__F_T_H___G
370
         0
390
0
  6
CONTINUOUS
 62
         7
100
AcDbSpline
210
0.0
220
0.0
230
1.0
 70
         8
 71
         3
 72
        18
 73
        14
 74
         0
 42
0.0
 43
0.0
 40
0.0
 40
0.0
 40
0.0
 40
0.0
 40
0.0570850247727125
 40
0.0570850247727125
 40
0.2521749524425652
 40
0.2521749524425652
 40
0.4472648801124178
 40
0.4472648801124178
 40
0.6423548077822756
 40
0.6423548077822756
 40
0.8374447354521283
 40
0.8374447354521283
 40
1.0
 40
1.0
 40
1.0
 40
1.0
 10
187.95707656417716
 20
154.85331997089551
 30
0.0
 10
188.19630926951891
 20
154.78801825644916
 30
0.0
 10
188.38551615597365
 20
154.72271654200281
 30
0.0
 10
188.97216527215826
 20
154.43424409584915
 30
0.0
 10
188.76363975124136
 20
154.21107336414184
 30
0.0
 10
187.11730576671599
 20
153.76473190072721
 30
0.0
 10
185.68597371520073
 20
153.5415611690199
 30
0.0
 10
182.26226380305999
 20
153.09521970560525
 30
0.0
 10
180.28335426446816
 20
152.87204897389793
 30
0.0
 10
176.69739914635264
 20
152.42570751048328
 30
0.0
 10
175.10446013530824
 20
152.20253677877599
 30
0.0
 10
173.21941075435257
 20
151.79341294449017
 30
0.0
 10
172.76028302942777
 20
151.60745984191166
 30
0.0
 10
172.75912976630929
 20
151.42150673933315
 30
0.0
  0
SPLINE
  5
1FA
100
AcDbEntity
  8
DV1__F_T_H___G
370
         0
390
0
  6
CONTINUOUS
 62
         7
100
AcDbSpline
210
0.0
220
0.0
230
1.0
 70
         8
 71
         3
 72
        18
 73
        14
 74
         0
 42
0.0
 43
0.0
 40
0.0
 40
0.0
 40
0.0
 40
0.0
 40
0.0641370348781318
 40
0.0641370348781318
 40
0.2592656511764935
 40
0.2592656511764935
 40
0.45439426747485
 40
0.45439426747485
 40
0.6495228837732064
 40
0.6495228837732064
 40
0.8446515000715681
 40
0.8446515000715681
 40
0.9999999999999999
 40
0.9999999999999999
 40
0.9999999999999999
 40
0.9999999999999999
 10
187.96192521210239
 20
148.8518677553669
 30
0.0
 10
188.2296776595677
 20
148.77851352739756
 30
0.0
 10
188.43446387860158
 20
148.70515929942823
 30
0.0
 10
188.97265107242882
 20
148.40863433975159
 30
0.0
 10
188.71132419654026
 20
148.1854636080443
 30
0.0
 10
186.97555456415571
 20
147.73912214462965
 30
0.0
 10
185.50794004515208
 20
147.51595141292231
 30
0.0
 10
182.04514654408658
 20
147.06960994950768
 30
0.0
 10
180.06358963258708
 20
146.84643921780039
 30
0.0
 10
176.50734061699222
 20
146.40009775438574
 30
0.0
 10
174.94663822236495
 20
146.17692702267843
 30
0.0
 10
173.17560653108484
 20
145.77608251325285
 30
0.0
 10
172.7597639395068
 20
145.5984087355346
 30
0.0
 10
172.75970442621039
 20
145.42073495781636
 30
0.0
  0
SPLINE
  5
1FB
100
AcDbEntity
  8
DV1__F_T_H___G
370
         0
390
0
  6
CONTINUOUS
 62
         7
100
AcDbSpline
210
0.0
220
0.0
230
1.0
 70
         8
 71
         3
 72
        18
 73
        14
 74
         0
 42
0.0
 43
0.0
 40
0.0
 40
0.0
 40
0.0
 40
0.0
 40
0.071632524311332
 40
0.071632524311332
 40
0.2667813841525654
 40
0.2667813841525654
 40
0.461930243993804
 40
0.461930243993804
 40
0.6570791038350374
 40
0.6570791038350374
 40
0.8522279636762709
 40
0.8522279636762709
 40
1.0
 40
1.0
 40
1.0
 40
1.0
 10
187.96121576078437
 20
142.85195052311826
 30
0.0
 10
188.26006169032436
 20
142.77003212053262
 30
0.0
 10
188.48060640925672
 20
142.68811371794698
 30
0.0
 10
188.96722871197372
 20
142.38302458365405
 30
0.0
 10
188.65328842411887
 20
142.15985385194671
 30
0.0
 10
186.82933148758335
 20
141.71351238853208
 30
0.0
 10
185.32648999101158
 20
141.49034165682477
 30
0.0
 10
181.82710329859435
 20
141.04400019341011
 30
0.0
 10
179.84432412501803
 20
140.82082946170283
 30
0.0
 10
176.3203388215486
 20
140.37448799828817
 30
0.0
 10
174.79299548088912
 20
140.15131726658086
 30
0.0
 10
173.13579978302556
 20
139.7591555733118
 30
0.0
 10
172.76094865771404
 20
139.59016461175008
 30
0.0
 10
172.76029171338331
 20
139.42117365018836
 30
0.0
  0
SPLINE
  5
1FC
100
AcDbEntity
  8
DV1__F_T_H___G
370
         0
390
0
  6
CONTINUOUS
 62
         7
100
AcDbSpline
210
0.0
220
0.0
230
1.0
 70
         8
 71
         3
 72
        18
 73
        14
 74
         0
 42
0.0
 43
0.0
 40
0.0
 40
0.0
 40
0.0
 40
0.0
 40
0.0794622904429612
 40
0.0794622904429612
 40
0.2745199363657875
 40
0.2745199363657875
 40
0.4695775822886137
 40
0.4695775822886137
 40
0.6646352282114452
 40
0.6646352282114452
 40
0.8596928741342766
 40
0.8596928741342766
 40
1.0
 40
1.0
 40
1.0
 40
1.0
 10
187.95584464013606
 20
136.85333043041297
 30
0.0
 10
188.28819001454576
 20
136.76241547336323
 30
0.0
 10
188.52437805128548
 20
136.6715005163135
 30
0.0
 10
188.95590209048652
 20
136.35741482755648
 30
0.0
 10
188.58957417257548
 20
136.13424409584914
 30
0.0
 10
186.67874169879821
 20
135.68790263243451
 30
0.0
 10
185.14175404937828
 20
135.46473190072723
 30
0.0
 10
181.6082908805457
 20
135.01839043731258
 30
0.0
 10
179.62571543475869
 20
134.79521970560526
 30
0.0
 10
176.13652824936298
 20
134.34887824219061
 30
0.0
 10
174.64364240880951
 20
134.12570751048329
 30
0.0
 10
173.09721522664526
 20
133.74200759882476
 30
0.0
 10
172.76094620477605
 20
133.58147841887359
 30
0.0
 10
172.76085652903342
 20
133.42094923892236
 30
0.0
  0
SPLINE
  5
1FD
100
AcDbEntity
  8
DV1__F_T_H___G
370
         0
390
0
  6
CONTINUOUS
 62
         7
100
AcDbSpline
210
0.0
220
0.0
230
1.0
 70
         8
 71
         3
 72
        18
 73
        14
 74
         0
 42
0.0
 43
0.0
 40
0.0
 40
0.0
 40
0.0
 40
0.0
 40
0.0864814625848137
 40
0.0864814625848137
 40
0.2816516036645335
 40
0.2816516036645335
 40
0.4768217447442585
 40
0.4768217447442585
 40
0.6719918858239887
 40
0.6719918858239887
 40
0.8671620269037241
 40
0.8671620269037241
 40
1.0
 40
1.0
 40
1.0
 40
1.0
 10
187.96175757186481
 20
130.85164205309667
 30
0.0
 10
188.32159457958539
 20
130.75275330311985
 30
0.0
 10
188.56772931831699
 20
130.65386455314305
 30
0.0
 10
188.93867935393104
 20
130.33180507145892
 30
0.0
 10
188.52022726439915
 20
130.10863433975157
 30
0.0
 10
186.52389350008397
 20
129.66229287633698
 30
0.0
 10
184.95386508001977
 20
129.43912214462966
 30
0.0
 10
181.38886665708193
 20
128.99278068121504
 30
0.0
 10
179.40792078243223
 20
128.7696099495077
 30
0.0
 10
175.95604109468934
 20
128.32326848609304
 30
0.0
 10
174.49868641897899
 20
128.10009775438576
 30
0.0
 10
173.06146405356222
 20
127.72503110514511
 30
0.0
 10
172.76149239036525
 20
127.57313518761177
 30
0.0
 10
172.76137450022136
 20
127.42123927007844
 30
0.0
  0
SPLINE
  5
1FE
100
AcDbEntity
  8
DV1__F_T_H___G
370
         0
390
0
  6
CONTINUOUS
 62
         7
100
AcDbSpline
210
0.0
220
0.0
230
1.0
 70
         8
 71
         3
 72
        18
 73
        14
 74
         0
 42
0.0
 43
0.0
 40
0.0
 40
0.0
 40
0.0
 40
0.0
 40
0.0937909501562097
 40
0.0937909501562097
 40
0.28902407361601
 40
0.28902407361601
 40
0.4842571970758052
 40
0.4842571970758052
 40
0.6794903205356004
 40
0.6794903205356004
 40
0.8747234439954059
 40
0.8747234439954059
 40
1.0
 40
1.0
 40
1.0
 40
1.0
 10
187.96392888661401
 20
124.85100298965742
 30
0.0
 10
188.3531000545139
 20
124.74379067546118
 30
0.0
 10
188.60868729997225
 20
124.63657836126494
 30
0.0
 10
188.9155728886831
 20
124.30619531536135
 30
0.0
 10
188.44529757301493
 20
124.08302458365402
 30
0.0
 10
186.36489825631938
 20
123.6366831202394
 30
0.0
 10
184.76295821032181
 20
123.41351238853207
 30
0.0
 10
181.1689884353473
 20
122.96717092511747
 30
0.0
 10
179.19109680321577
 20
122.74400019341014
 30
0.0
 10
175.77900716162142
 20
122.29765872999552
 30
0.0
 10
174.35823176192409
 20
122.07448799828821
 30
0.0
 10
173.02801340500318
 20
121.70811379693463
 30
0.0
 10
172.76207104580823
 20
121.56491032728836
 30
0.0
 10
172.76182172262645
 20
121.42170685764212
 30
0.0
  0
SPLINE
  5
1FF
100
AcDbEntity
  8
DV1__F_T_H___G
370
         0
390
0
  6
CONTINUOUS
 62
         7
100
AcDbSpline
210
0.0
220
0.0
230
1.0
 70
         8
 71
         3
 72
        18
 73
        14
 74
         0
 42
0.0
 43
0.0
 40
0.0
 40
0.0
 40
0.0
 40
0.0
 40
0.1014736037290423
 40
0.1014736037290423
 40
0.2966692877618116
 40
0.2966692877618116
 40
0.4918649717945913
 40
0.4918649717945913
 40
0.6870606558273658
 40
0.6870606558273658
 40
0.8822563398601351
 40
0.8822563398601351
 40
1.0
 40
1.0
 40
1.0
 40
1.0
 10
187.96096700779873
 20
118.85180607248247
 30
0.0
 10
188.38234407536567
 20
118.73578947864534
 30
0.0
 10
188.64737650780637
 20
118.61977288480821
 30
0.0
 10
188.88659931262197
 20
118.2805855592638
 30
0.0
 10
188.3648389869152
 20
118.05741482755647
 30
0.0
 10
186.20187031488607
 20
117.61107336414184
 30
0.0
 10
184.56917073810641
 20
117.38790263243453
 30
0.0
 10
180.94881434899594
 20
116.94156116901991
 30
0.0
 10
178.97539943419042
 20
116.71839043731255
 30
0.0
 10
175.60555377073908
 20
116.27204897389795
 30
0.0
 10
174.222379450869
 20
116.04887824219063
 30
0.0
 10
172.99623402162212
 20
115.69108906890497
 30
0.0
 10
172.76208452839657
 20
115.55647062732665
 30
0.0
 10
172.76217871150129
 20
115.42185218574831
 30
0.0
  0
SPLINE
  5
200
100
AcDbEntity
  8
DV1__F_T_H___G
370
         0
390
0
  6
CONTINUOUS
 62
         7
100
AcDbSpline
210
0.0
220
0.0
230
1.0
 70
         8
 71
         3
 72
        18
 73
        14
 74
         0
 42
0.0
 43
0.0
 40
0.0
 40
0.0
 40
0.0
 40
0.0
 40
0.1090322609105839
 40
0.1090322609105839
 40
0.3042515139741326
 40
0.3042515139741326
 40
0.499470767037671
 40
0.499470767037671
 40
0.6946900201012196
 40
0.6946900201012196
 40
0.8899092731647683
 40
0.8899092731647683
 40
0.9999999999999999
 40
0.9999999999999999
 40
0.9999999999999999
 40
0.9999999999999999
 10
187.96004779430984
 20
112.85207701148281
 30
0.0
 10
188.41251048663844
 20
112.72743351927973
 30
0.0
 10
188.68441850747973
 20
112.60279002707665
 30
0.0
 10
188.85177946317967
 20
112.25497580316623
 30
0.0
 10
188.27890937090407
 20
112.03180507145893
 30
0.0
 10
186.03492692343065
 20
111.58546360804431
 30
0.0
 10
184.37264203288842
 20
111.36229287633695
 30
0.0
 10
180.72850274446427
 20
110.91595141292233
 30
0.0
 10
178.76098380219375
 20
110.69278068121503
 30
0.0
 10
175.43580566754147
 20
110.24643921780039
 30
0.0
 10
174.0912271890887
 20
110.02326848609306
 30
0.0
 10
172.96709623817785
 20
109.67424424518289
 30
0.0
 10
172.76256388154295
 20
109.54839073598004
 30
0.0
 10
172.76243121788653
 20
109.42253722677718
 30
0.0
  0
SPLINE
  5
201
100
AcDbEntity
  8
DV1__F_T_H___G
370
         0
390
0
  6
CONTINUOUS
 62
         7
100
AcDbSpline
210
0.0
220
0.0
230
1.0
 70
         8
 71
         3
 72
        18
 73
        14
 74
         0
 42
0.0
 43
0.0
 40
0.0
 40
0.0
 40
0.0
 40
0.0
 40
0.1161594614443988
 40
0.1161594614443988
 40
0.311472394971685
 40
0.311472394971685
 40
0.5067853284989713
 40
0.5067853284989713
 40
0.7020982620262523
 40
0.7020982620262523
 40
0.8974111955535437
 40
0.8974111955535437
 40
1.0
 40
1.0
 40
1.0
 40
1.0
 10
187.9651367217256
 20
106.85071919614757
 30
0.0
 10
188.44502518204393
 20
106.71799172369037
 30
0.0
 10
188.71976863785812
 20
106.58526425123317
 30
0.0
 10
188.81113838235424
 20
106.22936604706868
 30
0.0
 10
188.18757052448171
 20
106.00619531536137
 30
0.0
 10
185.86418814554267
 20
105.55985385194671
 30
0.0
 10
184.17351343564297
 20
105.33668312023941
 30
0.0
 10
180.5082120670896
 20
104.89034165682479
 30
0.0
 10
178.54800411225403
 20
104.66717092511746
 30
0.0
 10
175.26988493273157
 20
104.22082946170283
 30
0.0
 10
173.964869299642
 20
103.99765872999551
 30
0.0
 10
172.9395263892516
 20
103.65726678748652
 30
0.0
 10
172.76246301062611
 20
103.54004557668483
 30
0.0
 10
172.76256884290237
 20
103.42282436588317
 30
0.0
  0
SPLINE
  5
202
100
AcDbEntity
  8
DV1__F_T_H___G
370
         0
390
0
  6
CONTINUOUS
 62
         7
100
AcDbSpline
210
0.0
220
0.0
230
1.0
 70
         8
 71
         3
 72
        10
 73
         6
 74
         0
 42
0.0
 43
0.0
 40
0.0
 40
0.0
 40
0.0
 40
0.0
 40
0.9921210107789912
 40
0.9921210107789912
 40
1.0
 40
1.0
 40
1.0
 40
1.0
 10
187.9645608409528
 20
100.85095323445272
 30
0.0
 10
188.47534085815877
 20
100.7096111638613
 30
0.0
 10
188.75300582436924
 20
100.56826909326985
 30
0.0
 10
188.75757839439373
 20
100.42580454604648
 30
0.0
 10
188.75759719442908
 20
100.42468206941453
 30
0.0
 10
188.75759878689547
 20
100.42355959278258
 30
0.0
  0
LINE
  5
203
100
AcDbEntity
  8
DV1__F_T_H___G
370
         0
390
0
  6
CONTINUOUS
 62
         7
100
AcDbLine
 10
172.7597044345
 20
145.4207546629
 30
0.0
 11
172.7597044345
 21
142.4207546629
 31
0.0
  0
LINE
  5
204
100
AcDbEntity
  8
DV1__F_T_H___G
370
         0
390
0
  6
CONTINUOUS
 62
         7
100
AcDbLine
 10
23.5579405583
 20
131.2743808274
 30
0.0
 11
23.5579405583
 21
129.4739368346
 31
0.0
  0
LINE
  5
205
100
AcDbEntity
  8
DV1__F_T_H___G
370
         0
390
0
  6
CONTINUOUS
 62
         7
100
AcDbLine
 10
23.5579405583
 20
128.772611922
 30
0.0
 11
23.5579405583
 21
128.551303965
 31
0.0
  0
LINE
  5
206
100
AcDbEntity
  8
DV1__F_T_H___G
370
         0
390
0
  6
CONTINUOUS
 62
         7
100
AcDbLine
 10
188.7528316191
 20
163.4240702678
 30
0.0
 11
188.7528316191
 21
166.4240702678
 31
0.0
  0
LINE
  5
207
100
AcDbEntity
  8
DV1__F_T_H___G
370
         0
390
0
  6
CONTINUOUS
 62
         7
100
AcDbLine
 10
172.7585937436
 20
157.4210784213
 30
0.0
 11
172.7585937436
 21
154.4210784213
 31
0.0
  0
LINE
  5
208
100
AcDbEntity
  8
DV1__F_T_H___G
370
         0
390
0
  6
CONTINUOUS
 62
         7
100
AcDbLine
 10
172.7608565535
 20
133.4209837414
 30
0.0
 11
172.7608565535
 21
130.4209837414
 31
0.0
  0
LINE
  5
209
100
AcDbEntity
  8
DV1__F_T_H___G
370
         0
390
0
  6
CONTINUOUS
 62
         7
100
AcDbLine
 10
23.5597967259
 20
155.2768851752
 30
0.0
 11
23.5597967259
 21
152.5513996989
 31
0.0
  0
LINE
  5
20A
100
AcDbEntity
  8
DV1__F_T_H___G
370
         0
390
0
  6
CONTINUOUS
 62
         7
100
AcDbLine
 10
188.7545033608
 20
139.4255242235
 30
0.0
 11
188.7545033608
 21
142.4255242235
 31
0.0
  0
LINE
  5
20B
100
AcDbEntity
  8
DV1__F_T_H___G
370
         0
390
0
  6
CONTINUOUS
 62
         7
100
AcDbLine
 10
23.5587626011
 20
143.2796380282
 30
0.0
 11
23.5587626011
 21
140.5515492591
 31
0.0
  0
LINE
  5
20C
100
AcDbEntity
  8
DV1__F_T_H___G
370
         0
390
0
  6
CONTINUOUS
 62
         7
100
AcDbLine
 10
188.7534995549
 20
151.4248483238
 30
0.0
 11
188.7534995549
 21
154.4248483238
 31
0.0
  0
LINE
  5
20D
100
AcDbEntity
  8
DV1__F_T_H___G
370
         0
390
0
  6
CONTINUOUS
 62
         7
100
AcDbLine
 10
173.5617209282
 20
112.4218960268
 30
0.0
 11
173.5617209282
 21
109.8532290115
 31
0.0
  0
LINE
  5
20E
100
AcDbEntity
  8
DV1__F_T_H___G
370
         0
390
0
  6
CONTINUOUS
 62
         7
100
AcDbLine
 10
188.7556648256
 20
127.4256664996
 30
0.0
 11
188.7556648256
 21
130.4256664996
 31
0.0
  0
LINE
  5
20F
100
AcDbEntity
  8
DV1__F_T_H___G
370
         0
390
0
  6
CONTINUOUS
 62
         7
100
AcDbLine
 10
173.5600219423
 20
136.4208628555
 30
0.0
 11
173.5600219423
 21
133.8523174387
 31
0.0
  0
LINE
  5
210
100
AcDbEntity
  8
DV1__F_T_H___G
370
         0
390
0
  6
CONTINUOUS
 62
         7
100
AcDbLine
 10
188.7574704239
 20
103.4241365189
 30
0.0
 11
188.7574704239
 21
106.4241365189
 31
0.0
  0
LINE
  5
211
100
AcDbEntity
  8
DV1__F_T_H___G
370
         0
390
0
  6
CONTINUOUS
 62
         7
100
AcDbLine
 10
38.754827369
 20
152.1212668718
 30
0.0
 11
38.754827369
 21
155.1212668718
 31
0.0
  0
LINE
  5
212
100
AcDbEntity
  8
DV1__F_T_H___G
370
         0
390
0
  6
CONTINUOUS
 62
         7
100
AcDbLine
 10
173.5609974599
 20
124.4214419252
 30
0.0
 11
173.5609974599
 21
121.8535457046
 31
0.0
  0
LINE
  5
213
100
AcDbEntity
  8
DV1__F_T_H___G
370
         0
390
0
  6
CONTINUOUS
 62
         7
100
AcDbLine
 10
188.756748068
 20
115.425388183
 30
0.0
 11
188.756748068
 21
118.425388183
 31
0.0
  0
SPLINE
  5
214
100
AcDbEntity
  8
DV1__F_T_H___G
370
         0
390
0
  6
CONTINUOUS
 62
         7
100
AcDbSpline
210
0.0
220
0.0
230
1.0
 70
        12
 71
         2
 72
        10
 73
         7
 74
         0
 42
0.0
 43
0.0
 40
0.0
 40
0.0
 40
0.0
 40
0.2549250643780597
 40
0.2549250643780597
 40
0.6274625321890299
 40
0.6274625321890299
 40
1.0
 40
1.0
 40
1.0
 10
37.576740816944053
 20
130.57034674547543
 30
0.0
 41
0.9421133791115934
 10
36.706346083040309
 20
130.3240782086163
 30
0.0
 41
0.9083220198871208
 10
34.357601079789205
 20
130.10660181942637
 30
0.0
 41
1.0
 10
30.757601079789197
 20
129.77326848609306
 30
0.0
 41
0.8660254037844387
 10
27.157601079789206
 20
129.43993515275972
 30
0.0
 41
1.0
 10
23.557601079789215
 20
129.10660181942637
 30
0.0
 41
0.8660254037844387
 10
23.557601079789215
 20
128.77326848609306
 30
0.0
 41
1.0
  0
LINE
  5
215
100
AcDbEntity
  8
DV1__F_T_H___G
370
         0
390
0
  6
CONTINUOUS
 62
         7
100
AcDbLine
 10
23.5576010798
 20
129.4732684861
 30
0.0
 11
23.5576010798
 21
128.7732684861
 31
0.0
  0
LINE
  5
216
100
AcDbEntity
  8
DV1__F_T_H___G
370
         0
390
0
  6
CONTINUOUS
 62
         7
100
AcDbLine
 10
37.9576010798
 20
127.1232684861
 30
0.0
 11
37.9576010798
 21
127.4732684861
 31
0.0
  0
SPLINE
  5
217
100
AcDbEntity
  8
DV1__F_T_H___G
370
         0
390
0
  6
CONTINUOUS
 62
         7
100
AcDbSpline
210
0.0
220
0.0
230
1.0
 70
        12
 71
         2
 72
         6
 73
         3
 74
         0
 42
0.0
 43
0.0
 40
0.0
 40
0.0
 40
0.0
 40
0.9999999999999999
 40
0.9999999999999999
 40
0.9999999999999999
 10
23.938326682297951
 20
129.67615212300655
 30
0.0
 41
0.9421188028123799
 10
23.557601079789215
 20
129.56841275774281
 30
0.0
 41
0.9577107402138824
 10
23.557601079789215
 20
129.47326848609305
 30
0.0
 41
1.0
  0
SPLINE
  5
218
100
AcDbEntity
  8
DV1__F_T_H___G
370
         0
390
0
  6
CONTINUOUS
 62
         7
100
AcDbSpline
210
0.0
220
0.0
230
1.0
 70
        12
 71
         2
 72
         6
 73
         3
 74
         0
 42
0.0
 43
0.0
 40
0.0
 40
0.0
 40
0.0
 40
1.0
 40
1.0
 40
1.0
 10
37.9576010797892
 20
127.47326848609306
 30
0.0
 41
1.0
 10
37.9576010797892
 20
127.31080000806472
 30
0.0
 41
0.9298849255803483
 10
36.900966411589728
 20
127.12325628980136
 30
0.0
 41
0.9331587442753793
  0
SPLINE
  5
219
100
AcDbEntity
  8
DV1__F_T_H___G
370
         0
390
0
  6
CONTINUOUS
 62
         7
100
AcDbSpline
210
0.0
220
0.0
230
1.0
 70
        12
 71
         2
 72
         8
 73
         5
 74
         0
 42
0.0
 43
0.0
 40
0.0
 40
0.0
 40
0.0
 40
0.5592122053412143
 40
0.5592122053412143
 40
1.0
 40
1.0
 40
1.0
 10
187.86708551259244
 20
102.96789050437678
 30
0.0
 41
0.9389145339470458
 10
187.65712727486678
 20
102.84644718220663
 30
0.0
 41
0.9528960563184402
 10
186.99298398703715
 20
102.73993515275973
 30
0.0
 41
1.0
 10
186.47490973194706
 20
102.65684895536072
 30
0.0
 41
0.9628712620060618
 10
185.72482996255945
 20
102.56360785484097
 30
0.0
 41
0.9463216968398509
  0
LINE
  5
21A
100
AcDbEntity
  8
DV1__F_T_H___G
370
         0
390
0
  6
HIDDEN2
 62
         7
100
AcDbLine
 10
41.2351010798
 20
83.3232684861
 30
0.0
 11
20.2801010798
 21
83.3232684861
 31
0.0
  0
LINE
  5
21B
100
AcDbEntity
  8
DV1__F_T_H___G
370
         0
390
0
  6
CONTINUOUS
 62
         7
100
AcDbLine
 10
39.2576010798
 20
127.1232684861
 30
0.0
 11
22.2576010798
 21
127.1232684861
 31
0.0
  0
LINE
  5
21C
100
AcDbEntity
  8
DV1__F_T_H___G
370
         0
390
0
  6
CONTINUOUS
 62
         7
100
AcDbLine
 10
189.2576010798
 20
91.4232684861
 30
0.0
 11
189.2576010798
 21
100.4232684861
 31
0.0
  0
LINE
  5
21D
100
AcDbEntity
  8
DV1__F_T_H___G
370
         0
390
0
  6
CONTINUOUS
 62
         7
100
AcDbLine
 10
189.2576010798
 20
100.4232684861
 30
0.0
 11
172.2576010798
 21
100.4232684861
 31
0.0
  0
LINE
  5
21E
100
AcDbEntity
  8
DV1__F_T_H___G
370
         0
390
0
  6
CONTINUOUS
 62
         7
100
AcDbLine
 10
172.2576010798
 20
100.4232684861
 30
0.0
 11
172.2576010798
 21
91.4232684861
 31
0.0
  0
ARC
  5
21F
100
AcDbEntity
  8
DV1__F_T_H___G
370
         0
390
0
  6
CONTINUOUS
 62
         7
100
AcDbCircle
 10
178.7576010798
 20
84.4232684861
 30
0.0
 40
15.0
100
AcDbArc
 50
332.1818607153
 51
27.8181392847
  0
ARC
  5
220
100
AcDbEntity
  8
DV1__F_T_H___G
370
         0
390
0
  6
CONTINUOUS
 62
         7
100
AcDbCircle
 10
182.7576010798
 20
84.4232684861
 30
0.0
 40
15.0
100
AcDbArc
 50
152.1818607153
 51
207.8181392847
  0
SPLINE
  5
221
100
AcDbEntity
  8
DV1__F_T_H___G
370
         0
390
0
  6
CONTINUOUS
 62
         7
100
AcDbSpline
210
0.0
220
0.0
230
1.0
 70
         8
 71
         3
 72
        28
 73
        24
 74
         0
 42
0.0
 43
0.0
 40
0.0
 40
0.0
 40
0.0
 40
0.0
 40
0.1249999999999998
 40
0.1249999999999998
 40
0.1874999999999997
 40
0.1874999999999997
 40
0.2499999999999997
 40
0.2499999999999997
 40
0.3124999999999997
 40
0.3124999999999997
 40
0.3749999999999998
 40
0.3749999999999998
 40
0.4999999999999998
 40
0.4999999999999998
 40
0.6249999999999998
 40
0.6249999999999998
 40
0.7499999999999998
 40
0.7499999999999998
 40
0.8124999999999999
 40
0.8124999999999999
 40
0.875
 40
0.875
 40
1.0
 40
1.0
 40
1.0
 40
1.0
 10
187.68580431006467
 20
84.42326848609261
 30
0.0
 10
187.68580431006464
 20
86.085485653939614
 30
0.0
 10
187.98787187089437
 20
87.72635027879025
 30
0.0
 10
188.80926826470349
 20
89.565993428795764
 30
0.0
 10
189.14513408820224
 20
90.074999201125109
 30
0.0
 10
189.88785740970084
 20
90.770616221921642
 30
0.0
 10
190.30126704158519
 20
90.960013821032547
 30
0.0
 10
191.12170786953507
 20
90.963198995133254
 30
0.0
 10
191.53457616707078
 20
90.77857797529596
 30
0.0
 10
192.28468095540492
 20
90.081335749733398
 30
0.0
 10
192.62049608118005
 20
89.573816389961763
 30
0.0
 10
193.44787968239984
 20
87.724306400999737
 30
0.0
 10
193.74737704619488
 20
86.06923548981446
 30
0.0
 10
193.74858533036468
 20
82.787603341953613
 30
0.0
 10
193.44645817508169
 20
81.125854832254518
 30
0.0
 10
192.357855275638
 20
78.678891675790538
 30
0.0
 10
191.55274600289272
 20
77.890492625896755
 30
0.0
 10
190.31296973424986
 20
77.882180733282709
 30
0.0
 10
189.90052509613858
 20
78.067078571677911
 30
0.0
 10
189.14977082626061
 20
78.764241944600769
 30
0.0
 10
188.81350296713211
 20
79.273151792103874
 30
0.0
 10
187.9901701892459
 20
81.1108950475233
 30
0.0
 10
187.68580431006473
 20
82.761051318245578
 30
0.0
 10
187.68580431006467
 20
84.42326848609261
 30
0.0
  0
SPLINE
  5
222
100
AcDbEntity
  8
DV1__F_T_H___G
370
         0
390
0
  6
CONTINUOUS
 62
         7
100
AcDbSpline
210
0.0
220
0.0
230
1.0
 70
         8
 71
         3
 72
        28
 73
        24
 74
         0
 42
0.0
 43
0.0
 40
0.0
 40
0.0
 40
0.0
 40
0.0
 40
0.1249999999999999
 40
0.1249999999999999
 40
0.1874999999999998
 40
0.1874999999999998
 40
0.2499999999999998
 40
0.2499999999999998
 40
0.3124999999999998
 40
0.3124999999999998
 40
0.3749999999999998
 40
0.3749999999999998
 40
0.4999999999999998
 40
0.4999999999999998
 40
0.6249999999999998
 40
0.6249999999999998
 40
0.7499999999999998
 40
0.7499999999999998
 40
0.8124999999999999
 40
0.8124999999999999
 40
0.8749999999999999
 40
0.8749999999999999
 40
1.0
 40
1.0
 40
1.0
 40
1.0
 10
173.82939784951355
 20
84.42326848609261
 30
0.0
 10
173.8293978495135
 20
82.76105131824562
 30
0.0
 10
173.52733028868369
 20
81.120186693395098
 30
0.0
 10
172.70593389487445
 20
79.280543543389868
 30
0.0
 10
172.37006807137564
 20
78.771537771060665
 30
0.0
 10
171.62734474987701
 20
78.075920750264345
 30
0.0
 10
171.21393511799266
 20
77.886523151153568
 30
0.0
 10
170.39349429004281
 20
77.883337977053131
 30
0.0
 10
169.98062599250713
 20
78.067958996890567
 30
0.0
 10
169.23052120417304
 20
78.765201222453342
 30
0.0
 10
168.89470607839797
 20
79.272720582225062
 30
0.0
 10
168.06732247717832
 20
81.122230571187259
 30
0.0
 10
167.76782511338342
 20
82.777301482372579
 30
0.0
 10
167.7666168292138
 20
86.058933630233341
 30
0.0
 10
168.0687439844969
 20
87.720682139932308
 30
0.0
 10
169.15734688394073
 20
90.167645296395904
 30
0.0
 10
169.96245615668607
 20
90.956044346289431
 30
0.0
 10
171.2022324253289
 20
90.964356238903093
 30
0.0
 10
171.61467706344013
 20
90.77945840050775
 30
0.0
 10
172.36543133331804
 20
90.082295027584664
 30
0.0
 10
172.70169919244648
 20
89.573385180081516
 30
0.0
 10
173.52503197033255
 20
87.735641924661877
 30
0.0
 10
173.82939784951361
 20
86.085485653939557
 30
0.0
 10
173.82939784951355
 20
84.42326848609261
 30
0.0
  0
LINE
  5
223
100
AcDbEntity
  8
DV1__F_T_H___G
370
         0
390
0
  6
CONTINUOUS
 62
         7
100
AcDbLine
 10
192.0241002412
 20
91.4232684861
 30
0.0
 11
169.4911019184
 21
91.4232684861
 31
0.0
  0
SPLINE
  5
224
100
AcDbEntity
  8
DV1__F_T_H___G
370
         0
390
0
  6
CONTINUOUS
 62
         7
100
AcDbSpline
210
0.0
220
0.0
230
1.0
 70
         8
 71
         3
 72
        28
 73
        24
 74
         0
 42
0.0
 43
0.0
 40
0.0
 40
0.0
 40
0.0
 40
0.0
 40
0.125
 40
0.125
 40
0.1875
 40
0.1875
 40
0.25
 40
0.25
 40
0.3125
 40
0.3125
 40
0.375
 40
0.375
 40
0.5
 40
0.5
 40
0.625
 40
0.625
 40
0.75
 40
0.75
 40
0.8125
 40
0.8125
 40
0.875
 40
0.875
 40
1.0
 40
1.0
 40
1.0
 40
1.0
 10
186.81977890628028
 20
84.423268486093022
 30
0.0
 10
186.81977890628028
 20
82.761051318246047
 30
0.0
 10
186.21564378462071
 20
81.120186693395468
 30
0.0
 10
184.57285099700238
 20
79.280543543390067
 30
0.0
 10
183.90111935000479
 20
78.771537771060807
 30
0.0
 10
182.41567270700753
 20
78.075920750264373
 30
0.0
 10
181.58885344323883
 20
77.886523151153554
 30
0.0
 10
179.94797178733907
 20
77.88333797705296
 30
0.0
 10
179.12223519226771
 20
78.06795899689034
 30
0.0
 10
177.62202561559948
 20
78.765201222453001
 30
0.0
 10
176.95039536404931
 20
79.272720582224679
 30
0.0
 10
175.29562816160987
 20
81.122230571186805
 30
0.0
 10
174.69663343401993
 20
82.77730148237211
 30
0.0
 10
174.69421686568054
 20
86.058933630232929
 30
0.0
 10
175.29847117624661
 20
87.720682139931952
 30
0.0
 10
177.47567697513415
 20
90.167645296395762
 30
0.0
 10
179.08589552062477
 20
90.956044346289403
 30
0.0
 10
181.56544805791046
 20
90.96435623890325
 30
0.0
 10
182.39033733413297
 20
90.779458400507963
 30
0.0
 10
183.89184587388883
 20
90.082295027584991
 30
0.0
 10
184.56438159214574
 20
89.573385180081843
 30
0.0
 10
186.21104714791804
 20
87.735641924662318
 30
0.0
 10
186.81977890628028
 20
86.085485653940026
 30
0.0
 10
186.81977890628028
 20
84.423268486093022
 30
0.0
  0
LINE
  5
225
100
AcDbEntity
  8
DV1__F_T_H___G
370
         0
390
0
  6
CONTINUOUS
 62
         7
100
AcDbLine
 10
192.0241002412
 20
77.4232684861
 30
0.0
 11
169.4911019184
 21
77.4232684861
 31
0.0
  0
LINE
  5
226
100
AcDbEntity
  8
DV1__F_T_H___G
370
         0
390
0
  6
HIDDEN2
 62
         7
100
AcDbLine
 10
170.2801010801
 20
77.4232684861
 30
0.0
 11
170.2801010801
 21
82.4232684861
 31
0.0
  0
LINE
  5
227
100
AcDbEntity
  8
DV1__F_T_H___G
370
         0
390
0
  6
HIDDEN2
 62
         7
100
AcDbLine
 10
191.2351010747
 20
77.4232684861
 30
0.0
 11
191.2351010747
 21
82.4232684861
 31
0.0
  0
LINE
  5
228
100
AcDbEntity
  8
DV1__F_T_H___G
370
         0
390
0
  6
HIDDEN2
 62
         7
100
AcDbLine
 10
20.2801010798
 20
74.6232684861
 30
0.0
 11
20.2801010798
 21
83.3232684861
 31
0.0
  0
LINE
  5
229
100
AcDbEntity
  8
DV1__F_T_H___G
370
         0
390
0
  6
HIDDEN2
 62
         7
100
AcDbLine
 10
41.2351010798
 20
74.6232684861
 30
0.0
 11
41.2351010798
 21
83.3232684861
 31
0.0
  0
LINE
  5
22A
100
AcDbEntity
  8
DV1__F_T_H___G
370
         0
390
0
  6
HIDDEN2
 62
         7
100
AcDbLine
 10
191.2351010747
 20
82.4232684861
 30
0.0
 11
170.2801010801
 21
82.4232684861
 31
0.0
  0
CIRCLE
  5
22B
100
AcDbEntity
  8
DV1__F_T_H___G
370
         0
390
0
  6
CENTER2
 62
         7
100
AcDbCircle
 10
105.7576010798
 20
202.4232684861
 30
0.0
 40
75.0
  0
LINE
  5
22C
100
AcDbEntity
  8
DV1__F_T_H___G
370
         0
390
0
  6
CENTER2
 62
         7
100
AcDbLine
 10
180.7576010798
 20
202.4232684861
 30
0.0
 11
180.7576010798
 21
164.9233124217
 31
0.0
  0
LINE
  5
22D
100
AcDbEntity
  8
DV1__F_T_H___G
370
         0
390
0
  6
CENTER2
 62
         7
100
AcDbLine
 10
30.7576010798
 20
202.4232684861
 30
0.0
 11
30.7576010798
 21
159.6232503116
 31
0.0
  0
LINE
  5
22E
100
AcDbEntity
  8
DV1__F_T_H___G
370
         0
390
0
  6
CONTINUOUS
 62
         7
100
AcDbLine
 10
39.2576010798
 20
126.1232684861
 30
0.0
 11
39.2576010798
 21
127.1232684861
 31
0.0
  0
LINE
  5
22F
100
AcDbEntity
  8
DV1__F_T_H___G
370
         0
390
0
  6
CONTINUOUS
 62
         7
100
AcDbLine
 10
22.2576010798
 20
127.1232684861
 30
0.0
 11
22.2576010798
 21
126.1232684861
 31
0.0
  0
LINE
  5
230
100
AcDbEntity
  8
DV1__F_T_H___G
370
         0
390
0
  6
CONTINUOUS
 62
         7
100
AcDbLine
 10
18.0076010798
 20
87.1232684861
 30
0.0
 11
18.0076010798
 21
74.6232684861
 31
0.0
  0
LINE
  5
231
100
AcDbEntity
  8
DV1__F_T_H___G
370
         0
390
0
  6
CONTINUOUS
 62
         7
100
AcDbLine
 10
43.5076010798
 20
74.6232684861
 30
0.0
 11
43.5076010798
 21
87.1232684861
 31
0.0
  0
LINE
  5
232
100
AcDbEntity
  8
DV1__F_T_H___G
370
         0
390
0
  6
CONTINUOUS
 62
         7
100
AcDbLine
 10
18.0076010798
 20
74.6232684861
 30
0.0
 11
43.5076010798
 21
74.6232684861
 31
0.0
  0
LINE
  5
233
100
AcDbEntity
  8
DV1__F_T_H___G
370
         0
390
0
  6
CONTINUOUS
 62
         7
100
AcDbLine
 10
18.0076010798
 20
87.1232684861
 30
0.0
 11
43.5076010798
 21
87.1232684861
 31
0.0
  0
ARC
  5
234
100
AcDbEntity
  8
DV1__F_T_H___G
370
         0
390
0
  6
CONTINUOUS
 62
         7
100
AcDbCircle
 10
18.3209851682
 20
87.4232684861
 30
0.0
 40
0.3
100
AcDbArc
 50
177.5
 51
270.0
  0
ARC
  5
235
100
AcDbEntity
  8
DV1__F_T_H___G
370
         0
390
0
  6
CONTINUOUS
 62
         7
100
AcDbCircle
 10
43.1942169914
 20
87.4232684861
 30
0.0
 40
0.3
100
AcDbArc
 50
270.0
 51
2.5
  0
LINE
  5
236
100
AcDbEntity
  8
DV1__F_T_H___G
370
         0
390
0
  6
CONTINUOUS
 62
         7
100
AcDbLine
 10
18.0212707017
 20
87.4363543023
 30
0.0
 11
43.4939314578
 21
87.4363543023
 31
0.0
  0
LINE
  5
237
100
AcDbEntity
  8
DV1__F_T_H___G
370
         0
390
0
  6
CONTINUOUS
 62
         7
100
AcDbLine
 10
20.2103778532
 20
126.1232684861
 30
0.0
 11
41.3048243064
 21
126.1232684861
 31
0.0
  0
LINE
  5
238
100
AcDbEntity
  8
DV1__F_T_H___G
370
         0
390
0
  6
CONTINUOUS
 62
         7
100
AcDbLine
 10
19.6885681595
 20
125.6237443753
 30
0.0
 11
41.826634
 21
125.6237443753
 31
0.0
  0
LINE
  5
239
100
AcDbEntity
  8
DV1__F_T_H___G
370
         0
390
0
  6
CONTINUOUS
 62
         7
100
AcDbLine
 10
41.826634
 20
125.6237443753
 30
0.0
 11
41.3048243064
 21
126.1232684861
 31
0.0
  0
LINE
  5
23A
100
AcDbEntity
  8
DV1__F_T_H___G
370
         0
390
0
  6
CONTINUOUS
 62
         7
100
AcDbLine
 10
20.2103778532
 20
126.1232684861
 30
0.0
 11
19.6885681595
 21
125.6237443753
 31
0.0
  0
LINE
  5
23B
100
AcDbEntity
  8
DV1__F_T_H___G
370
         0
390
0
  6
CONTINUOUS
 62
         7
100
AcDbLine
 10
43.4939314578
 20
87.4363543023
 30
0.0
 11
41.826634
 21
125.6237443753
 31
0.0
  0
LINE
  5
23C
100
AcDbEntity
  8
DV1__F_T_H___G
370
         0
390
0
  6
CONTINUOUS
 62
         7
100
AcDbLine
 10
19.6885681595
 20
125.6237443753
 30
0.0
 11
18.0212707017
 21
87.4363543023
 31
0.0
  0
ENDBLK
  5
23D
100
AcDbEntity
  8
DV1__F_T_H___G
370
         0
390
0
  6
CONTINUOUS
 62
         7
100
AcDbBlockEnd
  0
BLOCK
  5
240
100
AcDbEntity
  8
DEFAULT
370
         0
390
0
 62
         1
 48
0.0
100
AcDbBlockBegin
  2
SE3
 70
         0
 10
0.0
 20
0.0
 30
0.0
  3
SE3
  1

  0
HATCH
  5
241
100
AcDbEntity
  8
DEFAULT
390
0
  6
CONTINUOUS
 62
       136
100
AcDbHatch
 10
0.0
 20
0.0
 30
0.0
210
0.0
220
0.0
230
1.0
  2
SOLID
 70
         1
 71
         1
 91
        1
 92
        1
 93
        3
 72
         1
 10
14.280101027635162
 20
54.330643810113827
 11
20.280101079789226
 21
55.330643818806173
 72
         1
 10
20.280101079789226
 20
55.330643818806173
 11
14.280101027635162
 21
56.33064382749852
 72
         1
 10
14.280101027635162
 20
56.33064382749852
 11
14.280101027635162
 21
54.330643810113827
 97
        0
 75
         0
 76
         1
 98
        1
 10
0.0
 20
0.0
  0
HATCH
  5
242
100
AcDbEntity
  8
DEFAULT
390
0
  6
CONTINUOUS
 62
       136
100
AcDbHatch
 10
0.0
 20
0.0
 30
0.0
210
0.0
220
0.0
230
1.0
  2
SOLID
 70
         1
 71
         1
 91
        1
 92
        1
 93
        3
 72
         1
 10
47.235101131943274
 20
54.330643810113827
 11
41.23510107978921
 21
55.330643818806173
 72
         1
 10
41.23510107978921
 20
55.330643818806173
 11
47.235101131943274
 21
56.33064382749852
 72
         1
 10
47.235101131943274
 20
56.33064382749852
 11
47.235101131943274
 21
54.330643810113827
 97
        0
 75
         0
 76
         1
 98
        1
 10
0.0
 20
0.0
  0
LINE
  5
243
100
AcDbEntity
  8
DEFAULT
370
         0
390
0
  6
CONTINUOUS
 62
       136
100
AcDbLine
 10
20.2801010798
 20
74.6232684861
 30
0.0
 11
20.2801010798
 21
52.3306437927
 31
0.0
  0
LINE
  5
244
100
AcDbEntity
  8
DEFAULT
370
         0
390
0
  6
CONTINUOUS
 62
       136
100
AcDbLine
 10
41.2351010798
 20
74.6232684861
 30
0.0
 11
41.2351010798
 21
52.3306437927
 31
0.0
  0
LINE
  5
245
100
AcDbEntity
  8
DEFAULT
370
         0
390
0
  6
CONTINUOUS
 62
       136
100
AcDbLine
 10
8.2801009755
 20
55.3306438188
 30
0.0
 11
20.2801010798
 21
55.3306438188
 31
0.0
  0
LINE
  5
246
100
AcDbEntity
  8
DEFAULT
370
         0
390
0
  6
CONTINUOUS
 62
       136
100
AcDbLine
 10
41.2351010798
 20
55.3306438188
 30
0.0
 11
53.2351011841
 21
55.3306438188
 31
0.0
  0
TEXT
  5
247
100
AcDbEntity
  8
DEFAULT
370
         0
390
0
  6
CONTINUOUS
 62
       136
100
AcDbText
 10
20.17290207
 20
52.3306438188
 30
0.0
 40
6.0
  1
G 1/2
  7
arial_ttf
 11
20.17290207
 21
58.3306438188
 31
0.0
100
AcDbText
 73
         3
  0
ENDBLK
  5
248
100
AcDbEntity
  8
DEFAULT
370
         0
390
0
  6
CONTINUOUS
 62
       136
100
AcDbBlockEnd
  0
BLOCK
  5
249
100
AcDbEntity
  8
DEFAULT
370
         0
390
0
 62
         1
 48
0.0
100
AcDbBlockBegin
  2
SE4
 70
         0
 10
0.0
 20
0.0
 30
0.0
  3
SE4
  1

  0
HATCH
  5
24A
100
AcDbEntity
  8
DEFAULT
390
0
  6
CONTINUOUS
 62
       136
100
AcDbHatch
 10
0.0
 20
0.0
 30
0.0
210
0.0
220
0.0
230
1.0
  2
SOLID
 70
         1
 71
         1
 91
        1
 92
        1
 93
        3
 72
         1
 10
164.28010102791816
 20
56.31487147041215
 11
170.28010108007223
 21
57.314871479104497
 72
         1
 10
170.28010108007223
 20
57.314871479104497
 11
164.28010102791816
 21
58.314871487796843
 72
         1
 10
164.28010102791816
 20
58.314871487796843
 11
164.28010102791816
 21
56.31487147041215
 97
        0
 75
         0
 76
         1
 98
        1
 10
0.0
 20
0.0
  0
HATCH
  5
24B
100
AcDbEntity
  8
DEFAULT
390
0
  6
CONTINUOUS
 62
       136
100
AcDbHatch
 10
0.0
 20
0.0
 30
0.0
210
0.0
220
0.0
230
1.0
  2
SOLID
 70
         1
 71
         1
 91
        1
 92
        1
 93
        3
 72
         1
 10
197.23510112682496
 20
56.31487147041215
 11
191.23510107467089
 21
57.314871479104497
 72
         1
 10
191.23510107467089
 20
57.314871479104497
 11
197.23510112682496
 21
58.314871487796843
 72
         1
 10
197.23510112682496
 20
58.314871487796843
 11
197.23510112682496
 21
56.31487147041215
 97
        0
 75
         0
 76
         1
 98
        1
 10
0.0
 20
0.0
  0
LINE
  5
24C
100
AcDbEntity
  8
DEFAULT
370
         0
390
0
  6
CONTINUOUS
 62
       136
100
AcDbLine
 10
170.2801010801
 20
77.4232685979
 30
0.0
 11
170.2801010801
 21
54.314871453
 31
0.0
  0
LINE
  5
24D
100
AcDbEntity
  8
DEFAULT
370
         0
390
0
  6
CONTINUOUS
 62
       136
100
AcDbLine
 10
191.2351010747
 20
77.4232684861
 30
0.0
 11
191.2351010747
 21
54.314871453
 31
0.0
  0
LINE
  5
24E
100
AcDbEntity
  8
DEFAULT
370
         0
390
0
  6
CONTINUOUS
 62
       136
100
AcDbLine
 10
158.2801009758
 20
57.3148714791
 30
0.0
 11
170.2801010801
 21
57.3148714791
 31
0.0
  0
LINE
  5
24F
100
AcDbEntity
  8
DEFAULT
370
         0
390
0
  6
CONTINUOUS
 62
       136
100
AcDbLine
 10
191.2351010747
 20
57.3148714791
 30
0.0
 11
203.235101179
 21
57.3148714791
 31
0.0
  0
TEXT
  5
250
100
AcDbEntity
  8
DEFAULT
370
         0
390
0
  6
CONTINUOUS
 62
       136
100
AcDbText
 10
170.2935502532
 20
54.3148714791
 30
0.0
 40
6.0
  1
G 1/2
  7
arial_ttf
 11
170.2935502532
 21
60.3148714791
 31
0.0
100
AcDbText
 73
         3
  0
ENDBLK
  5
251
100
AcDbEntity
  8
DEFAULT
370
         0
390
0
  6
CONTINUOUS
 62
       136
100
AcDbBlockEnd
  0
BLOCK
  5
252
100
AcDbEntity
  8
DEFAULT
370
         0
390
0
 62
         1
 48
0.0
100
AcDbBlockBegin
  2
SE5
 70
         0
 10
0.0
 20
0.0
 30
0.0
  3
SE5
  1

  0
HATCH
  5
253
100
AcDbEntity
  8
DEFAULT
390
0
  6
CONTINUOUS
 62
       136
100
AcDbHatch
 10
0.0
 20
0.0
 30
0.0
210
0.0
220
0.0
230
1.0
  2
SOLID
 70
         1
 71
         1
 91
        1
 92
        1
 93
        3
 72
         1
 10
16.760619263287257
 20
179.7045330587888
 11
22.760619315441321
 21
178.70453305009644
 72
         1
 10
22.760619315441321
 20
178.70453305009644
 11
16.760619263287257
 21
177.70453304140409
 72
         1
 10
16.760619263287257
 20
177.70453304140409
 11
16.760619263287257
 21
179.7045330587888
 97
        0
 75
         0
 76
         1
 98
        1
 10
0.0
 20
0.0
  0
HATCH
  5
254
100
AcDbEntity
  8
DEFAULT
390
0
  6
CONTINUOUS
 62
       136
100
AcDbHatch
 10
0.0
 20
0.0
 30
0.0
210
0.0
220
0.0
230
1.0
  2
SOLID
 70
         1
 71
         1
 91
        1
 92
        1
 93
        3
 72
         1
 10
44.755413861075979
 20
179.7045330587888
 11
38.755413808921915
 21
178.70453305009644
 72
         1
 10
38.755413808921915
 20
178.70453305009644
 11
44.755413861075979
 21
177.70453304140409
 72
         1
 10
44.755413861075979
 20
177.70453304140409
 11
44.755413861075979
 21
179.7045330587888
 97
        0
 75
         0
 76
         1
 98
        1
 10
0.0
 20
0.0
  0
LINE
  5
255
100
AcDbEntity
  8
DEFAULT
370
         0
390
0
  6
CONTINUOUS
 62
       136
100
AcDbLine
 10
22.7606193154
 20
158.1252843833
 30
0.0
 11
22.7606193154
 21
181.7045330762
 31
0.0
  0
LINE
  5
256
100
AcDbEntity
  8
DEFAULT
370
         0
390
0
  6
CONTINUOUS
 62
       136
100
AcDbLine
 10
38.7554138089
 20
161.1206967295
 30
0.0
 11
38.7554138089
 21
181.7045330762
 31
0.0
  0
LINE
  5
257
100
AcDbEntity
  8
DEFAULT
370
         0
390
0
  6
CONTINUOUS
 62
       136
100
AcDbLine
 10
10.7606192111
 20
178.7045330501
 30
0.0
 11
22.7606193154
 21
178.7045330501
 31
0.0
  0
LINE
  5
258
100
AcDbEntity
  8
DEFAULT
370
         0
390
0
  6
CONTINUOUS
 62
       136
100
AcDbLine
 10
38.7554138089
 20
178.7045330501
 30
0.0
 11
72.4009691859
 21
178.7045330501
 31
0.0
  0
TEXT
  5
259
100
AcDbEntity
  8
DEFAULT
370
         0
390
0
  6
CONTINUOUS
 62
       136
100
AcDbText
 10
60.909665167
 20
180.2045330501
 30
0.0
 40
6.0
  1
16
  7
arial_ttf
 11
60.909665167
 21
186.2045330501
 31
0.0
100
AcDbText
 73
         3
  0
TEXT
  5
25A
100
AcDbEntity
  8
DEFAULT
370
         0
390
0
  6
CONTINUOUS
 62
       136
100
AcDbText
 10
49.8675599038
 20
180.2045330501
 30
0.0
 40
6.0
  1
O
  7
semeca1_ttf
 11
49.8675599038
 21
186.2045330501
 31
0.0
100
AcDbText
 73
         3
  0
ENDBLK
  5
25B
100
AcDbEntity
  8
DEFAULT
370
         0
390
0
  6
CONTINUOUS
 62
       136
100
AcDbBlockEnd
  0
ENDSEC
  0
SECTION
  2
ENTITIES
  0
TEXT
  5
11B
100
AcDbEntity
  8
DEFAULT
370
         0
390
0
  6
CONTINUOUS
 62
         7
100
AcDbText
 10
98.9545454545
 20
7.0681818182
 30
0.0
 40
3.0
  1
28142J
  7
seiso_ttf
 11
98.9545454545
 21
10.0681818182
 31
0.0
100
AcDbText
 73
         3
  0
TEXT
  5
11C
100
AcDbEntity
  8
DEFAULT
370
         0
390
0
  6
CONTINUOUS
 62
         7
100
AcDbText
 10
171.3863636364
 20
14.7136363636
 30
0.0
 40
5.0
  1
2814200J
  7
seiso_ttf
 11
171.3863636364
 21
19.7136363636
 31
0.0
100
AcDbText
 73
         3
  0
TEXT
  5
11D
100
AcDbEntity
  8
DEFAULT
370
         0
390
0
  6
CONTINUOUS
 62
         7
100
AcDbText
 10
54.225
 20
41.55
 30
0.0
 40
2.2
  1
-
  7
seiso_ttf
 11
54.225
 21
43.75
 31
0.0
100
AcDbText
 73
         3
  0
TEXT
  5
11E
100
AcDbEntity
  8
DEFAULT
370
         0
390
0
  6
CONTINUOUS
 62
         7
100
AcDbText
 10
49.4
 20
36.55
 30
0.0
 40
2.2
  1
20. 9.2005
  7
seiso_ttf
 11
49.4
 21
38.75
 31
0.0
100
AcDbText
 73
         3
  0
TEXT
  5
11F
100
AcDbEntity
  8
DEFAULT
370
         0
390
0
  6
CONTINUOUS
 62
         7
100
AcDbText
 10
53.425
 20
31.35
 30
0.0
 40
2.2
  1
Sm
  7
seiso_ttf
 11
53.425
 21
33.55
 31
0.0
100
AcDbText
 73
         3
  0
TEXT
  5
120
100
AcDbEntity
  8
DEFAULT
370
         0
390
0
  6
CONTINUOUS
 62
         7
100
AcDbText
 10
49.925
 20
26.55
 30
0.0
 40
2.2
  1
Rikukawa
  7
seiso_ttf
 11
49.925
 21
28.75
 31
0.0
100
AcDbText
 73
         3
  0
TEXT
  5
121
100
AcDbEntity
  8
DEFAULT
370
         0
390
0
  6
CONTINUOUS
 62
         7
100
AcDbText
 10
13.3568181818
 20
30.5136363636
 30
0.0
 40
5.0
  1
1:1
  7
seiso_ttf
 11
13.3568181818
 21
35.5136363636
 31
0.0
100
AcDbText
 73
         3
  0
TEXT
  5
123
100
AcDbEntity
  8
DEFAULT
370
         0
390
0
  6
CONTINUOUS
 62
       252
100
AcDbText
 10
175.097826087
 20
5.4652173913
 30
0.0
 40
3.0
  1
m28142j
  7
arial_ttf
 11
175.097826087
 21
8.4652173913
 31
0.0
100
AcDbText
 73
         3
  0
INSERT
  5
126
100
AcDbEntity
  8
DEFAULT
370
         0
390
0
 62
         0
 48
0.0
100
AcDbBlockReference
  2
SE0
 10
0.0
 20
0.0
 30
0.0
  0
TEXT
  5
127
100
AcDbEntity
  8
DEFAULT
370
         0
390
0
  6
CONTINUOUS
 62
         7
100
AcDbText
 10
82.9704545455
 20
20.1363636364
 30
0.0
 40
3.8
  1
Metall,-Brauseschlauch
  7
seiso_ttf
 11
82.9704545455
 21
23.9363636364
 31
0.0
100
AcDbText
 73
         3
  0
TEXT
  5
128
100
AcDbEntity
  8
DEFAULT
370
         0
390
0
  6
CONTINUOUS
 62
         7
100
AcDbText
 10
92.2545454545
 20
14.1363636364
 30
0.0
 40
3.8
  1
METTEL HOSE
  7
seiso_ttf
 11
92.2545454545
 21
17.9363636364
 31
0.0
100
AcDbText
 73
         3
  0
INSERT
  5
12C
102
{ACAD_XDICTIONARY
360
12D
102
}
100
AcDbEntity
  8
DEFAULT
370
         0
390
0
 62
         0
 48
0.0
100
AcDbBlockReference
  2
SE2
 10
0.0
 20
0.0
 30
0.0
  0
INSERT
  5
130
100
AcDbEntity
  8
DEFAULT
370
         0
390
0
 62
         0
 48
0.0
100
AcDbBlockReference
  2
SE1
 10
0.0
 20
0.0
 30
0.0
  0
INSERT
  5
134
100
AcDbEntity
  8
DEFAULT
370
         0
390
0
 62
         0
 48
0.0
100
AcDbBlockReference
  2
SE3
 10
0.0
 20
0.0
 30
0.0
  0
INSERT
  5
138
100
AcDbEntity
  8
DEFAULT
370
         0
390
0
 62
         0
 48
0.0
100
AcDbBlockReference
  2
SE4
 10
0.0
 20
0.0
 30
0.0
  0
INSERT
  5
13D
100
AcDbEntity
  8
DEFAULT
370
         0
390
0
 62
         0
 48
0.0
100
AcDbBlockReference
  2
SE5
 10
0.0
 20
0.0
 30
0.0
  0
LINE
  5
13E
100
AcDbEntity
  8
STANDARD
370
         0
390
0
  6
CONTINUOUS
 62
       252
100
AcDbLine
 10
6.6
 20
291.0
 30
0.0
 11
6.6
 21
5.0
 31
0.0
  0
LINE
  5
13F
100
AcDbEntity
  8
STANDARD
370
         0
390
0
  6
CONTINUOUS
 62
       252
100
AcDbLine
 10
6.6
 20
5.0
 30
0.0
 11
203.0048694642
 21
5.0
 31
0.0
  0
LINE
  5
140
100
AcDbEntity
  8
STANDARD
370
         0
390
0
  6
CONTINUOUS
 62
       252
100
AcDbLine
 10
203.0048694642
 20
291.0
 30
0.0
 11
6.6
 21
291.0
 31
0.0
  0
HATCH
  5
141
100
AcDbEntity
  8
0
390
0
  6
CONTINUOUS
 62
       252
100
AcDbHatch
 10
0.0
 20
0.0
 30
0.0
210
0.0
220
0.0
230
1.0
  2
SOLID
 70
         1
 71
         1
 91
        1
 92
        1
 93
        1
 72
         4
 94
        1
 73
         0
 74
         1
 95
      142
 96
      140
 40
0.0
 40
0.0
 40
0.0071942446
 40
0.0143884892
 40
0.0215827338
 40
0.0287769784
 40
0.035971223
 40
0.0431654676
 40
0.0503597122
 40
0.0575539568
 40
0.0647482014
 40
0.071942446
 40
0.0791366906
 40
0.0863309353
 40
0.0935251799
 40
0.1007194245
 40
0.1079136691
 40
0.1151079137
 40
0.1223021583
 40
0.1294964029
 40
0.1366906475
 40
0.1438848921
 40
0.1510791367
 40
0.1582733813
 40
0.1654676259
 40
0.1726618705
 40
0.1798561151
 40
0.1870503597
 40
0.1942446043
 40
0.2014388489
 40
0.2086330935
 40
0.2158273381
 40
0.2230215827
 40
0.2302158273
 40
0.2374100719
 40
0.2446043165
 40
0.2517985612
 40
0.2589928058
 40
0.2661870504
 40
0.273381295
 40
0.2805755396
 40
0.2877697842
 40
0.2949640288
 40
0.3021582734
 40
0.309352518
 40
0.3165467626
 40
0.3237410072
 40
0.3309352518
 40
0.3381294964
 40
0.345323741
 40
0.3525179856
 40
0.3597122302
 40
0.3669064748
 40
0.3741007194
 40
0.381294964
 40
0.3884892086
 40
0.3956834532
 40
0.4028776978
 40
0.4100719424
 40
0.4172661871
 40
0.4244604317
 40
0.4316546763
 40
0.4388489209
 40
0.4460431655
 40
0.4532374101
 40
0.4604316547
 40
0.4676258993
 40
0.4748201439
 40
0.4820143885
 40
0.4892086331
 40
0.4964028777
 40
0.5035971223
 40
0.5107913669
 40
0.5179856115
 40
0.5251798561
 40
0.5323741007
 40
0.5395683453
 40
0.5467625899
 40
0.5539568345
 40
0.5611510791
 40
0.5683453237
 40
0.5755395683
 40
0.5827338129
 40
0.5899280576
 40
0.5971223022
 40
0.6043165468
 40
0.6115107914
 40
0.618705036
 40
0.6258992806
 40
0.6330935252
 40
0.6402877698
 40
0.6474820144
 40
0.654676259
 40
0.6618705036
 40
0.6690647482
 40
0.6762589928
 40
0.6834532374
 40
0.690647482
 40
0.6978417266
 40
0.7050359712
 40
0.7122302158
 40
0.7194244604
 40
0.726618705
 40
0.7338129496
 40
0.7410071942
 40
0.7482014388
 40
0.7553956835
 40
0.7625899281
 40
0.7697841727
 40
0.7769784173
 40
0.7841726619
 40
0.7913669065
 40
0.7985611511
 40
0.8057553957
 40
0.8129496403
 40
0.8201438849
 40
0.8273381295
 40
0.8345323741
 40
0.8417266187
 40
0.8489208633
 40
0.8561151079
 40
0.8633093525
 40
0.8705035971
 40
0.8776978417
 40
0.8848920863
 40
0.8920863309
 40
0.8992805755
 40
0.9064748201
 40
0.9136690647
 40
0.9208633094
 40
0.928057554
 40
0.9352517986
 40
0.9424460432
 40
0.9496402878
 40
0.9568345324
 40
0.964028777
 40
0.9712230216
 40
0.9784172662
 40
0.9856115108
 40
0.9928057554
 40
1.0
 40
1.0
 10
172.71723760754054
 20
36.007174260274176
 10
172.71723760754051
 20
38.160567877295428
 10
171.31354399051943
 20
38.160567877295435
 10
171.31354399051943
 20
36.617019358825246
 10
171.19170766433155
 20
36.561149903375302
 10
171.06665027553746
 20
36.511269956927357
 10
170.93881857193421
 20
36.467642194345324
 10
170.80868658327392
 20
36.430484211564234
 10
170.67674984854492
 20
36.399965131397316
 10
170.54351915984137
 20
36.37620310823803
 10
170.40951398757343
 20
36.359263807205963
 10
170.27525576405517
 20
36.349159898687738
 10
170.14126120666305
 20
36.345851572747307
 10
170.01526847503141
 20
36.346684467714546
 10
169.89680823406857
 20
36.357063281706054
 10
169.78581193868874
 20
36.375926242824782
 10
169.68221104380609
 20
36.402211579173688
 10
169.5859370043348
 20
36.434857518855679
 10
169.49692127518904
 20
36.472802289973714
 10
169.37685707095554
 20
36.537332129568583
 10
169.27273849884671
 20
36.607811872973627
 10
169.18945141044179
 20
36.676475517943807
 10
169.11732948513549
 20
36.748837937344845
 10
169.0538819172082
 20
36.826541446001734
 10
168.99661790094032
 20
36.911228358739443
 10
168.94304663061214
 20
37.004540990382992
 10
168.89067730050394
 20
37.108121655757316
 10
168.83650561999698
 20
37.227424441618268
 10
168.78441354491508
 20
37.363535729442688
 10
168.75254024098393
 20
37.465701113204616
 10
168.7241403207949
 20
37.578466645132558
 10
168.70023343021376
 20
37.703084206366064
 10
168.68183921510612
 20
37.840805678044674
 10
168.66997732133783
 20
37.992882941307947
 10
168.66566739477454
 20
38.16056787729547
 10
168.67121205705593
 20
38.32825281328298
 10
168.68647222309301
 20
38.480330076546274
 10
168.71013613225844
 20
38.618051548224884
 10
168.740892023925
 20
38.742669109458376
 10
168.77742813746548
 20
38.855434641386296
 10
168.81843271225256
 20
38.957600025148238
 10
168.88544846289849
 20
39.093711312972658
 10
168.95513959782096
 20
39.213014098833597
 10
169.02251203331147
 20
39.316594764207892
 10
169.09143074865261
 20
39.409907395851398
 10
169.16510013174326
 20
39.4945943085891
 10
169.24672457048212
 20
39.572297817245975
 10
169.33950845276806
 20
39.644660236646992
 10
169.44665616649979
 20
39.713323881617157
 10
169.53368963864449
 20
39.760794516071215
 10
169.62979628195637
 20
39.806151637241541
 10
169.73506427876052
 20
39.848333475692193
 10
169.84958181138202
 20
39.886278261987293
 10
169.97343706214608
 20
39.918924226690891
 10
170.1067182133778
 20
39.945209600367122
 10
170.24951344740228
 20
39.964072613580022
 10
170.40191094654469
 20
39.974451496893721
 10
170.56399889313016
 20
39.975284480872261
 10
170.79406770155856
 20
39.967917054520022
 10
171.02486856537078
 20
39.945649114147635
 10
171.25495506809463
 20
39.908338718938815
 10
171.48285928197862
 20
39.856031682227197
 10
171.70712233811793
 20
39.788964571426845
 10
171.92632529026253
 20
39.707561730255989
 10
172.1391189154063
 20
39.612426366706195
 10
172.34425114506126
 20
39.50432609735185
 10
172.54059096924271
 20
39.384173656636044
 10
172.54059096924271
 20
40.417978012327687
 10
172.30159000696241
 20
40.526115321282433
 10
172.05643438493087
 20
40.6226451417334
 10
171.8059791867947
 20
40.707072011252961
 10
171.55113029148532
 20
40.778985649839605
 10
171.29283360839784
 20
40.838067197395233
 10
171.03206343577696
 20
40.884093797600478
 10
170.76981024122898
 20
40.916941392942206
 10
170.5070681849877
 20
40.93658565755333
 10
170.24482271392364
 20
40.943101059716383
 10
169.98604739834181
 20
40.941823961442033
 10
169.74274299622402
 20
40.925911465750239
 10
169.51476872344989
 20
40.896991435780414
 10
169.30198379589874
 20
40.856691734671969
 10
169.10424742945003
 20
40.806640225564372
 10
168.92141883998318
 20
40.748464771597
 10
168.75335724337771
 20
40.683793235909292
 10
168.59992185551295
 20
40.614253481640695
 10
168.46097189226842
 20
40.541473371930572
 10
168.34412953060473
 20
40.471797520257198
 10
168.23823708319324
 20
40.39997433318328
 10
168.14177874469544
 20
40.325257756635722
 10
168.05323870977276
 20
40.246901736541339
 10
167.97110117308674
 20
40.164160218826957
 10
167.89385032929877
 20
40.076287149419429
 10
167.78382078862285
 20
39.933223892598477
 10
167.67625990193847
 20
39.774418090306426
 10
167.60195921011902
 20
39.655021323344201
 10
167.52850974543466
 20
39.525130830899869
 10
167.45800574917493
 20
39.382827278047174
 10
167.39254146262951
 20
39.226191329859759
 10
167.33421112708797
 20
39.053303651411376
 10
167.2851089838399
 20
38.862244907775704
 10
167.24732927417497
 20
38.651095764026472
 10
167.22296623938271
 20
38.417936885237374
 10
167.21411412075278
 20
38.160848936482118
 10
167.21411381402913
 20
38.160567862861889
 10
167.21411412075278
 20
38.160286818108702
 10
167.22296623938271
 20
37.903198869353446
 10
167.24732927417497
 20
37.670039990564355
 10
167.2851089838399
 20
37.458890846815123
 10
167.33421112708797
 20
37.267832103179472
 10
167.39254146262951
 20
37.094944424731089
 10
167.45800574917493
 20
36.938308476543696
 10
167.52850974543463
 20
36.796004923691001
 10
167.60195921011899
 20
36.666114431246676
 10
167.67625990193847
 20
36.546717664284465
 10
167.78382078862282
 20
36.387911861992421
 10
167.89385032929877
 20
36.24484860517147
 10
167.97110117308671
 20
36.156975535763948
 10
168.05323870977273
 20
36.074234018049573
 10
168.14177874469544
 20
35.995877997955176
 10
168.23823708319324
 20
35.921161421407604
 10
168.34412953060473
 20
35.849338234333722
 10
168.46097189226839
 20
35.779662382660348
 10
168.59992185551292
 20
35.706882272950246
 10
168.75335724337765
 20
35.637342518681614
 10
168.92141883998315
 20
35.572670982993927
 10
169.10424742945
 20
35.514495529026568
 10
169.30198379589871
 20
35.46444401991895
 10
169.51476872344986
 20
35.424144318810541
 10
169.74274299622402
 20
35.395224288840708
 10
169.98604739834178
 20
35.379311793148922
 10
170.24482271392364
 20
35.378034694874565
 10
170.52905125727611
 20
35.38584952449677
 10
170.81394232573726
 20
35.409438580226883
 10
171.09818351200909
 20
35.448911963849596
 10
171.38044812192086
 20
35.50423387728592
 10
171.65941550032989
 20
35.575220917392357
 10
171.93379149982474
 20
35.661543770774863
 10
172.20232843113149
 20
35.762732290440965
 10
172.4638438523356
 20
35.878183790698088
 10
172.71723760754054
 20
36.007174260274176
 97
        0
 75
         0
 76
         1
 98
        1
 10
0.0
 20
0.0
  0
HATCH
  5
142
100
AcDbEntity
  8
0
390
0
  6
CONTINUOUS
 62
       252
100
AcDbHatch
 10
0.0
 20
0.0
 30
0.0
210
0.0
220
0.0
230
1.0
  2
SOLID
 70
         1
 71
         1
 91
        1
 92
        1
 93
        1
 72
         4
 94
        1
 73
         0
 74
         1
 95
       84
 96
       82
 40
0.0
 40
0.0
 40
0.012345679
 40
0.024691358
 40
0.037037037
 40
0.049382716
 40
0.0617283951
 40
0.0740740741
 40
0.0864197531
 40
0.0987654321
 40
0.1111111111
 40
0.1234567901
 40
0.1358024691
 40
0.1481481481
 40
0.1604938272
 40
0.1728395062
 40
0.1851851852
 40
0.1975308642
 40
0.2098765432
 40
0.2222222222
 40
0.2345679012
 40
0.2469135802
 40
0.2592592593
 40
0.2716049383
 40
0.2839506173
 40
0.2962962963
 40
0.3086419753
 40
0.3209876543
 40
0.3333333333
 40
0.3456790123
 40
0.3580246914
 40
0.3703703704
 40
0.3827160494
 40
0.3950617284
 40
0.4074074074
 40
0.4197530864
 40
0.4320987654
 40
0.4444444444
 40
0.4567901235
 40
0.4691358025
 40
0.4814814815
 40
0.4938271605
 40
0.5061728395
 40
0.5185185185
 40
0.5308641975
 40
0.5432098765
 40
0.5555555556
 40
0.5679012346
 40
0.5802469136
 40
0.5925925926
 40
0.6049382716
 40
0.6172839506
 40
0.6296296296
 40
0.6419753086
 40
0.6543209877
 40
0.6666666667
 40
0.6790123457
 40
0.6913580247
 40
0.7037037037
 40
0.7160493827
 40
0.7283950617
 40
0.7407407407
 40
0.7530864198
 40
0.7654320988
 40
0.7777777778
 40
0.7901234568
 40
0.8024691358
 40
0.8148148148
 40
0.8271604938
 40
0.8395061728
 40
0.8518518519
 40
0.8641975309
 40
0.8765432099
 40
0.8888888889
 40
0.9012345679
 40
0.9135802469
 40
0.9259259259
 40
0.9382716049
 40
0.950617284
 40
0.962962963
 40
0.975308642
 40
0.987654321
 40
1.0
 40
1.0
 10
178.32392496544546
 20
39.14238211211093
 10
178.31832558618783
 20
39.294514730958511
 10
178.3029148266429
 20
39.43248724584884
 10
178.27901739242387
 20
39.557435429384952
 10
178.24795798914391
 20
39.670495054169997
 10
178.21106132241616
 20
39.772801892807024
 10
178.16965209785383
 20
39.865491717899175
 10
178.10197500859928
 20
39.98897905770999
 10
178.03159613329103
 20
40.097216837937239
 10
177.96355883928118
 20
40.191190681160357
 10
177.89396000610398
 20
40.275848822572335
 10
177.81956362366111
 20
40.352681256809987
 10
177.73713368185435
 20
40.423177978510111
 10
177.64343417058541
 20
40.488828982309556
 10
177.53522907975602
 20
40.551124262845107
 10
177.3999600990802
 20
40.615067204930966
 10
177.2439748392668
 20
40.673612087975137
 10
177.12832720118564
 20
40.708037599585268
 10
177.00324969657203
 20
40.737655740749332
 10
176.86865327288183
 20
40.761503218229635
 10
176.72444887757101
 20
40.778616738788493
 10
176.57054745809543
 20
40.788033009188233
 10
176.40685996191107
 20
40.788788736191179
 10
173.8577386713705
 20
40.788788736191201
 10
173.8577386713705
 20
35.532347018399712
 10
175.25345675647671
 20
35.532347018399697
 10
175.25345675647671
 20
39.783970049246939
 10
176.15762461306628
 20
39.783970049246946
 10
176.25892903415621
 20
39.781714868960776
 10
176.35105261744391
 20
39.770115774623044
 10
176.43412125309976
 20
39.750823526011679
 10
176.50826083129417
 20
39.725488882904656
 10
176.57359724219762
 20
39.695762605079921
 10
176.63025637598048
 20
39.663295452315381
 10
176.68927002454211
 20
39.620780107914783
 10
176.73828539415967
 20
39.574787327877956
 10
176.78051538914411
 20
39.523523814037368
 10
176.80966774602899
 20
39.480538478669274
 10
176.83816603236389
 20
39.432823077652891
 10
176.86764511982099
 20
39.377865134979359
 10
176.89599252981068
 20
39.315164198873873
 10
176.92133557675032
 20
39.242773938087772
 10
176.94180157505727
 20
39.158748021372475
 10
176.95551783914891
 20
39.061140117479319
 10
176.96061168344258
 20
38.948003895159715
 10
176.95551783914891
 20
38.834867672840176
 10
176.9418015750573
 20
38.737259768947098
 10
176.92133557675032
 20
38.653233852231843
 10
176.89599252981068
 20
38.580843591445763
 10
176.86764511982099
 20
38.518142655340277
 10
176.83816603236394
 20
38.463184712666759
 10
176.80008990374614
 20
38.400652664056352
 10
176.76004775696163
 20
38.346081296501033
 10
176.71482668769951
 20
38.297677311833255
 10
176.67557945512743
 20
38.264342887423467
 10
176.63025637598054
 20
38.232712338004255
 10
176.5807801808744
 20
38.203991089972341
 10
176.52457760086617
 20
38.177245876883362
 10
176.46156249434847
 20
38.153606247614718
 10
176.39164871971388
 20
38.134201751043896
 10
176.31475013535507
 20
38.120161936048298
 10
176.23078059966466
 20
38.112616351505402
 10
175.42891845860447
 20
38.112616351473726
 10
177.35899718200881
 20
35.532347018399697
 10
179.08971327105164
 20
35.532347018399697
 10
177.32931176833671
 20
37.641335273628542
 10
177.43784138842418
 20
37.686263145651161
 10
177.53522907975596
 20
37.733639961376859
 10
177.64343417058541
 20
37.79593524191246
 10
177.73713368185437
 20
37.861586245711905
 10
177.81956362366117
 20
37.932082967412022
 10
177.89396000610401
 20
38.008915401649666
 10
177.96355883928121
 20
38.093573543061623
 10
178.03159613329103
 20
38.187547386284734
 10
178.10197500859928
 20
38.295785166511969
 10
178.16965209785383
 20
38.419272506322805
 10
178.21106132241616
 20
38.511962331414942
 10
178.24795798914388
 20
38.614269170051976
 10
178.27901739242387
 20
38.727328794837
 10
178.3029148266429
 20
38.852276978373098
 10
178.31832558618783
 20
38.99024949326337
 10
178.32392496544546
 20
39.14238211211093
 97
        0
 75
         0
 76
         1
 98
        1
 10
0.0
 20
0.0
  0
HATCH
  5
143
100
AcDbEntity
  8
0
390
0
  6
CONTINUOUS
 62
       252
100
AcDbHatch
 10
0.0
 20
0.0
 30
0.0
210
0.0
220
0.0
230
1.0
  2
SOLID
 70
         1
 71
         1
 91
        2
 92
        1
 93
        4
 72
         3
 10
182.41549150656374
 20
38.848209937976861
 11
3.5460402801823658
 21
0.0
 40
1.0
 50
230.1970191604
 51
309.8029746804
 73
         1
 72
         3
 10
182.98691622988966
 20
38.162437812932644
 11
2.6533983464174793
 21
0.0
 40
1.0
 50
309.8029728303
 51
410.5588426069
 73
         1
 72
         3
 10
182.41649956935632
 20
37.530204580504851
 11
3.504250792424207
 21
0.0
 40
1.0
 50
49.9232687987
 51
130.3963479627
 73
         1
 72
         3
 10
181.87932240243424
 20
38.161467134115483
 11
2.6753649617735404
 21
0.0
 40
1.0
 50
490.3963479627
 51
229.6036520373
 73
         1
 97
        0
 92
        1
 93
        8
 72
         3
 10
182.7188850629272
 20
38.162821510907847
 11
2.1012931582188505
 21
0.0
 40
1.0
 50
503.933878161
 51
217.0345979971
 73
         1
 72
         3
 10
181.89643092508194
 20
37.542278858857365
 11
1.0709999999999764
 21
0.0
 40
1.0
 50
217.0345979971
 51
240.1494482367
 73
         1
 72
         3
 10
182.41489194796608
 20
38.445713593778187
 11
2.1126314859447568
 21
0.0
 40
1.0
 50
240.1494482367
 51
298.655055187
 73
         1
 72
         3
 10
182.91439100011002
 20
37.531658426176797
 11
1.0710000000000033
 21
0.0
 40
1.0
 50
298.655055187
 51
326.0793919107
 73
         1
 72
         3
 10
181.97376425627203
 20
38.164224578047317
 11
2.2045425037092699
 21
0.0
 40
1.0
 50
326.0793919107
 51
392.9337797451
 73
         1
 72
         3
 10
182.92514589073807
 20
38.780496915018709
 11
1.0709999999999991
 21
0.0
 40
1.0
 50
32.9337797451
 51
59.7043309943
 73
         1
 72
         3
 10
182.41489194796611
 20
37.907150400359846
 11
2.0824807070731297
 21
0.0
 40
1.0
 50
59.7043309943
 51
121.5222523773
 73
         1
 72
         3
 10
181.88605982231689
 20
38.769374155346021
 11
1.0710000000000102
 21
0.0
 40
1.0
 50
121.5222523773
 51
143.933878161
 73
         1
 97
        0
 75
         0
 76
         1
 98
        1
 10
0.0
 20
0.0
  0
ARC
  5
144
100
AcDbEntity
  8
STANDARD
370
         0
390
0
  6
CONTINUOUS
 62
       252
100
AcDbCircle
 10
182.4154915066
 20
38.848209938
 30
0.0
 40
3.5460402802
100
AcDbArc
 50
230.1970191604
 51
309.8029746804
  0
ARC
  5
145
100
AcDbEntity
  8
STANDARD
370
         0
390
0
  6
CONTINUOUS
 62
       252
100
AcDbCircle
 10
182.9869162299
 20
38.1624378129
 30
0.0
 40
2.6533983464
100
AcDbArc
 50
309.8029728303
 51
50.5588426069
  0
ARC
  5
146
100
AcDbEntity
  8
STANDARD
370
         0
390
0
  6
CONTINUOUS
 62
       252
100
AcDbCircle
 10
182.4164995694
 20
37.5302045805
 30
0.0
 40
3.5042507924
100
AcDbArc
 50
49.9232687987
 51
130.3963479627
  0
ARC
  5
147
100
AcDbEntity
  8
STANDARD
370
         0
390
0
  6
CONTINUOUS
 62
       252
100
AcDbCircle
 10
181.8793224024
 20
38.1614671341
 30
0.0
 40
2.6753649618
100
AcDbArc
 50
130.3963479627
 51
229.6036520373
  0
ARC
  5
148
100
AcDbEntity
  8
STANDARD
370
         0
390
0
  6
CONTINUOUS
 62
       252
100
AcDbCircle
 10
182.7188850629
 20
38.1628215109
 30
0.0
 40
2.1012931582
100
AcDbArc
 50
143.933878161
 51
217.0345979971
  0
ARC
  5
149
100
AcDbEntity
  8
STANDARD
370
         0
390
0
  6
CONTINUOUS
 62
       252
100
AcDbCircle
 10
181.8964309251
 20
37.5422788589
 30
0.0
 40
1.071
100
AcDbArc
 50
217.0345979971
 51
240.1494482367
  0
ARC
  5
14A
100
AcDbEntity
  8
STANDARD
370
         0
390
0
  6
CONTINUOUS
 62
       252
100
AcDbCircle
 10
182.414891948
 20
38.4457135938
 30
0.0
 40
2.1126314859
100
AcDbArc
 50
240.1494482367
 51
298.655055187
  0
ARC
  5
14B
100
AcDbEntity
  8
STANDARD
370
         0
390
0
  6
CONTINUOUS
 62
       252
100
AcDbCircle
 10
182.9143910001
 20
37.5316584262
 30
0.0
 40
1.071
100
AcDbArc
 50
298.655055187
 51
326.0793919107
  0
ARC
  5
14C
100
AcDbEntity
  8
STANDARD
370
         0
390
0
  6
CONTINUOUS
 62
       252
100
AcDbCircle
 10
181.9737642563
 20
38.164224578
 30
0.0
 40
2.2045425037
100
AcDbArc
 50
326.0793919107
 51
32.9337797451
  0
ARC
  5
14D
100
AcDbEntity
  8
STANDARD
370
         0
390
0
  6
CONTINUOUS
 62
       252
100
AcDbCircle
 10
182.9251458907
 20
38.780496915
 30
0.0
 40
1.071
100
AcDbArc
 50
32.9337797451
 51
59.7043309943
  0
ARC
  5
14E
100
AcDbEntity
  8
STANDARD
370
         0
390
0
  6
CONTINUOUS
 62
       252
100
AcDbCircle
 10
182.414891948
 20
37.9071504004
 30
0.0
 40
2.0824807071
100
AcDbArc
 50
59.7043309943
 51
121.5222523773
  0
ARC
  5
14F
100
AcDbEntity
  8
STANDARD
370
         0
390
0
  6
CONTINUOUS
 62
       252
100
AcDbCircle
 10
181.8860598223
 20
38.7693741553
 30
0.0
 40
1.071
100
AcDbArc
 50
121.5222523773
 51
143.933878161
  0
SPLINE
  5
150
100
AcDbEntity
  8
STANDARD
370
         0
390
0
  6
CONTINUOUS
 62
       252
100
AcDbSpline
210
0.0
220
0.0
230
1.0
 70
         8
 71
         1
 72
       142
 73
       140
 74
         0
 42
0.0
 43
0.0
 40
0.0
 40
0.0
 40
0.0071942446043165
 40
0.0143884892086331
 40
0.0215827338129496
 40
0.0287769784172662
 40
0.0359712230215827
 40
0.0431654676258993
 40
0.0503597122302158
 40
0.0575539568345324
 40
0.0647482014388489
 40
0.0719424460431655
 40
0.079136690647482
 40
0.0863309352517986
 40
0.0935251798561151
 40
0.1007194244604317
 40
0.1079136690647482
 40
0.1151079136690648
 40
0.1223021582733813
 40
0.1294964028776978
 40
0.1366906474820144
 40
0.1438848920863309
 40
0.1510791366906475
 40
0.158273381294964
 40
0.1654676258992806
 40
0.1726618705035971
 40
0.1798561151079137
 40
0.1870503597122302
 40
0.1942446043165468
 40
0.2014388489208633
 40
0.2086330935251799
 40
0.2158273381294964
 40
0.223021582733813
 40
0.2302158273381295
 40
0.2374100719424461
 40
0.2446043165467626
 40
0.2517985611510791
 40
0.2589928057553957
 40
0.2661870503597122
 40
0.2733812949640288
 40
0.2805755395683454
 40
0.2877697841726619
 40
0.2949640287769784
 40
0.302158273381295
 40
0.3093525179856115
 40
0.3165467625899281
 40
0.3237410071942447
 40
0.3309352517985612
 40
0.3381294964028777
 40
0.3453237410071943
 40
0.3525179856115108
 40
0.3597122302158274
 40
0.3669064748201439
 40
0.3741007194244604
 40
0.381294964028777
 40
0.3884892086330936
 40
0.3956834532374101
 40
0.4028776978417267
 40
0.4100719424460432
 40
0.4172661870503597
 40
0.4244604316546763
 40
0.4316546762589928
 40
0.4388489208633094
 40
0.4460431654676259
 40
0.4532374100719425
 40
0.460431654676259
 40
0.4676258992805756
 40
0.4748201438848921
 40
0.4820143884892086
 40
0.4892086330935252
 40
0.4964028776978418
 40
0.5035971223021583
 40
0.5107913669064749
 40
0.5179856115107914
 40
0.525179856115108
 40
0.5323741007194245
 40
0.539568345323741
 40
0.5467625899280576
 40
0.5539568345323741
 40
0.5611510791366907
 40
0.5683453237410072
 40
0.5755395683453237
 40
0.5827338129496403
 40
0.5899280575539568
 40
0.5971223021582734
 40
0.60431654676259
 40
0.6115107913669066
 40
0.6187050359712231
 40
0.6258992805755396
 40
0.6330935251798562
 40
0.6402877697841727
 40
0.6474820143884893
 40
0.6546762589928058
 40
0.6618705035971223
 40
0.6690647482014389
 40
0.6762589928057554
 40
0.683453237410072
 40
0.6906474820143885
 40
0.697841726618705
 40
0.7050359712230216
 40
0.7122302158273381
 40
0.7194244604316548
 40
0.7266187050359713
 40
0.7338129496402878
 40
0.7410071942446044
 40
0.7482014388489209
 40
0.7553956834532375
 40
0.762589928057554
 40
0.7697841726618705
 40
0.7769784172661871
 40
0.7841726618705036
 40
0.7913669064748202
 40
0.7985611510791367
 40
0.8057553956834533
 40
0.8129496402877698
 40
0.8201438848920863
 40
0.827338129496403
 40
0.8345323741007195
 40
0.8417266187050361
 40
0.8489208633093526
 40
0.8561151079136691
 40
0.8633093525179857
 40
0.8705035971223022
 40
0.8776978417266188
 40
0.8848920863309353
 40
0.8920863309352518
 40
0.8992805755395684
 40
0.9064748201438849
 40
0.9136690647482015
 40
0.920863309352518
 40
0.9280575539568345
 40
0.9352517985611512
 40
0.9424460431654677
 40
0.9496402877697843
 40
0.9568345323741008
 40
0.9640287769784173
 40
0.9712230215827339
 40
0.9784172661870504
 40
0.985611510791367
 40
0.9928057553956835
 40
1.0
 40
1.0
 10
172.71723760754054
 20
36.007174260274176
 30
0.0
 10
172.71723760754051
 20
38.160567877295428
 30
0.0
 10
171.31354399051943
 20
38.160567877295435
 30
0.0
 10
171.31354399051943
 20
36.617019358825246
 30
0.0
 10
171.19170766433155
 20
36.561149903375302
 30
0.0
 10
171.06665027553746
 20
36.511269956927357
 30
0.0
 10
170.93881857193421
 20
36.467642194345324
 30
0.0
 10
170.80868658327392
 20
36.430484211564234
 30
0.0
 10
170.67674984854492
 20
36.399965131397316
 30
0.0
 10
170.54351915984137
 20
36.37620310823803
 30
0.0
 10
170.40951398757343
 20
36.359263807205963
 30
0.0
 10
170.27525576405517
 20
36.349159898687738
 30
0.0
 10
170.14126120666305
 20
36.345851572747307
 30
0.0
 10
170.01526847503141
 20
36.346684467714546
 30
0.0
 10
169.89680823406857
 20
36.357063281706054
 30
0.0
 10
169.78581193868874
 20
36.375926242824782
 30
0.0
 10
169.68221104380609
 20
36.402211579173688
 30
0.0
 10
169.5859370043348
 20
36.434857518855679
 30
0.0
 10
169.49692127518904
 20
36.472802289973714
 30
0.0
 10
169.37685707095554
 20
36.537332129568583
 30
0.0
 10
169.27273849884671
 20
36.607811872973627
 30
0.0
 10
169.18945141044179
 20
36.676475517943807
 30
0.0
 10
169.11732948513549
 20
36.748837937344845
 30
0.0
 10
169.0538819172082
 20
36.826541446001734
 30
0.0
 10
168.99661790094032
 20
36.911228358739443
 30
0.0
 10
168.94304663061214
 20
37.004540990382992
 30
0.0
 10
168.89067730050394
 20
37.108121655757316
 30
0.0
 10
168.83650561999698
 20
37.227424441618268
 30
0.0
 10
168.78441354491508
 20
37.363535729442688
 30
0.0
 10
168.75254024098393
 20
37.465701113204616
 30
0.0
 10
168.7241403207949
 20
37.578466645132558
 30
0.0
 10
168.70023343021376
 20
37.703084206366064
 30
0.0
 10
168.68183921510612
 20
37.840805678044674
 30
0.0
 10
168.66997732133783
 20
37.992882941307947
 30
0.0
 10
168.66566739477454
 20
38.16056787729547
 30
0.0
 10
168.67121205705593
 20
38.32825281328298
 30
0.0
 10
168.68647222309301
 20
38.480330076546274
 30
0.0
 10
168.71013613225844
 20
38.618051548224884
 30
0.0
 10
168.740892023925
 20
38.742669109458376
 30
0.0
 10
168.77742813746548
 20
38.855434641386296
 30
0.0
 10
168.81843271225256
 20
38.957600025148238
 30
0.0
 10
168.88544846289849
 20
39.093711312972658
 30
0.0
 10
168.95513959782096
 20
39.213014098833597
 30
0.0
 10
169.02251203331147
 20
39.316594764207892
 30
0.0
 10
169.09143074865261
 20
39.409907395851398
 30
0.0
 10
169.16510013174326
 20
39.4945943085891
 30
0.0
 10
169.24672457048212
 20
39.572297817245975
 30
0.0
 10
169.33950845276806
 20
39.644660236646992
 30
0.0
 10
169.44665616649979
 20
39.713323881617157
 30
0.0
 10
169.53368963864449
 20
39.760794516071215
 30
0.0
 10
169.62979628195637
 20
39.806151637241541
 30
0.0
 10
169.73506427876052
 20
39.848333475692193
 30
0.0
 10
169.84958181138202
 20
39.886278261987293
 30
0.0
 10
169.97343706214608
 20
39.918924226690891
 30
0.0
 10
170.1067182133778
 20
39.945209600367122
 30
0.0
 10
170.24951344740228
 20
39.964072613580022
 30
0.0
 10
170.40191094654469
 20
39.974451496893721
 30
0.0
 10
170.56399889313016
 20
39.975284480872261
 30
0.0
 10
170.79406770155856
 20
39.967917054520022
 30
0.0
 10
171.02486856537078
 20
39.945649114147635
 30
0.0
 10
171.25495506809463
 20
39.908338718938815
 30
0.0
 10
171.48285928197862
 20
39.856031682227197
 30
0.0
 10
171.70712233811793
 20
39.788964571426845
 30
0.0
 10
171.92632529026253
 20
39.707561730255989
 30
0.0
 10
172.1391189154063
 20
39.612426366706195
 30
0.0
 10
172.34425114506126
 20
39.50432609735185
 30
0.0
 10
172.54059096924271
 20
39.384173656636044
 30
0.0
 10
172.54059096924271
 20
40.417978012327687
 30
0.0
 10
172.30159000696241
 20
40.526115321282433
 30
0.0
 10
172.05643438493087
 20
40.6226451417334
 30
0.0
 10
171.8059791867947
 20
40.707072011252961
 30
0.0
 10
171.55113029148532
 20
40.778985649839605
 30
0.0
 10
171.29283360839784
 20
40.838067197395233
 30
0.0
 10
171.03206343577696
 20
40.884093797600478
 30
0.0
 10
170.76981024122898
 20
40.916941392942206
 30
0.0
 10
170.5070681849877
 20
40.93658565755333
 30
0.0
 10
170.24482271392364
 20
40.943101059716383
 30
0.0
 10
169.98604739834181
 20
40.941823961442033
 30
0.0
 10
169.74274299622402
 20
40.925911465750239
 30
0.0
 10
169.51476872344989
 20
40.896991435780414
 30
0.0
 10
169.30198379589874
 20
40.856691734671969
 30
0.0
 10
169.10424742945003
 20
40.806640225564372
 30
0.0
 10
168.92141883998318
 20
40.748464771597
 30
0.0
 10
168.75335724337771
 20
40.683793235909292
 30
0.0
 10
168.59992185551295
 20
40.614253481640695
 30
0.0
 10
168.46097189226842
 20
40.541473371930572
 30
0.0
 10
168.34412953060473
 20
40.471797520257198
 30
0.0
 10
168.23823708319324
 20
40.39997433318328
 30
0.0
 10
168.14177874469544
 20
40.325257756635722
 30
0.0
 10
168.05323870977276
 20
40.246901736541339
 30
0.0
 10
167.97110117308674
 20
40.164160218826957
 30
0.0
 10
167.89385032929877
 20
40.076287149419429
 30
0.0
 10
167.78382078862285
 20
39.933223892598477
 30
0.0
 10
167.67625990193847
 20
39.774418090306426
 30
0.0
 10
167.60195921011902
 20
39.655021323344201
 30
0.0
 10
167.52850974543466
 20
39.525130830899869
 30
0.0
 10
167.45800574917493
 20
39.382827278047174
 30
0.0
 10
167.39254146262951
 20
39.226191329859759
 30
0.0
 10
167.33421112708797
 20
39.053303651411376
 30
0.0
 10
167.2851089838399
 20
38.862244907775704
 30
0.0
 10
167.24732927417497
 20
38.651095764026472
 30
0.0
 10
167.22296623938271
 20
38.417936885237374
 30
0.0
 10
167.21411412075278
 20
38.160848936482118
 30
0.0
 10
167.21411381402913
 20
38.160567862861889
 30
0.0
 10
167.21411412075278
 20
38.160286818108702
 30
0.0
 10
167.22296623938271
 20
37.903198869353446
 30
0.0
 10
167.24732927417497
 20
37.670039990564355
 30
0.0
 10
167.2851089838399
 20
37.458890846815123
 30
0.0
 10
167.33421112708797
 20
37.267832103179472
 30
0.0
 10
167.39254146262951
 20
37.094944424731089
 30
0.0
 10
167.45800574917493
 20
36.938308476543696
 30
0.0
 10
167.52850974543463
 20
36.796004923691001
 30
0.0
 10
167.60195921011899
 20
36.666114431246676
 30
0.0
 10
167.67625990193847
 20
36.546717664284465
 30
0.0
 10
167.78382078862282
 20
36.387911861992421
 30
0.0
 10
167.89385032929877
 20
36.24484860517147
 30
0.0
 10
167.97110117308671
 20
36.156975535763948
 30
0.0
 10
168.05323870977273
 20
36.074234018049573
 30
0.0
 10
168.14177874469544
 20
35.995877997955176
 30
0.0
 10
168.23823708319324
 20
35.921161421407604
 30
0.0
 10
168.34412953060473
 20
35.849338234333722
 30
0.0
 10
168.46097189226839
 20
35.779662382660348
 30
0.0
 10
168.59992185551292
 20
35.706882272950246
 30
0.0
 10
168.75335724337765
 20
35.637342518681614
 30
0.0
 10
168.92141883998315
 20
35.572670982993927
 30
0.0
 10
169.10424742945
 20
35.514495529026568
 30
0.0
 10
169.30198379589871
 20
35.46444401991895
 30
0.0
 10
169.51476872344986
 20
35.424144318810541
 30
0.0
 10
169.74274299622402
 20
35.395224288840708
 30
0.0
 10
169.98604739834178
 20
35.379311793148922
 30
0.0
 10
170.24482271392364
 20
35.378034694874565
 30
0.0
 10
170.52905125727611
 20
35.38584952449677
 30
0.0
 10
170.81394232573726
 20
35.409438580226883
 30
0.0
 10
171.09818351200909
 20
35.448911963849596
 30
0.0
 10
171.38044812192086
 20
35.50423387728592
 30
0.0
 10
171.65941550032989
 20
35.575220917392357
 30
0.0
 10
171.93379149982474
 20
35.661543770774863
 30
0.0
 10
172.20232843113149
 20
35.762732290440965
 30
0.0
 10
172.4638438523356
 20
35.878183790698088
 30
0.0
 10
172.71723760754054
 20
36.007174260274176
 30
0.0
  0
SPLINE
  5
151
100
AcDbEntity
  8
STANDARD
370
         0
390
0
  6
CONTINUOUS
 62
       252
100
AcDbSpline
210
0.0
220
0.0
230
1.0
 70
         8
 71
         1
 72
        84
 73
        82
 74
         0
 42
0.0
 43
0.0
 40
0.0
 40
0.0
 40
0.0123456790123457
 40
0.0246913580246914
 40
0.037037037037037
 40
0.0493827160493827
 40
0.0617283950617284
 40
0.0740740740740741
 40
0.0864197530864197
 40
0.0987654320987654
 40
0.1111111111111111
 40
0.1234567901234568
 40
0.1358024691358025
 40
0.1481481481481481
 40
0.1604938271604938
 40
0.1728395061728395
 40
0.1851851851851852
 40
0.1975308641975309
 40
0.2098765432098765
 40
0.2222222222222222
 40
0.2345679012345679
 40
0.2469135802469136
 40
0.2592592592592592
 40
0.2716049382716049
 40
0.2839506172839506
 40
0.2962962962962963
 40
0.308641975308642
 40
0.3209876543209876
 40
0.3333333333333333
 40
0.345679012345679
 40
0.3580246913580247
 40
0.3703703703703704
 40
0.382716049382716
 40
0.3950617283950617
 40
0.4074074074074074
 40
0.4197530864197531
 40
0.4320987654320987
 40
0.4444444444444444
 40
0.4567901234567901
 40
0.4691358024691358
 40
0.4814814814814815
 40
0.4938271604938271
 40
0.5061728395061729
 40
0.5185185185185185
 40
0.5308641975308641
 40
0.5432098765432099
 40
0.5555555555555556
 40
0.5679012345679012
 40
0.5802469135802468
 40
0.5925925925925926
 40
0.6049382716049383
 40
0.6172839506172839
 40
0.6296296296296295
 40
0.6419753086419753
 40
0.654320987654321
 40
0.6666666666666666
 40
0.6790123456790123
 40
0.691358024691358
 40
0.7037037037037037
 40
0.7160493827160493
 40
0.728395061728395
 40
0.7407407407407407
 40
0.7530864197530864
 40
0.7654320987654321
 40
0.7777777777777777
 40
0.7901234567901234
 40
0.8024691358024692
 40
0.8148148148148148
 40
0.8271604938271604
 40
0.8395061728395061
 40
0.8518518518518519
 40
0.8641975308641975
 40
0.8765432098765431
 40
0.8888888888888888
 40
0.9012345679012346
 40
0.9135802469135802
 40
0.9259259259259258
 40
0.9382716049382716
 40
0.9506172839506173
 40
0.9629629629629629
 40
0.9753086419753085
 40
0.9876543209876543
 40
1.0
 40
1.0
 10
178.32392496544546
 20
39.14238211211093
 30
0.0
 10
178.31832558618783
 20
39.294514730958511
 30
0.0
 10
178.3029148266429
 20
39.43248724584884
 30
0.0
 10
178.27901739242387
 20
39.557435429384952
 30
0.0
 10
178.24795798914391
 20
39.670495054169997
 30
0.0
 10
178.21106132241616
 20
39.772801892807024
 30
0.0
 10
178.16965209785383
 20
39.865491717899175
 30
0.0
 10
178.10197500859928
 20
39.98897905770999
 30
0.0
 10
178.03159613329103
 20
40.097216837937239
 30
0.0
 10
177.96355883928118
 20
40.191190681160357
 30
0.0
 10
177.89396000610398
 20
40.275848822572335
 30
0.0
 10
177.81956362366111
 20
40.352681256809987
 30
0.0
 10
177.73713368185435
 20
40.423177978510111
 30
0.0
 10
177.64343417058541
 20
40.488828982309556
 30
0.0
 10
177.53522907975602
 20
40.551124262845107
 30
0.0
 10
177.3999600990802
 20
40.615067204930966
 30
0.0
 10
177.2439748392668
 20
40.673612087975137
 30
0.0
 10
177.12832720118564
 20
40.708037599585268
 30
0.0
 10
177.00324969657203
 20
40.737655740749332
 30
0.0
 10
176.86865327288183
 20
40.761503218229635
 30
0.0
 10
176.72444887757101
 20
40.778616738788493
 30
0.0
 10
176.57054745809543
 20
40.788033009188233
 30
0.0
 10
176.40685996191107
 20
40.788788736191179
 30
0.0
 10
173.8577386713705
 20
40.788788736191201
 30
0.0
 10
173.8577386713705
 20
35.532347018399712
 30
0.0
 10
175.25345675647671
 20
35.532347018399697
 30
0.0
 10
175.25345675647671
 20
39.783970049246939
 30
0.0
 10
176.15762461306628
 20
39.783970049246946
 30
0.0
 10
176.25892903415621
 20
39.781714868960776
 30
0.0
 10
176.35105261744391
 20
39.770115774623044
 30
0.0
 10
176.43412125309976
 20
39.750823526011679
 30
0.0
 10
176.50826083129417
 20
39.725488882904656
 30
0.0
 10
176.57359724219762
 20
39.695762605079921
 30
0.0
 10
176.63025637598048
 20
39.663295452315381
 30
0.0
 10
176.68927002454211
 20
39.620780107914783
 30
0.0
 10
176.73828539415967
 20
39.574787327877956
 30
0.0
 10
176.78051538914411
 20
39.523523814037368
 30
0.0
 10
176.80966774602899
 20
39.480538478669274
 30
0.0
 10
176.83816603236389
 20
39.432823077652891
 30
0.0
 10
176.86764511982099
 20
39.377865134979359
 30
0.0
 10
176.89599252981068
 20
39.315164198873873
 30
0.0
 10
176.92133557675032
 20
39.242773938087772
 30
0.0
 10
176.94180157505727
 20
39.158748021372475
 30
0.0
 10
176.95551783914891
 20
39.061140117479319
 30
0.0
 10
176.96061168344258
 20
38.948003895159715
 30
0.0
 10
176.95551783914891
 20
38.834867672840176
 30
0.0
 10
176.9418015750573
 20
38.737259768947098
 30
0.0
 10
176.92133557675032
 20
38.653233852231843
 30
0.0
 10
176.89599252981068
 20
38.580843591445763
 30
0.0
 10
176.86764511982099
 20
38.518142655340277
 30
0.0
 10
176.83816603236394
 20
38.463184712666759
 30
0.0
 10
176.80008990374614
 20
38.400652664056352
 30
0.0
 10
176.76004775696163
 20
38.346081296501033
 30
0.0
 10
176.71482668769951
 20
38.297677311833255
 30
0.0
 10
176.67557945512743
 20
38.264342887423467
 30
0.0
 10
176.63025637598054
 20
38.232712338004255
 30
0.0
 10
176.5807801808744
 20
38.203991089972341
 30
0.0
 10
176.52457760086617
 20
38.177245876883362
 30
0.0
 10
176.46156249434847
 20
38.153606247614718
 30
0.0
 10
176.39164871971388
 20
38.134201751043896
 30
0.0
 10
176.31475013535507
 20
38.120161936048298
 30
0.0
 10
176.23078059966466
 20
38.112616351505402
 30
0.0
 10
175.42891845860447
 20
38.112616351473726
 30
0.0
 10
177.35899718200881
 20
35.532347018399697
 30
0.0
 10
179.08971327105164
 20
35.532347018399697
 30
0.0
 10
177.32931176833671
 20
37.641335273628542
 30
0.0
 10
177.43784138842418
 20
37.686263145651161
 30
0.0
 10
177.53522907975596
 20
37.733639961376859
 30
0.0
 10
177.64343417058541
 20
37.79593524191246
 30
0.0
 10
177.73713368185437
 20
37.861586245711905
 30
0.0
 10
177.81956362366117
 20
37.932082967412022
 30
0.0
 10
177.89396000610401
 20
38.008915401649666
 30
0.0
 10
177.96355883928121
 20
38.093573543061623
 30
0.0
 10
178.03159613329103
 20
38.187547386284734
 30
0.0
 10
178.10197500859928
 20
38.295785166511969
 30
0.0
 10
178.16965209785383
 20
38.419272506322805
 30
0.0
 10
178.21106132241616
 20
38.511962331414942
 30
0.0
 10
178.24795798914388
 20
38.614269170051976
 30
0.0
 10
178.27901739242387
 20
38.727328794837
 30
0.0
 10
178.3029148266429
 20
38.852276978373098
 30
0.0
 10
178.31832558618783
 20
38.99024949326337
 30
0.0
 10
178.32392496544546
 20
39.14238211211093
 30
0.0
  0
SPLINE
  5
152
100
AcDbEntity
  8
STANDARD
370
         0
390
0
  6
CONTINUOUS
 62
       252
100
AcDbSpline
210
0.0
220
0.0
230
1.0
 70
         8
 71
         1
 72
        89
 73
        87
 74
         0
 42
0.0
 43
0.0
 40
0.0
 40
0.0
 40
0.0116279069767442
 40
0.0232558139534884
 40
0.0348837209302326
 40
0.0465116279069767
 40
0.0581395348837209
 40
0.0697674418604651
 40
0.0813953488372093
 40
0.0930232558139535
 40
0.1046511627906977
 40
0.1162790697674419
 40
0.1279069767441861
 40
0.1395348837209302
 40
0.1511627906976744
 40
0.1627906976744186
 40
0.1744186046511628
 40
0.186046511627907
 40
0.1976744186046512
 40
0.2093023255813953
 40
0.2209302325581395
 40
0.2325581395348837
 40
0.2441860465116279
 40
0.2558139534883721
 40
0.2674418604651163
 40
0.2790697674418605
 40
0.2906976744186047
 40
0.3023255813953488
 40
0.313953488372093
 40
0.3255813953488372
 40
0.3372093023255814
 40
0.3488372093023256
 40
0.3604651162790697
 40
0.372093023255814
 40
0.3837209302325582
 40
0.3953488372093023
 40
0.4069767441860465
 40
0.4186046511627907
 40
0.4302325581395349
 40
0.4418604651162791
 40
0.4534883720930232
 40
0.4651162790697674
 40
0.4767441860465116
 40
0.4883720930232558
 40
0.5
 40
0.5116279069767442
 40
0.5232558139534884
 40
0.5348837209302325
 40
0.5465116279069767
 40
0.5581395348837209
 40
0.5697674418604651
 40
0.5813953488372093
 40
0.5930232558139534
 40
0.6046511627906976
 40
0.6162790697674418
 40
0.6279069767441861
 40
0.6395348837209303
 40
0.6511627906976745
 40
0.6627906976744186
 40
0.6744186046511628
 40
0.686046511627907
 40
0.6976744186046512
 40
0.7093023255813954
 40
0.7209302325581395
 40
0.7325581395348837
 40
0.7441860465116279
 40
0.7558139534883721
 40
0.7674418604651163
 40
0.7790697674418604
 40
0.7906976744186046
 40
0.8023255813953488
 40
0.813953488372093
 40
0.8255813953488372
 40
0.8372093023255813
 40
0.8488372093023255
 40
0.8604651162790697
 40
0.872093023255814
 40
0.8837209302325582
 40
0.8953488372093024
 40
0.9069767441860465
 40
0.9186046511627907
 40
0.9302325581395349
 40
0.9418604651162791
 40
0.9534883720930233
 40
0.9651162790697674
 40
0.9767441860465116
 40
0.9883720930232558
 40
1.0
 40
1.0
 10
182.42345994796602
 20
28.252935967185465
 30
0.0
 10
182.85396259819615
 20
28.275036841423095
 30
0.0
 10
183.28446462924671
 20
28.330254753826701
 30
0.0
 10
183.71496547797713
 20
28.413457573461269
 30
0.0
 10
184.14546458124681
 20
28.519513169391782
 30
0.0
 10
184.57596137591526
 20
28.643289410683227
 30
0.0
 10
185.29344937395337
 20
28.875023237024109
 30
0.0
 10
186.01092678779852
 20
29.117965293552622
 30
0.0
 10
186.72839101031846
 20
29.348355714828966
 30
0.0
 10
187.15886212742731
 20
29.47068107865071
 30
0.0
 10
187.58932699395089
 20
29.574802171288294
 30
0.0
 10
188.01978504674869
 20
29.6555868618067
 30
0.0
 10
188.45023572268002
 20
29.707903019270905
 30
0.0
 10
188.88067845860442
 20
29.726618512745905
 30
0.0
 10
189.1366338681093
 20
29.720071623355103
 30
0.0
 10
189.39258686295292
 20
29.700905700545064
 30
0.0
 10
189.64853803517846
 20
29.670197588053934
 30
0.0
 10
189.9044879768289
 20
29.62902412961984
 30
0.0
 10
190.16043727994753
 20
29.578462168980941
 30
0.0
 10
190.41638653657742
 20
29.519588549875365
 30
0.0
 10
190.80031162945016
 20
29.418049357269176
 30
0.0
 10
191.18423994796586
 20
29.303866179140027
 30
0.0
 10
191.91251994796616
 20
29.664738852361545
 30
0.0
 10
191.41434149848007
 20
29.829418924538892
 30
0.0
 10
190.91617348238222
 20
29.981915978837982
 30
0.0
 10
190.58406511258781
 20
30.072892015286005
 30
0.0
 10
190.25195814677079
 20
30.152572892392996
 30
0.0
 10
189.9198512916976
 20
30.218606416267551
 30
0.0
 10
189.58774325413452
 20
30.268640393018284
 30
0.0
 10
189.25563274084806
 20
30.300322628753776
 30
0.0
 10
188.92351845860455
 20
30.311300929582682
 30
0.0
 10
188.49022009384396
 20
30.292345642948977
 30
0.0
 10
188.05691368716293
 20
30.23938090540868
 30
0.0
 10
187.62359981298439
 20
30.157641050775535
 30
0.0
 10
187.19027904573124
 20
30.052360412863312
 30
0.0
 10
186.75695195982632
 20
29.928773325485775
 30
0.0
 10
186.0347276686974
 20
29.696330556835161
 30
0.0
 10
185.31249008074244
 20
29.451809382734631
 30
0.0
 10
184.59024185532661
 20
29.219442830099752
 30
0.0
 10
184.15688892039182
 20
29.095938056019197
 30
0.0
 10
183.72353368776547
 20
28.990767169169629
 30
0.0
 10
183.2901767318705
 20
28.909164503364817
 30
0.0
 10
182.85681862712974
 20
28.856364392418495
 30
0.0
 10
182.42345994796611
 20
28.837601170144445
 30
0.0
 10
181.99010126880248
 20
28.856364392418502
 30
0.0
 10
181.55674316406171
 20
28.909164503364817
 30
0.0
 10
181.12338620816672
 20
28.990767169169629
 30
0.0
 10
180.69003097554042
 20
29.095938056019197
 30
0.0
 10
180.25667804060564
 20
29.219442830099759
 30
0.0
 10
179.53442981518984
 20
29.451809382734631
 30
0.0
 10
178.81219222723487
 20
29.696330556835161
 30
0.0
 10
178.08996793610598
 20
29.928773325485782
 30
0.0
 10
177.65664085020109
 20
30.05236041286334
 30
0.0
 10
177.22332008294794
 20
30.157641050775556
 30
0.0
 10
176.79000620876943
 20
30.239380905408701
 30
0.0
 10
176.3566998020884
 20
30.292345642949005
 30
0.0
 10
175.92340143732781
 20
30.311300929582714
 30
0.0
 10
175.59128715506048
 20
30.300322628745768
 30
0.0
 10
175.25917664160721
 20
30.268640392953973
 30
0.0
 10
174.92706860359141
 20
30.218606416050466
 30
0.0
 10
174.59496174763649
 20
30.152572891878357
 30
0.0
 10
174.2628547803659
 20
30.072892014280832
 30
0.0
 10
173.93074640840297
 20
29.981915977101004
 30
0.0
 10
173.43257838739927
 20
29.829418921146342
 30
0.0
 10
172.93439993059462
 20
29.664738846499187
 30
0.0
 10
173.66267994796618
 20
29.303866179140186
 30
0.0
 10
174.046608266482
 20
29.4180493572693
 30
0.0
 10
174.43053335935485
 20
29.519588549875451
 30
0.0
 10
174.68648261598477
 20
29.578462168981002
 30
0.0
 10
174.9424319191034
 20
29.629024129619882
 30
0.0
 10
175.1983818607539
 20
29.670197588053977
 30
0.0
 10
175.45433303297941
 20
29.700905700545107
 30
0.0
 10
175.710286027823
 20
29.720071623355146
 30
0.0
 10
175.96624143732788
 20
29.726618512745961
 30
0.0
 10
176.39668417325231
 20
29.707903019270955
 30
0.0
 10
176.82713484918366
 20
29.655586861806736
 30
0.0
 10
177.25759290198144
 20
29.574802171288322
 30
0.0
 10
177.68805776850502
 20
29.470681078650738
 30
0.0
 10
178.1185288856139
 20
29.348355714829008
 30
0.0
 10
178.83599310813381
 20
29.117965293552651
 30
0.0
 10
179.55347052197899
 20
28.875023237024116
 30
0.0
 10
180.27095852001702
 20
28.643289410683241
 30
0.0
 10
180.70145531468543
 20
28.519513169391796
 30
0.0
 10
181.13195441795509
 20
28.413457573461276
 30
0.0
 10
181.56245526668548
 20
28.330254753826701
 30
0.0
 10
181.99295729773598
 20
28.275036841423095
 30
0.0
 10
182.42345994796602
 20
28.252935967185465
 30
0.0
  0
HATCH
  5
153
100
AcDbEntity
  8
0
390
0
  6
CONTINUOUS
 62
       252
100
AcDbHatch
 10
0.0
 20
0.0
 30
0.0
210
0.0
220
0.0
230
1.0
  2
SOLID
 70
         1
 71
         1
 91
        1
 92
        1
 93
        1
 72
         4
 94
        1
 73
         0
 74
         1
 95
       89
 96
       87
 40
0.0
 40
0.0
 40
0.011627907
 40
0.023255814
 40
0.0348837209
 40
0.0465116279
 40
0.0581395349
 40
0.0697674419
 40
0.0813953488
 40
0.0930232558
 40
0.1046511628
 40
0.1162790698
 40
0.1279069767
 40
0.1395348837
 40
0.1511627907
 40
0.1627906977
 40
0.1744186047
 40
0.1860465116
 40
0.1976744186
 40
0.2093023256
 40
0.2209302326
 40
0.2325581395
 40
0.2441860465
 40
0.2558139535
 40
0.2674418605
 40
0.2790697674
 40
0.2906976744
 40
0.3023255814
 40
0.3139534884
 40
0.3255813953
 40
0.3372093023
 40
0.3488372093
 40
0.3604651163
 40
0.3720930233
 40
0.3837209302
 40
0.3953488372
 40
0.4069767442
 40
0.4186046512
 40
0.4302325581
 40
0.4418604651
 40
0.4534883721
 40
0.4651162791
 40
0.476744186
 40
0.488372093
 40
0.5
 40
0.511627907
 40
0.523255814
 40
0.5348837209
 40
0.5465116279
 40
0.5581395349
 40
0.5697674419
 40
0.5813953488
 40
0.5930232558
 40
0.6046511628
 40
0.6162790698
 40
0.6279069767
 40
0.6395348837
 40
0.6511627907
 40
0.6627906977
 40
0.6744186047
 40
0.6860465116
 40
0.6976744186
 40
0.7093023256
 40
0.7209302326
 40
0.7325581395
 40
0.7441860465
 40
0.7558139535
 40
0.7674418605
 40
0.7790697674
 40
0.7906976744
 40
0.8023255814
 40
0.8139534884
 40
0.8255813953
 40
0.8372093023
 40
0.8488372093
 40
0.8604651163
 40
0.8720930233
 40
0.8837209302
 40
0.8953488372
 40
0.9069767442
 40
0.9186046512
 40
0.9302325581
 40
0.9418604651
 40
0.9534883721
 40
0.9651162791
 40
0.976744186
 40
0.988372093
 40
1.0
 40
1.0
 10
182.42345994796602
 20
28.252935967185465
 10
182.85396259819615
 20
28.275036841423095
 10
183.28446462924671
 20
28.330254753826701
 10
183.71496547797713
 20
28.413457573461269
 10
184.14546458124681
 20
28.519513169391782
 10
184.57596137591526
 20
28.643289410683227
 10
185.29344937395337
 20
28.875023237024109
 10
186.01092678779852
 20
29.117965293552622
 10
186.72839101031846
 20
29.348355714828966
 10
187.15886212742731
 20
29.47068107865071
 10
187.58932699395089
 20
29.574802171288294
 10
188.01978504674869
 20
29.6555868618067
 10
188.45023572268002
 20
29.707903019270905
 10
188.88067845860442
 20
29.726618512745905
 10
189.1366338681093
 20
29.720071623355103
 10
189.39258686295292
 20
29.700905700545064
 10
189.64853803517846
 20
29.670197588053934
 10
189.9044879768289
 20
29.62902412961984
 10
190.16043727994753
 20
29.578462168980941
 10
190.41638653657742
 20
29.519588549875365
 10
190.80031162945016
 20
29.418049357269176
 10
191.18423994796586
 20
29.303866179140027
 10
191.91251994796616
 20
29.664738852361545
 10
191.41434149848007
 20
29.829418924538892
 10
190.91617348238222
 20
29.981915978837982
 10
190.58406511258781
 20
30.072892015286005
 10
190.25195814677079
 20
30.152572892392996
 10
189.9198512916976
 20
30.218606416267551
 10
189.58774325413452
 20
30.268640393018284
 10
189.25563274084806
 20
30.300322628753776
 10
188.92351845860455
 20
30.311300929582682
 10
188.49022009384396
 20
30.292345642948977
 10
188.05691368716293
 20
30.23938090540868
 10
187.62359981298439
 20
30.157641050775535
 10
187.19027904573124
 20
30.052360412863312
 10
186.75695195982632
 20
29.928773325485775
 10
186.0347276686974
 20
29.696330556835161
 10
185.31249008074244
 20
29.451809382734631
 10
184.59024185532661
 20
29.219442830099752
 10
184.15688892039182
 20
29.095938056019197
 10
183.72353368776547
 20
28.990767169169629
 10
183.2901767318705
 20
28.909164503364817
 10
182.85681862712974
 20
28.856364392418495
 10
182.42345994796611
 20
28.837601170144445
 10
181.99010126880248
 20
28.856364392418502
 10
181.55674316406171
 20
28.909164503364817
 10
181.12338620816672
 20
28.990767169169629
 10
180.69003097554042
 20
29.095938056019197
 10
180.25667804060564
 20
29.219442830099759
 10
179.53442981518984
 20
29.451809382734631
 10
178.81219222723487
 20
29.696330556835161
 10
178.08996793610598
 20
29.928773325485782
 10
177.65664085020109
 20
30.05236041286334
 10
177.22332008294794
 20
30.157641050775556
 10
176.79000620876943
 20
30.239380905408701
 10
176.3566998020884
 20
30.292345642949005
 10
175.92340143732781
 20
30.311300929582714
 10
175.59128715506048
 20
30.300322628745768
 10
175.25917664160721
 20
30.268640392953973
 10
174.92706860359141
 20
30.218606416050466
 10
174.59496174763649
 20
30.152572891878357
 10
174.2628547803659
 20
30.072892014280832
 10
173.93074640840297
 20
29.981915977101004
 10
173.43257838739927
 20
29.829418921146342
 10
172.93439993059462
 20
29.664738846499187
 10
173.66267994796618
 20
29.303866179140186
 10
174.046608266482
 20
29.4180493572693
 10
174.43053335935485
 20
29.519588549875451
 10
174.68648261598477
 20
29.578462168981002
 10
174.9424319191034
 20
29.629024129619882
 10
175.1983818607539
 20
29.670197588053977
 10
175.45433303297941
 20
29.700905700545107
 10
175.710286027823
 20
29.720071623355146
 10
175.96624143732788
 20
29.726618512745961
 10
176.39668417325231
 20
29.707903019270955
 10
176.82713484918366
 20
29.655586861806736
 10
177.25759290198144
 20
29.574802171288322
 10
177.68805776850502
 20
29.470681078650738
 10
178.1185288856139
 20
29.348355714829008
 10
178.83599310813381
 20
29.117965293552651
 10
179.55347052197899
 20
28.875023237024116
 10
180.27095852001702
 20
28.643289410683241
 10
180.70145531468543
 20
28.519513169391796
 10
181.13195441795509
 20
28.413457573461276
 10
181.56245526668548
 20
28.330254753826701
 10
181.99295729773598
 20
28.275036841423095
 10
182.42345994796602
 20
28.252935967185465
 97
        0
 75
         0
 76
         1
 98
        1
 10
0.0
 20
0.0
  0
SPLINE
  5
154
100
AcDbEntity
  8
STANDARD
370
         0
390
0
  6
CONTINUOUS
 62
       252
100
AcDbSpline
210
0.0
220
0.0
230
1.0
 70
         8
 71
         1
 72
        99
 73
        97
 74
         0
 42
0.0
 43
0.0
 40
0.0
 40
0.0
 40
0.0104166666666667
 40
0.0208333333333333
 40
0.03125
 40
0.0416666666666667
 40
0.0520833333333333
 40
0.0625
 40
0.0729166666666667
 40
0.0833333333333333
 40
0.09375
 40
0.1041666666666667
 40
0.1145833333333333
 40
0.125
 40
0.1354166666666667
 40
0.1458333333333333
 40
0.15625
 40
0.1666666666666667
 40
0.1770833333333333
 40
0.1875
 40
0.1979166666666667
 40
0.2083333333333333
 40
0.21875
 40
0.2291666666666667
 40
0.2395833333333333
 40
0.25
 40
0.2604166666666666
 40
0.2708333333333333
 40
0.28125
 40
0.2916666666666666
 40
0.3020833333333333
 40
0.3125
 40
0.3229166666666666
 40
0.3333333333333333
 40
0.34375
 40
0.3541666666666666
 40
0.3645833333333333
 40
0.375
 40
0.3854166666666666
 40
0.3958333333333333
 40
0.40625
 40
0.4166666666666666
 40
0.4270833333333333
 40
0.4375
 40
0.4479166666666666
 40
0.4583333333333333
 40
0.46875
 40
0.4791666666666666
 40
0.4895833333333333
 40
0.5
 40
0.5104166666666666
 40
0.5208333333333333
 40
0.53125
 40
0.5416666666666666
 40
0.5520833333333333
 40
0.5625
 40
0.5729166666666666
 40
0.5833333333333333
 40
0.59375
 40
0.6041666666666666
 40
0.6145833333333333
 40
0.625
 40
0.6354166666666666
 40
0.6458333333333333
 40
0.65625
 40
0.6666666666666666
 40
0.6770833333333333
 40
0.6875
 40
0.6979166666666666
 40
0.7083333333333333
 40
0.71875
 40
0.7291666666666666
 40
0.7395833333333333
 40
0.75
 40
0.7604166666666666
 40
0.7708333333333333
 40
0.78125
 40
0.7916666666666666
 40
0.8020833333333333
 40
0.8125
 40
0.8229166666666666
 40
0.8333333333333333
 40
0.84375
 40
0.8541666666666666
 40
0.8645833333333333
 40
0.875
 40
0.8854166666666666
 40
0.8958333333333333
 40
0.90625
 40
0.9166666666666666
 40
0.9270833333333333
 40
0.9375
 40
0.9479166666666666
 40
0.9583333333333333
 40
0.96875
 40
0.9791666666666666
 40
0.9895833333333333
 40
1.0
 40
1.0
 10
182.42345994796602
 20
30.31062320122798
 30
0.0
 10
182.85396259819615
 20
30.332724075465606
 30
0.0
 10
183.28446462924666
 20
30.387941987869205
 30
0.0
 10
183.71496547797707
 20
30.471144807503777
 30
0.0
 10
184.14546458124681
 20
30.577200403434272
 30
0.0
 10
184.57596137591523
 20
30.700976644725721
 30
0.0
 10
185.29344937395328
 20
30.932710471066571
 30
0.0
 10
186.01092678779847
 20
31.175652527595119
 30
0.0
 10
186.72839101031843
 20
31.406042948871463
 30
0.0
 10
187.15886212742728
 20
31.528368312693193
 30
0.0
 10
187.58932699395086
 20
31.632489405330791
 30
0.0
 10
188.01978504674867
 20
31.713274095849169
 30
0.0
 10
188.45023572268005
 20
31.765590253313402
 30
0.0
 10
188.88067845860448
 20
31.784305746788402
 30
0.0
 10
189.11868251082339
 20
31.778642031419377
 30
0.0
 10
189.3566844393055
 20
31.762001981243252
 30
0.0
 10
189.59468472005739
 20
31.735251385799767
 30
0.0
 10
189.83268382908562
 20
31.699256034628664
 30
0.0
 10
190.07068224239691
 20
31.654881717269692
 30
0.0
 10
190.30868043599784
 20
31.602994223262606
 30
0.0
 10
190.66567835570669
 20
31.512969690654952
 30
0.0
 10
191.02267845860442
 20
31.410910576750105
 30
0.0
 10
193.73321994796621
 20
30.597733914310922
 30
0.0
 10
193.91340275176151
 20
30.738581560161702
 30
0.0
 10
194.08506480964056
 20
30.890002287239462
 30
0.0
 10
194.16741354993607
 20
30.969431857944254
 30
0.0
 10
194.24729994796601
 20
31.051196772311627
 30
0.0
 10
191.02267845860439
 20
32.008421311508592
 30
0.0
 10
190.67281864264598
 20
32.10727516492544
 30
0.0
 10
190.32296076913275
 20
32.194291769370821
 30
0.0
 10
190.08972251923726
 20
32.244368625774641
 30
0.0
 10
189.85648401261636
 20
32.287147536938839
 30
0.0
 10
189.62324480125642
 20
32.321813724584693
 30
0.0
 10
189.3900044371436
 20
32.347552410433515
 30
0.0
 10
189.15676247226418
 20
32.363548816206567
 30
0.0
 10
188.92351845860446
 20
32.368988163625183
 30
0.0
 10
188.4902200938439
 20
32.350032876991492
 30
0.0
 10
188.0569136871629
 20
32.297068139451184
 30
0.0
 10
187.62359981298434
 20
32.215328284818042
 30
0.0
 10
187.19027904573122
 20
32.110047646905812
 30
0.0
 10
186.7569519598263
 20
31.986460559528272
 30
0.0
 10
186.0347276686974
 20
31.754017790877629
 30
0.0
 10
185.31249008074241
 20
31.50949661677712
 30
0.0
 10
184.59024185532658
 20
31.277130064142227
 30
0.0
 10
184.15688892039182
 20
31.153625290061687
 30
0.0
 10
183.72353368776547
 20
31.048454403212112
 30
0.0
 10
183.2901767318705
 20
30.966851737407293
 30
0.0
 10
182.85681862712971
 20
30.914051626460985
 30
0.0
 10
182.42345994796608
 20
30.895288404186942
 30
0.0
 10
181.99010126880248
 20
30.914051626460985
 30
0.0
 10
181.55674316406171
 20
30.966851737407314
 30
0.0
 10
181.12338620816672
 20
31.048454403212148
 30
0.0
 10
180.69003097554042
 20
31.153625290061708
 30
0.0
 10
180.25667804060564
 20
31.277130064142273
 30
0.0
 10
179.53442981518984
 20
31.509496616777156
 30
0.0
 10
178.81219222723487
 20
31.754017790877707
 30
0.0
 10
178.08996793610598
 20
31.986460559528322
 30
0.0
 10
177.65664085020111
 20
32.110047646905862
 30
0.0
 10
177.22332008294794
 20
32.215328284818092
 30
0.0
 10
176.79000620876943
 20
32.297068139451241
 30
0.0
 10
176.35669980208843
 20
32.350032876991541
 30
0.0
 10
175.92340143732787
 20
32.368988163625239
 30
0.0
 10
175.69015742366818
 20
32.363548816206617
 30
0.0
 10
175.45691545878876
 20
32.347552410433558
 30
0.0
 10
175.22367509467594
 20
32.321813724584743
 30
0.0
 10
174.99043588331597
 20
32.287147536938889
 30
0.0
 10
174.7571973766951
 20
32.244368625774705
 30
0.0
 10
174.52395912679961
 20
32.194291769370871
 30
0.0
 10
174.17410125328635
 20
32.10727516492549
 30
0.0
 10
173.82424143732794
 20
32.008421311508648
 30
0.0
 10
170.59961994796609
 20
31.051196772311712
 30
0.0
 10
170.76185508629177
 20
30.890002287239536
 30
0.0
 10
170.93351714417091
 20
30.738581560161773
 30
0.0
 10
171.02260366892853
 20
30.666790454603799
 30
0.0
 10
171.1136999479661
 20
30.597733914310975
 30
0.0
 10
173.82424143732794
 20
31.410910576750162
 30
0.0
 10
174.18124154022567
 20
31.512969690654987
 30
0.0
 10
174.53823945993449
 20
31.602994223262641
 30
0.0
 10
174.77623765353539
 20
31.654881717269738
 30
0.0
 10
175.01423606684665
 20
31.699256034628689
 30
0.0
 10
175.25223517587494
 20
31.735251385799799
 30
0.0
 10
175.49023545662681
 20
31.76200198124328
 30
0.0
 10
175.72823738510891
 20
31.778642031419412
 30
0.0
 10
175.96624143732785
 20
31.784305746788423
 30
0.0
 10
176.39668417325231
 20
31.765590253313416
 30
0.0
 10
176.82713484918366
 20
31.713274095849197
 30
0.0
 10
177.25759290198144
 20
31.632489405330798
 30
0.0
 10
177.68805776850505
 20
31.528368312693207
 30
0.0
 10
178.1185288856139
 20
31.406042948871463
 30
0.0
 10
178.83599310813386
 20
31.175652527595133
 30
0.0
 10
179.55347052197899
 20
30.932710471066599
 30
0.0
 10
180.27095852001705
 20
30.700976644725742
 30
0.0
 10
180.70145531468543
 20
30.577200403434293
 30
0.0
 10
181.13195441795509
 20
30.471144807503791
 30
0.0
 10
181.5624552666855
 20
30.387941987869212
 30
0.0
 10
181.99295729773598
 20
30.332724075465613
 30
0.0
 10
182.42345994796602
 20
30.31062320122798
 30
0.0
  0
HATCH
  5
155
100
AcDbEntity
  8
0
390
0
  6
CONTINUOUS
 62
       252
100
AcDbHatch
 10
0.0
 20
0.0
 30
0.0
210
0.0
220
0.0
230
1.0
  2
SOLID
 70
         1
 71
         1
 91
        1
 92
        1
 93
        1
 72
         4
 94
        1
 73
         0
 74
         1
 95
       99
 96
       97
 40
0.0
 40
0.0
 40
0.0104166667
 40
0.0208333333
 40
0.03125
 40
0.0416666667
 40
0.0520833333
 40
0.0625
 40
0.0729166667
 40
0.0833333333
 40
0.09375
 40
0.1041666667
 40
0.1145833333
 40
0.125
 40
0.1354166667
 40
0.1458333333
 40
0.15625
 40
0.1666666667
 40
0.1770833333
 40
0.1875
 40
0.1979166667
 40
0.2083333333
 40
0.21875
 40
0.2291666667
 40
0.2395833333
 40
0.25
 40
0.2604166667
 40
0.2708333333
 40
0.28125
 40
0.2916666667
 40
0.3020833333
 40
0.3125
 40
0.3229166667
 40
0.3333333333
 40
0.34375
 40
0.3541666667
 40
0.3645833333
 40
0.375
 40
0.3854166667
 40
0.3958333333
 40
0.40625
 40
0.4166666667
 40
0.4270833333
 40
0.4375
 40
0.4479166667
 40
0.4583333333
 40
0.46875
 40
0.4791666667
 40
0.4895833333
 40
0.5
 40
0.5104166667
 40
0.5208333333
 40
0.53125
 40
0.5416666667
 40
0.5520833333
 40
0.5625
 40
0.5729166667
 40
0.5833333333
 40
0.59375
 40
0.6041666667
 40
0.6145833333
 40
0.625
 40
0.6354166667
 40
0.6458333333
 40
0.65625
 40
0.6666666667
 40
0.6770833333
 40
0.6875
 40
0.6979166667
 40
0.7083333333
 40
0.71875
 40
0.7291666667
 40
0.7395833333
 40
0.75
 40
0.7604166667
 40
0.7708333333
 40
0.78125
 40
0.7916666667
 40
0.8020833333
 40
0.8125
 40
0.8229166667
 40
0.8333333333
 40
0.84375
 40
0.8541666667
 40
0.8645833333
 40
0.875
 40
0.8854166667
 40
0.8958333333
 40
0.90625
 40
0.9166666667
 40
0.9270833333
 40
0.9375
 40
0.9479166667
 40
0.9583333333
 40
0.96875
 40
0.9791666667
 40
0.9895833333
 40
1.0
 40
1.0
 10
182.42345994796602
 20
30.31062320122798
 10
182.85396259819615
 20
30.332724075465606
 10
183.28446462924666
 20
30.387941987869205
 10
183.71496547797707
 20
30.471144807503777
 10
184.14546458124681
 20
30.577200403434272
 10
184.57596137591523
 20
30.700976644725721
 10
185.29344937395328
 20
30.932710471066571
 10
186.01092678779847
 20
31.175652527595119
 10
186.72839101031843
 20
31.406042948871463
 10
187.15886212742728
 20
31.528368312693193
 10
187.58932699395086
 20
31.632489405330791
 10
188.01978504674867
 20
31.713274095849169
 10
188.45023572268005
 20
31.765590253313402
 10
188.88067845860448
 20
31.784305746788402
 10
189.11868251082339
 20
31.778642031419377
 10
189.3566844393055
 20
31.762001981243252
 10
189.59468472005739
 20
31.735251385799767
 10
189.83268382908562
 20
31.699256034628664
 10
190.07068224239691
 20
31.654881717269692
 10
190.30868043599784
 20
31.602994223262606
 10
190.66567835570669
 20
31.512969690654952
 10
191.02267845860442
 20
31.410910576750105
 10
193.73321994796621
 20
30.597733914310922
 10
193.91340275176151
 20
30.738581560161702
 10
194.08506480964056
 20
30.890002287239462
 10
194.16741354993607
 20
30.969431857944254
 10
194.24729994796601
 20
31.051196772311627
 10
191.02267845860439
 20
32.008421311508592
 10
190.67281864264598
 20
32.10727516492544
 10
190.32296076913275
 20
32.194291769370821
 10
190.08972251923726
 20
32.244368625774641
 10
189.85648401261636
 20
32.287147536938839
 10
189.62324480125642
 20
32.321813724584693
 10
189.3900044371436
 20
32.347552410433515
 10
189.15676247226418
 20
32.363548816206567
 10
188.92351845860446
 20
32.368988163625183
 10
188.4902200938439
 20
32.350032876991492
 10
188.0569136871629
 20
32.297068139451184
 10
187.62359981298434
 20
32.215328284818042
 10
187.19027904573122
 20
32.110047646905812
 10
186.7569519598263
 20
31.986460559528272
 10
186.0347276686974
 20
31.754017790877629
 10
185.31249008074241
 20
31.50949661677712
 10
184.59024185532658
 20
31.277130064142227
 10
184.15688892039182
 20
31.153625290061687
 10
183.72353368776547
 20
31.048454403212112
 10
183.2901767318705
 20
30.966851737407293
 10
182.85681862712971
 20
30.914051626460985
 10
182.42345994796608
 20
30.895288404186942
 10
181.99010126880248
 20
30.914051626460985
 10
181.55674316406171
 20
30.966851737407314
 10
181.12338620816672
 20
31.048454403212148
 10
180.69003097554042
 20
31.153625290061708
 10
180.25667804060564
 20
31.277130064142273
 10
179.53442981518984
 20
31.509496616777156
 10
178.81219222723487
 20
31.754017790877707
 10
178.08996793610598
 20
31.986460559528322
 10
177.65664085020111
 20
32.110047646905862
 10
177.22332008294794
 20
32.215328284818092
 10
176.79000620876943
 20
32.297068139451241
 10
176.35669980208843
 20
32.350032876991541
 10
175.92340143732787
 20
32.368988163625239
 10
175.69015742366818
 20
32.363548816206617
 10
175.45691545878876
 20
32.347552410433558
 10
175.22367509467594
 20
32.321813724584743
 10
174.99043588331597
 20
32.287147536938889
 10
174.7571973766951
 20
32.244368625774705
 10
174.52395912679961
 20
32.194291769370871
 10
174.17410125328635
 20
32.10727516492549
 10
173.82424143732794
 20
32.008421311508648
 10
170.59961994796609
 20
31.051196772311712
 10
170.76185508629177
 20
30.890002287239536
 10
170.93351714417091
 20
30.738581560161773
 10
171.02260366892853
 20
30.666790454603799
 10
171.1136999479661
 20
30.597733914310975
 10
173.82424143732794
 20
31.410910576750162
 10
174.18124154022567
 20
31.512969690654987
 10
174.53823945993449
 20
31.602994223262641
 10
174.77623765353539
 20
31.654881717269738
 10
175.01423606684665
 20
31.699256034628689
 10
175.25223517587494
 20
31.735251385799799
 10
175.49023545662681
 20
31.76200198124328
 10
175.72823738510891
 20
31.778642031419412
 10
175.96624143732785
 20
31.784305746788423
 10
176.39668417325231
 20
31.765590253313416
 10
176.82713484918366
 20
31.713274095849197
 10
177.25759290198144
 20
31.632489405330798
 10
177.68805776850505
 20
31.528368312693207
 10
178.1185288856139
 20
31.406042948871463
 10
178.83599310813386
 20
31.175652527595133
 10
179.55347052197899
 20
30.932710471066599
 10
180.27095852001705
 20
30.700976644725742
 10
180.70145531468543
 20
30.577200403434293
 10
181.13195441795509
 20
30.471144807503791
 10
181.5624552666855
 20
30.387941987869212
 10
181.99295729773598
 20
30.332724075465613
 10
182.42345994796602
 20
30.31062320122798
 97
        0
 75
         0
 76
         1
 98
        1
 10
0.0
 20
0.0
  0
HATCH
  5
156
100
AcDbEntity
  8
0
390
0
  6
CONTINUOUS
 62
       252
100
AcDbHatch
 10
0.0
 20
0.0
 30
0.0
210
0.0
220
0.0
230
1.0
  2
SOLID
 70
         1
 71
         1
 91
        1
 92
        1
 93
        1
 72
         4
 94
        1
 73
         0
 74
         1
 95
      133
 96
      131
 40
0.0
 40
0.0
 40
0.0076923077
 40
0.0153846154
 40
0.0230769231
 40
0.0307692308
 40
0.0384615385
 40
0.0461538462
 40
0.0538461538
 40
0.0615384615
 40
0.0692307692
 40
0.0769230769
 40
0.0846153846
 40
0.0923076923
 40
0.1
 40
0.1076923077
 40
0.1153846154
 40
0.1230769231
 40
0.1307692308
 40
0.1384615385
 40
0.1461538462
 40
0.1538461538
 40
0.1615384615
 40
0.1692307692
 40
0.1769230769
 40
0.1846153846
 40
0.1923076923
 40
0.2
 40
0.2076923077
 40
0.2153846154
 40
0.2230769231
 40
0.2307692308
 40
0.2384615385
 40
0.2461538462
 40
0.2538461538
 40
0.2615384615
 40
0.2692307692
 40
0.2769230769
 40
0.2846153846
 40
0.2923076923
 40
0.3
 40
0.3076923077
 40
0.3153846154
 40
0.3230769231
 40
0.3307692308
 40
0.3384615385
 40
0.3461538462
 40
0.3538461538
 40
0.3615384615
 40
0.3692307692
 40
0.3769230769
 40
0.3846153846
 40
0.3923076923
 40
0.4
 40
0.4076923077
 40
0.4153846154
 40
0.4230769231
 40
0.4307692308
 40
0.4384615385
 40
0.4461538462
 40
0.4538461538
 40
0.4615384615
 40
0.4692307692
 40
0.4769230769
 40
0.4846153846
 40
0.4923076923
 40
0.5
 40
0.5076923077
 40
0.5153846154
 40
0.5230769231
 40
0.5307692308
 40
0.5384615385
 40
0.5461538462
 40
0.5538461538
 40
0.5615384615
 40
0.5692307692
 40
0.5769230769
 40
0.5846153846
 40
0.5923076923
 40
0.6
 40
0.6076923077
 40
0.6153846154
 40
0.6230769231
 40
0.6307692308
 40
0.6384615385
 40
0.6461538462
 40
0.6538461538
 40
0.6615384615
 40
0.6692307692
 40
0.6769230769
 40
0.6846153846
 40
0.6923076923
 40
0.7
 40
0.7076923077
 40
0.7153846154
 40
0.7230769231
 40
0.7307692308
 40
0.7384615385
 40
0.7461538462
 40
0.7538461538
 40
0.7615384615
 40
0.7692307692
 40
0.7769230769
 40
0.7846153846
 40
0.7923076923
 40
0.8
 40
0.8076923077
 40
0.8153846154
 40
0.8230769231
 40
0.8307692308
 40
0.8384615385
 40
0.8461538462
 40
0.8538461538
 40
0.8615384615
 40
0.8692307692
 40
0.8769230769
 40
0.8846153846
 40
0.8923076923
 40
0.9
 40
0.9076923077
 40
0.9153846154
 40
0.9230769231
 40
0.9307692308
 40
0.9384615385
 40
0.9461538462
 40
0.9538461538
 40
0.9615384615
 40
0.9692307692
 40
0.9769230769
 40
0.9846153846
 40
0.9923076923
 40
1.0
 40
1.0
 10
195.94376394799605
 20
32.398145323003128
 10
195.75608330475688
 20
32.381506846148937
 10
195.56840734998235
 20
32.371358090820628
 10
195.38073696924283
 20
32.368119367363128
 10
194.94726570319358
 20
32.387627539624205
 10
194.51382603040301
 20
32.44102294631368
 10
194.08041507875674
 20
32.523081612518531
 10
193.64702997614037
 20
32.628579563325729
 10
193.21366785043938
 20
32.752292823822209
 10
192.49144089994527
 20
32.984771483454722
 10
191.76925649929456
 20
33.229152115090578
 10
191.04710135166118
 20
33.461249649687964
 10
190.61381677304988
 20
33.584551295146532
 10
190.18053506655295
 20
33.689500425903148
 10
189.74725336005602
 20
33.770873067044789
 10
189.31396878144469
 20
33.823445243658412
 10
188.88067845860451
 20
33.841992980830987
 10
188.45023572268008
 20
33.823277487355988
 10
188.01978504674869
 20
33.770961329891776
 10
187.58932699395092
 20
33.690176639373377
 10
187.15886212742731
 20
33.5860555467358
 10
186.72839101031846
 20
33.463730182914048
 10
186.01092678779852
 20
33.23333976163773
 10
185.29344937395334
 20
32.99039770510921
 10
184.57596137591526
 20
32.75866387876836
 10
184.14546458124681
 20
32.634887637476922
 10
183.71496547797713
 20
32.528832041546416
 10
183.28446462924671
 20
32.445629221911844
 10
182.85396259819618
 20
32.390411309508252
 10
182.42345994796605
 20
32.368310435270622
 10
181.99295729773598
 20
32.390411309508266
 10
181.5624552666855
 20
32.445629221911865
 10
181.13195441795509
 20
32.528832041546437
 10
180.70145531468543
 20
32.634887637476943
 10
180.27095852001705
 20
32.758663878768388
 10
179.55347052197899
 20
32.990397705109253
 10
178.83599310813386
 20
33.233339761637772
 10
178.1185288856139
 20
33.463730182914098
 10
177.68805776850505
 20
33.586055546735842
 10
177.25759290198144
 20
33.690176639373426
 10
176.82713484918366
 20
33.770961329891819
 10
176.39668417325231
 20
33.82327748735603
 10
175.96624143732785
 20
33.841992980831037
 10
175.53295111448767
 20
33.823445243658462
 10
175.09966653587634
 20
33.770873067044839
 10
174.66638482937941
 20
33.689500425903191
 10
174.23310312288251
 20
33.584551295146582
 10
173.79981854427115
 20
33.461249649688007
 10
173.0776633966378
 20
33.229152115090628
 10
172.35547899598708
 20
32.984771483454772
 10
171.63325204549298
 20
32.752292823822273
 10
171.19988991979201
 20
32.628579563325779
 10
170.76650481717562
 20
32.523081612518602
 10
170.33309386552938
 20
32.441022946313751
 10
169.89965419273884
 20
32.387627539624262
 10
169.46618292668953
 20
32.368119367363192
 10
169.2785125459489
 20
32.37135809082082
 10
169.09083659116666
 20
32.381506846149954
 10
168.90315594790661
 20
32.398145323006382
 10
168.79113721603545
 20
32.532459361667691
 10
168.68519247047769
 20
32.671897916725605
 10
168.58566383680625
 20
32.816041164875301
 10
168.51541165620733
 20
32.926966724026791
 10
168.4490519479663
 20
33.040087445033755
 10
168.66556975368752
 20
33.006670443999106
 10
168.88208372131291
 20
32.980749390706606
 10
169.0985924912969
 20
32.962969482776401
 10
169.26096983998116
 20
32.95536530516614
 10
169.42334292668954
 20
32.952975638229532
 10
169.8568141927388
 20
32.972481509360904
 10
170.29025386552934
 20
33.025870617676802
 10
170.72366481717557
 20
33.107919604469778
 10
171.15704991979197
 20
33.213405111032273
 10
171.59041204549291
 20
33.337103778656854
 10
172.31263899598702
 20
33.569555015753679
 10
173.03482339663773
 20
33.813906820930356
 10
173.75697854427108
 20
34.045976977948492
 10
174.19026312288244
 20
34.169264079088123
 10
174.62354482937937
 20
34.27420083033735
 10
175.05682653587627
 20
34.355563872988697
 10
175.4901111144876
 20
34.408129848334681
 10
175.92340143732781
 20
34.4266753976678
 10
176.3566998020884
 20
34.407720111034074
 10
176.79000620876943
 20
34.354755373493788
 10
177.22332008294794
 20
34.273015518860632
 10
177.65664085020109
 20
34.167734880948409
 10
178.08996793610598
 20
34.044147793570836
 10
178.8121922272349
 20
33.811705024920229
 10
179.53442981518987
 20
33.567183850819681
 10
180.25667804060564
 20
33.334817298184788
 10
180.69003097554042
 20
33.211312524104223
 10
181.12338620816675
 20
33.106141637254659
 10
181.55674316406171
 20
33.024538971449843
 10
181.99010126880248
 20
32.971738860503507
 10
182.42345994796608
 20
32.952975638229461
 10
182.85681862712974
 20
32.971738860503507
 10
183.29017673187047
 20
33.024538971449822
 10
183.72353368776547
 20
33.106141637254645
 10
184.15688892039179
 20
33.211312524104216
 10
184.59024185532658
 20
33.334817298184781
 10
185.31249008074241
 20
33.567183850819667
 10
186.0347276686974
 20
33.811705024920194
 10
186.75695195982632
 20
34.044147793570822
 10
187.19027904573122
 20
34.167734880948373
 10
187.62359981298437
 20
34.273015518860603
 10
188.05691368716293
 20
34.354755373493752
 10
188.49022009384393
 20
34.407720111034052
 10
188.92351845860449
 20
34.426675397667758
 10
189.3568087814447
 20
34.408129848334639
 10
189.79009336005603
 20
34.355563872988668
 10
190.22337506655293
 20
34.274200830337314
 10
190.65665677304986
 20
34.169264079088073
 10
191.0899413516612
 20
34.045976977948456
 10
191.81209649929448
 20
33.81390682093032
 10
192.5342808999452
 20
33.569555015753636
 10
193.25650785043931
 20
33.337103778656832
 10
193.68986997614024
 20
33.21340511103223
 10
194.12325507875664
 20
33.107919604469693
 10
194.55666603040288
 20
33.025870617676752
 10
194.99010570319348
 20
32.972481509360833
 10
195.42357696924279
 20
32.952975638229461
 10
195.64007539361691
 20
32.957334082578384
 10
195.85658105495065
 20
32.970801468719891
 10
196.07309259369856
 20
32.992732599033786
 10
196.23547928696092
 20
33.014347152188968
 10
196.39786794796606
 20
33.040087445033791
 10
196.30851808497661
 20
32.889737655332475
 10
196.21231364193261
 20
32.74340889913487
 10
196.10953656533516
 20
32.601563569870578
 10
196.02833325476007
 20
32.498384740150613
 10
195.94376394799605
 20
32.398145323003128
 97
        0
 75
         0
 76
         1
 98
        1
 10
0.0
 20
0.0
  0
SPLINE
  5
157
100
AcDbEntity
  8
STANDARD
370
         0
390
0
  6
CONTINUOUS
 62
       252
100
AcDbSpline
210
0.0
220
0.0
230
1.0
 70
         8
 71
         1
 72
       133
 73
       131
 74
         0
 42
0.0
 43
0.0
 40
0.0
 40
0.0
 40
0.0076923076923077
 40
0.0153846153846154
 40
0.0230769230769231
 40
0.0307692307692308
 40
0.0384615384615385
 40
0.0461538461538462
 40
0.0538461538461538
 40
0.0615384615384615
 40
0.0692307692307692
 40
0.0769230769230769
 40
0.0846153846153846
 40
0.0923076923076923
 40
0.1
 40
0.1076923076923077
 40
0.1153846153846154
 40
0.1230769230769231
 40
0.1307692307692308
 40
0.1384615384615385
 40
0.1461538461538462
 40
0.1538461538461539
 40
0.1615384615384616
 40
0.1692307692307692
 40
0.1769230769230769
 40
0.1846153846153846
 40
0.1923076923076923
 40
0.2
 40
0.2076923076923077
 40
0.2153846153846154
 40
0.2230769230769231
 40
0.2307692307692308
 40
0.2384615384615385
 40
0.2461538461538462
 40
0.2538461538461538
 40
0.2615384615384616
 40
0.2692307692307693
 40
0.2769230769230769
 40
0.2846153846153846
 40
0.2923076923076923
 40
0.3
 40
0.3076923076923077
 40
0.3153846153846154
 40
0.3230769230769231
 40
0.3307692307692308
 40
0.3384615384615385
 40
0.3461538461538462
 40
0.3538461538461539
 40
0.3615384615384616
 40
0.3692307692307693
 40
0.3769230769230769
 40
0.3846153846153846
 40
0.3923076923076924
 40
0.4
 40
0.4076923076923077
 40
0.4153846153846154
 40
0.4230769230769231
 40
0.4307692307692308
 40
0.4384615384615385
 40
0.4461538461538462
 40
0.4538461538461539
 40
0.4615384615384616
 40
0.4692307692307692
 40
0.476923076923077
 40
0.4846153846153847
 40
0.4923076923076923
 40
0.5
 40
0.5076923076923077
 40
0.5153846153846154
 40
0.5230769230769231
 40
0.5307692307692308
 40
0.5384615384615386
 40
0.5461538461538462
 40
0.5538461538461539
 40
0.5615384615384615
 40
0.5692307692307692
 40
0.576923076923077
 40
0.5846153846153847
 40
0.5923076923076923
 40
0.6000000000000001
 40
0.6076923076923078
 40
0.6153846153846154
 40
0.6230769230769231
 40
0.6307692307692308
 40
0.6384615384615385
 40
0.6461538461538462
 40
0.6538461538461539
 40
0.6615384615384616
 40
0.6692307692307693
 40
0.676923076923077
 40
0.6846153846153846
 40
0.6923076923076923
 40
0.7000000000000001
 40
0.7076923076923077
 40
0.7153846153846154
 40
0.7230769230769232
 40
0.7307692307692308
 40
0.7384615384615385
 40
0.7461538461538462
 40
0.7538461538461538
 40
0.7615384615384616
 40
0.7692307692307693
 40
0.7769230769230769
 40
0.7846153846153847
 40
0.7923076923076924
 40
0.8
 40
0.8076923076923077
 40
0.8153846153846154
 40
0.8230769230769232
 40
0.8307692307692308
 40
0.8384615384615385
 40
0.8461538461538463
 40
0.8538461538461539
 40
0.8615384615384616
 40
0.8692307692307693
 40
0.8769230769230769
 40
0.8846153846153847
 40
0.8923076923076924
 40
0.9
 40
0.9076923076923078
 40
0.9153846153846155
 40
0.9230769230769231
 40
0.9307692307692308
 40
0.9384615384615385
 40
0.9461538461538462
 40
0.9538461538461539
 40
0.9615384615384616
 40
0.9692307692307693
 40
0.976923076923077
 40
0.9846153846153847
 40
0.9923076923076923
 40
1.0
 40
1.0
 10
195.94376394799605
 20
32.398145323003128
 30
0.0
 10
195.75608330475688
 20
32.381506846148937
 30
0.0
 10
195.56840734998235
 20
32.371358090820628
 30
0.0
 10
195.38073696924283
 20
32.368119367363128
 30
0.0
 10
194.94726570319358
 20
32.387627539624205
 30
0.0
 10
194.51382603040301
 20
32.44102294631368
 30
0.0
 10
194.08041507875674
 20
32.523081612518531
 30
0.0
 10
193.64702997614037
 20
32.628579563325729
 30
0.0
 10
193.21366785043938
 20
32.752292823822209
 30
0.0
 10
192.49144089994527
 20
32.984771483454722
 30
0.0
 10
191.76925649929456
 20
33.229152115090578
 30
0.0
 10
191.04710135166118
 20
33.461249649687964
 30
0.0
 10
190.61381677304988
 20
33.584551295146532
 30
0.0
 10
190.18053506655295
 20
33.689500425903148
 30
0.0
 10
189.74725336005602
 20
33.770873067044789
 30
0.0
 10
189.31396878144469
 20
33.823445243658412
 30
0.0
 10
188.88067845860451
 20
33.841992980830987
 30
0.0
 10
188.45023572268008
 20
33.823277487355988
 30
0.0
 10
188.01978504674869
 20
33.770961329891776
 30
0.0
 10
187.58932699395092
 20
33.690176639373377
 30
0.0
 10
187.15886212742731
 20
33.5860555467358
 30
0.0
 10
186.72839101031846
 20
33.463730182914048
 30
0.0
 10
186.01092678779852
 20
33.23333976163773
 30
0.0
 10
185.29344937395334
 20
32.99039770510921
 30
0.0
 10
184.57596137591526
 20
32.75866387876836
 30
0.0
 10
184.14546458124681
 20
32.634887637476922
 30
0.0
 10
183.71496547797713
 20
32.528832041546416
 30
0.0
 10
183.28446462924671
 20
32.445629221911844
 30
0.0
 10
182.85396259819618
 20
32.390411309508252
 30
0.0
 10
182.42345994796605
 20
32.368310435270622
 30
0.0
 10
181.99295729773598
 20
32.390411309508266
 30
0.0
 10
181.5624552666855
 20
32.445629221911865
 30
0.0
 10
181.13195441795509
 20
32.528832041546437
 30
0.0
 10
180.70145531468543
 20
32.634887637476943
 30
0.0
 10
180.27095852001705
 20
32.758663878768388
 30
0.0
 10
179.55347052197899
 20
32.990397705109253
 30
0.0
 10
178.83599310813386
 20
33.233339761637772
 30
0.0
 10
178.1185288856139
 20
33.463730182914098
 30
0.0
 10
177.68805776850505
 20
33.586055546735842
 30
0.0
 10
177.25759290198144
 20
33.690176639373426
 30
0.0
 10
176.82713484918366
 20
33.770961329891819
 30
0.0
 10
176.39668417325231
 20
33.82327748735603
 30
0.0
 10
175.96624143732785
 20
33.841992980831037
 30
0.0
 10
175.53295111448767
 20
33.823445243658462
 30
0.0
 10
175.09966653587634
 20
33.770873067044839
 30
0.0
 10
174.66638482937941
 20
33.689500425903191
 30
0.0
 10
174.23310312288251
 20
33.584551295146582
 30
0.0
 10
173.79981854427115
 20
33.461249649688007
 30
0.0
 10
173.0776633966378
 20
33.229152115090628
 30
0.0
 10
172.35547899598708
 20
32.984771483454772
 30
0.0
 10
171.63325204549298
 20
32.752292823822273
 30
0.0
 10
171.19988991979201
 20
32.628579563325779
 30
0.0
 10
170.76650481717562
 20
32.523081612518602
 30
0.0
 10
170.33309386552938
 20
32.441022946313751
 30
0.0
 10
169.89965419273884
 20
32.387627539624262
 30
0.0
 10
169.46618292668953
 20
32.368119367363192
 30
0.0
 10
169.2785125459489
 20
32.37135809082082
 30
0.0
 10
169.09083659116666
 20
32.381506846149954
 30
0.0
 10
168.90315594790661
 20
32.398145323006382
 30
0.0
 10
168.79113721603545
 20
32.532459361667691
 30
0.0
 10
168.68519247047769
 20
32.671897916725605
 30
0.0
 10
168.58566383680625
 20
32.816041164875301
 30
0.0
 10
168.51541165620733
 20
32.926966724026791
 30
0.0
 10
168.4490519479663
 20
33.040087445033755
 30
0.0
 10
168.66556975368752
 20
33.006670443999106
 30
0.0
 10
168.88208372131291
 20
32.980749390706606
 30
0.0
 10
169.0985924912969
 20
32.962969482776401
 30
0.0
 10
169.26096983998116
 20
32.95536530516614
 30
0.0
 10
169.42334292668954
 20
32.952975638229532
 30
0.0
 10
169.8568141927388
 20
32.972481509360904
 30
0.0
 10
170.29025386552934
 20
33.025870617676802
 30
0.0
 10
170.72366481717557
 20
33.107919604469778
 30
0.0
 10
171.15704991979197
 20
33.213405111032273
 30
0.0
 10
171.59041204549291
 20
33.337103778656854
 30
0.0
 10
172.31263899598702
 20
33.569555015753679
 30
0.0
 10
173.03482339663773
 20
33.813906820930356
 30
0.0
 10
173.75697854427108
 20
34.045976977948492
 30
0.0
 10
174.19026312288244
 20
34.169264079088123
 30
0.0
 10
174.62354482937937
 20
34.27420083033735
 30
0.0
 10
175.05682653587627
 20
34.355563872988697
 30
0.0
 10
175.4901111144876
 20
34.408129848334681
 30
0.0
 10
175.92340143732781
 20
34.4266753976678
 30
0.0
 10
176.3566998020884
 20
34.407720111034074
 30
0.0
 10
176.79000620876943
 20
34.354755373493788
 30
0.0
 10
177.22332008294794
 20
34.273015518860632
 30
0.0
 10
177.65664085020109
 20
34.167734880948409
 30
0.0
 10
178.08996793610598
 20
34.044147793570836
 30
0.0
 10
178.8121922272349
 20
33.811705024920229
 30
0.0
 10
179.53442981518987
 20
33.567183850819681
 30
0.0
 10
180.25667804060564
 20
33.334817298184788
 30
0.0
 10
180.69003097554042
 20
33.211312524104223
 30
0.0
 10
181.12338620816675
 20
33.106141637254659
 30
0.0
 10
181.55674316406171
 20
33.024538971449843
 30
0.0
 10
181.99010126880248
 20
32.971738860503507
 30
0.0
 10
182.42345994796608
 20
32.952975638229461
 30
0.0
 10
182.85681862712974
 20
32.971738860503507
 30
0.0
 10
183.29017673187047
 20
33.024538971449822
 30
0.0
 10
183.72353368776547
 20
33.106141637254645
 30
0.0
 10
184.15688892039179
 20
33.211312524104216
 30
0.0
 10
184.59024185532658
 20
33.334817298184781
 30
0.0
 10
185.31249008074241
 20
33.567183850819667
 30
0.0
 10
186.0347276686974
 20
33.811705024920194
 30
0.0
 10
186.75695195982632
 20
34.044147793570822
 30
0.0
 10
187.19027904573122
 20
34.167734880948373
 30
0.0
 10
187.62359981298437
 20
34.273015518860603
 30
0.0
 10
188.05691368716293
 20
34.354755373493752
 30
0.0
 10
188.49022009384393
 20
34.407720111034052
 30
0.0
 10
188.92351845860449
 20
34.426675397667758
 30
0.0
 10
189.3568087814447
 20
34.408129848334639
 30
0.0
 10
189.79009336005603
 20
34.355563872988668
 30
0.0
 10
190.22337506655293
 20
34.274200830337314
 30
0.0
 10
190.65665677304986
 20
34.169264079088073
 30
0.0
 10
191.0899413516612
 20
34.045976977948456
 30
0.0
 10
191.81209649929448
 20
33.81390682093032
 30
0.0
 10
192.5342808999452
 20
33.569555015753636
 30
0.0
 10
193.25650785043931
 20
33.337103778656832
 30
0.0
 10
193.68986997614024
 20
33.21340511103223
 30
0.0
 10
194.12325507875664
 20
33.107919604469693
 30
0.0
 10
194.55666603040288
 20
33.025870617676752
 30
0.0
 10
194.99010570319348
 20
32.972481509360833
 30
0.0
 10
195.42357696924279
 20
32.952975638229461
 30
0.0
 10
195.64007539361691
 20
32.957334082578384
 30
0.0
 10
195.85658105495065
 20
32.970801468719891
 30
0.0
 10
196.07309259369856
 20
32.992732599033786
 30
0.0
 10
196.23547928696092
 20
33.014347152188968
 30
0.0
 10
196.39786794796606
 20
33.040087445033791
 30
0.0
 10
196.30851808497661
 20
32.889737655332475
 30
0.0
 10
196.21231364193261
 20
32.74340889913487
 30
0.0
 10
196.10953656533516
 20
32.601563569870578
 30
0.0
 10
196.02833325476007
 20
32.498384740150613
 30
0.0
 10
195.94376394799605
 20
32.398145323003128
 30
0.0
  0
HATCH
  5
158
100
AcDbEntity
  8
0
390
0
  6
CONTINUOUS
 62
       252
100
AcDbHatch
 10
0.0
 20
0.0
 30
0.0
210
0.0
220
0.0
230
1.0
  2
SOLID
 70
         1
 71
         1
 91
        1
 92
        1
 93
        1
 72
         4
 94
        1
 73
         0
 74
         1
 95
       15
 96
       13
 40
0.0
 40
0.0
 40
0.0833333333
 40
0.1666666667
 40
0.25
 40
0.3333333333
 40
0.4166666667
 40
0.5
 40
0.5833333333
 40
0.6666666667
 40
0.75
 40
0.8333333333
 40
0.9166666667
 40
1.0
 40
1.0
 10
191.7769814798811
 20
40.78878873619113
 10
190.4096107139236
 20
40.788788736191144
 10
190.4096107139236
 20
38.850168294995498
 10
187.98623394796604
 20
38.850168294995505
 10
187.98623394796604
 20
40.788788736191151
 10
186.62743118200888
 20
40.788788736191151
 10
186.62743118200882
 20
35.532347018399655
 10
187.98623394796604
 20
35.532347018399655
 10
187.98623394796604
 20
37.765495954569928
 10
190.4096107139236
 20
37.765495954569921
 10
190.4096107139236
 20
35.532347018399648
 10
191.77698147988107
 20
35.532347018399641
 10
191.7769814798811
 20
40.78878873619113
 97
        0
 75
         0
 76
         1
 98
        1
 10
0.0
 20
0.0
  0
SPLINE
  5
159
100
AcDbEntity
  8
STANDARD
370
         0
390
0
  6
CONTINUOUS
 62
       252
100
AcDbSpline
210
0.0
220
0.0
230
1.0
 70
         8
 71
         1
 72
        15
 73
        13
 74
         0
 42
0.0
 43
0.0
 40
0.0
 40
0.0
 40
0.0833333333333333
 40
0.1666666666666667
 40
0.25
 40
0.3333333333333333
 40
0.4166666666666666
 40
0.5
 40
0.5833333333333333
 40
0.6666666666666666
 40
0.75
 40
0.8333333333333333
 40
0.9166666666666666
 40
1.0
 40
1.0
 10
191.7769814798811
 20
40.78878873619113
 30
0.0
 10
190.4096107139236
 20
40.788788736191144
 30
0.0
 10
190.4096107139236
 20
38.850168294995498
 30
0.0
 10
187.98623394796604
 20
38.850168294995505
 30
0.0
 10
187.98623394796604
 20
40.788788736191151
 30
0.0
 10
186.62743118200888
 20
40.788788736191151
 30
0.0
 10
186.62743118200882
 20
35.532347018399655
 30
0.0
 10
187.98623394796604
 20
35.532347018399655
 30
0.0
 10
187.98623394796604
 20
37.765495954569928
 30
0.0
 10
190.4096107139236
 20
37.765495954569921
 30
0.0
 10
190.4096107139236
 20
35.532347018399648
 30
0.0
 10
191.77698147988107
 20
35.532347018399641
 30
0.0
 10
191.7769814798811
 20
40.78878873619113
 30
0.0
  0
HATCH
  5
15A
100
AcDbEntity
  8
0
390
0
  6
CONTINUOUS
 62
       252
100
AcDbHatch
 10
0.0
 20
0.0
 30
0.0
210
0.0
220
0.0
230
1.0
  2
SOLID
 70
         1
 71
         1
 91
        1
 92
        1
 93
        1
 72
         4
 94
        1
 73
         0
 74
         1
 95
       15
 96
       13
 40
0.0
 40
0.0
 40
0.0833333333
 40
0.1666666667
 40
0.25
 40
0.3333333333
 40
0.4166666667
 40
0.5
 40
0.5833333333
 40
0.6666666667
 40
0.75
 40
0.8333333333
 40
0.9166666667
 40
1.0
 40
1.0
 10
197.20212058626419
 20
35.532347018399626
 10
193.26220782030666
 20
35.532347018399641
 10
193.26220782030668
 20
40.78878873619113
 10
196.85119718200866
 20
40.788788736191123
 10
196.85119718200866
 20
39.783871714914554
 10
194.62101058626411
 20
39.783871714914561
 10
194.62101058626411
 20
38.802315103506096
 10
196.4922982458385
 20
38.802315103506096
 10
196.4922982458385
 20
37.829300209889034
 10
194.62101058626411
 20
37.829300209889041
 10
194.62101058626411
 20
36.53726403967633
 10
197.20212058626419
 20
36.537264039676323
 10
197.20212058626419
 20
35.532347018399626
 97
        0
 75
         0
 76
         1
 98
        1
 10
0.0
 20
0.0
  0
SPLINE
  5
15B
100
AcDbEntity
  8
STANDARD
370
         0
390
0
  6
CONTINUOUS
 62
       252
100
AcDbSpline
210
0.0
220
0.0
230
1.0
 70
         8
 71
         1
 72
        15
 73
        13
 74
         0
 42
0.0
 43
0.0
 40
0.0
 40
0.0
 40
0.0833333333333333
 40
0.1666666666666667
 40
0.25
 40
0.3333333333333333
 40
0.4166666666666666
 40
0.5
 40
0.5833333333333333
 40
0.6666666666666666
 40
0.75
 40
0.8333333333333333
 40
0.9166666666666666
 40
1.0
 40
1.0
 10
197.20212058626419
 20
35.532347018399626
 30
0.0
 10
193.26220782030666
 20
35.532347018399641
 30
0.0
 10
193.26220782030668
 20
40.78878873619113
 30
0.0
 10
196.85119718200866
 20
40.788788736191123
 30
0.0
 10
196.85119718200866
 20
39.783871714914554
 30
0.0
 10
194.62101058626411
 20
39.783871714914561
 30
0.0
 10
194.62101058626411
 20
38.802315103506096
 30
0.0
 10
196.4922982458385
 20
38.802315103506096
 30
0.0
 10
196.4922982458385
 20
37.829300209889034
 30
0.0
 10
194.62101058626411
 20
37.829300209889041
 30
0.0
 10
194.62101058626411
 20
36.53726403967633
 30
0.0
 10
197.20212058626419
 20
36.537264039676323
 30
0.0
 10
197.20212058626419
 20
35.532347018399626
 30
0.0
  0
LINE
  5
15C
100
AcDbEntity
  8
DEFAULT
370
         0
390
0
  6
CONTINUOUS
 62
       252
100
AcDbLine
 10
6.6
 20
45.0
 30
0.0
 11
203.0048694642
 21
45.0
 31
0.0
  0
LINE
  5
15D
100
AcDbEntity
  8
DEFAULT
370
         0
390
0
  6
CONTINUOUS
 62
       252
100
AcDbLine
 10
6.6
 20
25.0
 30
0.0
 11
203.0048694642
 21
25.0
 31
0.0
  0
LINE
  5
15E
100
AcDbEntity
  8
DEFAULT
370
         0
390
0
  6
CONTINUOUS
 62
       252
100
AcDbLine
 10
6.6
 20
40.0
 30
0.0
 11
105.0
 21
40.0
 31
0.0
  0
LINE
  5
15F
100
AcDbEntity
  8
DEFAULT
370
         0
390
0
  6
CONTINUOUS
 62
       252
100
AcDbLine
 10
25.0
 20
35.0
 30
0.0
 11
105.0
 21
35.0
 31
0.0
  0
LINE
  5
160
100
AcDbEntity
  8
DEFAULT
370
         0
390
0
  6
CONTINUOUS
 62
       252
100
AcDbLine
 10
25.0
 20
30.0
 30
0.0
 11
85.0
 21
30.0
 31
0.0
  0
LINE
  5
161
100
AcDbEntity
  8
DEFAULT
370
         0
390
0
  6
CONTINUOUS
 62
       252
100
AcDbLine
 10
25.0
 20
45.0
 30
0.0
 11
25.0
 21
5.0
 31
0.0
  0
LINE
  5
162
100
AcDbEntity
  8
DEFAULT
370
         0
390
0
  6
CONTINUOUS
 62
       252
100
AcDbLine
 10
45.0
 20
45.0
 30
0.0
 11
45.0
 21
5.0
 31
0.0
  0
LINE
  5
163
100
AcDbEntity
  8
DEFAULT
370
         0
390
0
  6
CONTINUOUS
 62
       252
100
AcDbLine
 10
65.0
 20
45.0
 30
0.0
 11
65.0
 21
25.0
 31
0.0
  0
LINE
  5
164
100
AcDbEntity
  8
DEFAULT
370
         0
390
0
  6
CONTINUOUS
 62
       252
100
AcDbLine
 10
85.0
 20
45.0
 30
0.0
 11
85.0
 21
25.0
 31
0.0
  0
LINE
  5
165
100
AcDbEntity
  8
DEFAULT
370
         0
390
0
  6
CONTINUOUS
 62
       252
100
AcDbLine
 10
105.0
 20
45.0
 30
0.0
 11
105.0
 21
25.0
 31
0.0
  0
LINE
  5
166
100
AcDbEntity
  8
DEFAULT
370
         0
390
0
  6
CONTINUOUS
 62
       252
100
AcDbLine
 10
25.0
 20
12.0
 30
0.0
 11
203.0048694642
 21
12.0
 31
0.0
  0
LINE
  5
167
100
AcDbEntity
  8
DEFAULT
370
         0
390
0
  6
CONTINUOUS
 62
       252
100
AcDbLine
 10
6.6
 20
20.0
 30
0.0
 11
25.0
 21
20.0
 31
0.0
  0
LINE
  5
168
100
AcDbEntity
  8
DEFAULT
370
         0
390
0
  6
CONTINUOUS
 62
       252
100
AcDbLine
 10
163.0
 20
25.0
 30
0.0
 11
163.0
 21
5.0
 31
0.0
  0
TEXT
  5
169
100
AcDbEntity
  8
DEFAULT
370
         0
390
0
  6
CONTINUOUS
 62
       252
100
AcDbText
 10
6.9540142599
 20
41.7920376842
 30
0.0
 40
2.0
  1
Masstab / Scale
 41
0.9
  7
arial_ttf
 11
6.9540142599
 21
43.7920376842
 31
0.0
100
AcDbText
 73
         3
  0
TEXT
  5
16A
100
AcDbEntity
  8
DEFAULT
370
         0
390
0
  6
CONTINUOUS
 62
       252
100
AcDbText
 10
26.9540142599
 20
41.7920376842
 30
0.0
 40
2.0
  1
AM-Nr. / ECN
 41
0.9
  7
arial_ttf
 11
26.9540142599
 21
43.7920376842
 31
0.0
100
AcDbText
 73
         3
  0
TEXT
  5
16B
100
AcDbEntity
  8
DEFAULT
370
         0
390
0
  6
CONTINUOUS
 62
       252
100
AcDbText
 10
26.9540142599
 20
36.7920376842
 30
0.0
 40
2.0
  1
Datum / Date
 41
0.9
  7
arial_ttf
 11
26.9540142599
 21
38.7920376842
 31
0.0
100
AcDbText
 73
         3
  0
TEXT
  5
16C
100
AcDbEntity
  8
DEFAULT
370
         0
390
0
  6
CONTINUOUS
 62
       252
100
AcDbText
 10
25.5253978501
 20
31.6729863168
 30
0.0
 40
2.0
  1
Verantw. / Respons.
 41
0.8
  7
arial_ttf
 11
25.5253978501
 21
33.6729863168
 31
0.0
100
AcDbText
 73
         3
  0
TEXT
  5
16D
100
AcDbEntity
  8
DEFAULT
370
         0
390
0
  6
CONTINUOUS
 62
       252
100
AcDbText
 10
25.6444492176
 20
26.7920376842
 30
0.0
 40
2.0
  1
Gepruft / Approved
 41
0.8
  7
arial_ttf
 11
25.6444492176
 21
28.7920376842
 31
0.0
100
AcDbText
 73
         3
  0
TEXT
  5
16E
100
AcDbEntity
  8
DEFAULT
370
         0
390
0
  6
CONTINUOUS
 62
       252
100
AcDbText
 10
11.7260289
 20
21.6899061944
 30
0.0
 40
2.0
  1
Status
  7
arial_ttf
 11
11.7260289
 21
23.6899061944
 31
0.0
100
AcDbText
 73
         3
  0
TEXT
  5
16F
100
AcDbEntity
  8
DEFAULT
370
         0
390
0
  6
CONTINUOUS
 62
       252
100
AcDbText
 10
26.0592381086
 20
18.1421194157
 30
0.0
 40
2.0
  1
Benennung /
  7
arial_ttf
 11
26.0592381086
 21
20.1421194157
 31
0.0
100
AcDbText
 73
         3
  0
TEXT
  5
170
100
AcDbEntity
  8
DEFAULT
370
         0
390
0
  6
CONTINUOUS
 62
       252
100
AcDbText
 10
26.0592381086
 20
15.0116846331
 30
0.0
 40
2.0
  1
Title
  7
arial_ttf
 11
26.0592381086
 21
17.0116846331
 31
0.0
100
AcDbText
 73
         3
  0
TEXT
  5
171
100
AcDbEntity
  8
DEFAULT
370
         0
390
0
  6
CONTINUOUS
 62
       252
100
AcDbText
 10
26.0022330564
 20
8.7308567533
 30
0.0
 40
2.0
  1
Prod.-No. +
  7
arial_ttf
 11
26.0022330564
 21
10.7308567533
 31
0.0
100
AcDbText
 73
         3
  0
TEXT
  5
172
100
AcDbEntity
  8
DEFAULT
370
         0
390
0
  6
CONTINUOUS
 62
       252
100
AcDbText
 10
26.0022330564
 20
5.6004219707
 30
0.0
 40
2.0
  1
variants:
  7
arial_ttf
 11
26.0022330564
 21
7.6004219707
 31
0.0
100
AcDbText
 73
         3
  0
TEXT
  5
173
100
AcDbEntity
  8
DEFAULT
370
         0
390
0
  6
CONTINUOUS
 62
       252
100
AcDbText
 10
89.0181404555
 20
30.6686887902
 30
0.0
 40
2.0
  1
Copyright
  7
arial_ttf
 11
89.0181404555
 21
32.6686887902
 31
0.0
100
AcDbText
 73
         3
  0
TEXT
  5
174
100
AcDbEntity
  8
DEFAULT
370
         0
390
0
  6
CONTINUOUS
 62
       252
100
AcDbText
 10
89.5181404555
 20
27.5382540076
 30
0.0
 40
2.0
  1
reserved
  7
arial_ttf
 11
89.5181404555
 21
29.5382540076
 31
0.0
100
AcDbText
 73
         3
  0
TEXT
  5
175
100
AcDbEntity
  8
DEFAULT
370
         0
390
0
  6
CONTINUOUS
 62
       252
100
AcDbText
 10
108.0569338806
 20
40.3608143983
 30
0.0
 40
2.0
  1
Grohe Water Technology
  7
arial_ttf
 11
108.0569338806
 21
42.3608143983
 31
0.0
100
AcDbText
 73
         3
  0
TEXT
  5
176
100
AcDbEntity
  8
DEFAULT
370
         0
390
0
  6
CONTINUOUS
 62
       252
100
AcDbText
 10
108.0569338806
 20
37.2303796157
 30
0.0
 40
2.0
  1
AG & Co. KG
  7
arial_ttf
 11
108.0569338806
 21
39.2303796157
 31
0.0
100
AcDbText
 73
         3
  0
TEXT
  5
177
100
AcDbEntity
  8
DEFAULT
370
         0
390
0
  6
CONTINUOUS
 62
       252
100
AcDbText
 10
108.0569338806
 20
34.099944833
 30
0.0
 40
2.0
  1
Hauptstras137
  7
arial_ttf
 11
108.0569338806
 21
36.099944833
 31
0.0
100
AcDbText
 73
         3
  0
TEXT
  5
178
100
AcDbEntity
  8
DEFAULT
370
         0
390
0
  6
CONTINUOUS
 62
       252
100
AcDbText
 10
108.0569338806
 20
30.9695100504
 30
0.0
 40
2.0
  1
D-58675 Hemer
  7
arial_ttf
 11
108.0569338806
 21
32.9695100504
 31
0.0
100
AcDbText
 73
         3
  0
TEXT
  5
179
100
AcDbEntity
  8
DEFAULT
370
         0
390
0
  6
CONTINUOUS
 62
       252
100
AcDbText
 10
108.0569338806
 20
27.8390752678
 30
0.0
 40
2.0
  1
Tel. 02372 / 93-0
  7
arial_ttf
 11
108.0569338806
 21
29.8390752678
 31
0.0
100
AcDbText
 73
         3
  0
TEXT
  5
17A
100
AcDbEntity
  8
DEFAULT
370
         0
390
0
  6
CONTINUOUS
 62
       252
100
AcDbText
 10
163.9513570171
 20
22.2273824007
 30
0.0
 40
2.0
  1
Zeichnung Nr. / Drawing No.:
  7
arial_ttf
 11
163.9513570171
 21
24.2273824007
 31
0.0
100
AcDbText
 73
         3
  0
TEXT
  5
17B
100
AcDbEntity
  8
DEFAULT
370
         0
390
0
  6
CONTINUOUS
 62
       252
100
AcDbText
 10
163.8580166214
 20
9.52675378
 30
0.0
 40
1.5
  1
TPI-Referenz / TPI-Reference:
  7
arial_ttf
 11
163.8580166214
 21
11.02675378
 31
0.0
100
AcDbText
 73
         3
  0
LINE
  5
17C
100
AcDbEntity
  8
DEFAULT
370
         0
390
0
  6
CONTINUOUS
 62
       252
100
AcDbLine
 10
203.0048694642
 20
5.0
 30
0.0
 11
203.0048694642
 21
291.0
 31
0.0
  0
ENDSEC
  0
SECTION
  2
OBJECTS
  0
DICTIONARY
  5
19
100
AcDbDictionary
280
         0
281
         1
  3
ACAD_GROUP
350
1A
  3
ACAD_MLINESTYLE
350
1B
  3
ACAD_LAYOUT
350
1E
  3
ACAD_PLOTSETTINGS
350
22
  3
ACAD_PLOTSTYLENAME
350
1F
  3
ACAD_WIPEOUT_VARS
350
23
  3
AcDbVariableDictionary
350
25C
  0
DICTIONARY
  5
1A
102
{ACAD_REACTORS
330
19
102
}
100
AcDbDictionary
280
         0
281
         1
  0
DICTIONARY
  5
1B
102
{ACAD_REACTORS
330
19
102
}
100
AcDbDictionary
280
         0
281
         1
  3
Standard
350
1C
  0
MLINESTYLE
  5
1C
102
{ACAD_REACTORS
330
1B
102
}
100
AcDbMlineStyle
  2
Standard
 70
         0
  3

 62
         0
 51
90.0
 52
90.0
 71
         2
 49
0.5
 62
       256
  6
ByLayer
 49
-0.5
 62
       256
  6
ByLayer
  0
ACDBDICTIONARYWDFLT
  5
1F
102
{ACAD_REACTORS
330
19
102
}
100
AcDbDictionary
281
         1
  3
Normal
350
1D
100
AcDbDictionaryWithDefault
340
1D
  0
ACDBPLACEHOLDER
  5
1D
102
{ACAD_REACTORS
330
1F
102
}
  0
LAYOUT
  5
20
102
{ACAD_REACTORS
330
1E
102
}
100
AcDbPlotSettings
  1

  2

  4

  6

 40
0.0
 41
0.0
 42
0.0
 43
0.0
 44
0.0
 45
0.0
 46
0.0
 47
0.0
 48
0.0
 49
0.0
140
0.0
141
0.0
142
1.0
143
1.0
 70
      1024
 72
         0
 73
         0
 74
         0
  7

 75
         0
147
1.0
148
0.0
149
0.0
100
AcDbLayout
  1
Model
 70
         0
 71
         0
 10
0.0
 20
0.0
 11
0.0
 21
0.0
 12
0.0
 22
0.0
 32
0.0
 14
0.0
 24
0.0
 34
0.0
 15
0.0
 25
0.0
 35
0.0
146
0.0
 13
0.0
 23
0.0
 33
0.0
 16
0.0
 26
0.0
 36
0.0
 17
0.0
 27
0.0
 37
0.0
 76
         0
330
A
331
0
345
0
346
0
  0
LAYOUT
  5
21
102
{ACAD_REACTORS
330
1E
102
}
100
AcDbPlotSettings
  1

  2

  4

  6

 40
0.0
 41
0.0
 42
0.0
 43
0.0
 44
0.0
 45
0.0
 46
0.0
 47
0.0
 48
0.0
 49
0.0
140
0.0
141
0.0
142
1.0
143
1.0
 70
         0
 72
         0
 73
         0
 74
         0
  7

 75
         0
147
1.0
148
0.0
149
0.0
100
AcDbLayout
  1
Layout1
 70
         0
 71
         0
 10
0.0
 20
0.0
 11
0.0
 21
0.0
 12
0.0
 22
0.0
 32
0.0
 14
0.0
 24
0.0
 34
0.0
 15
0.0
 25
0.0
 35
0.0
146
0.0
 13
0.0
 23
0.0
 33
0.0
 16
0.0
 26
0.0
 36
0.0
 17
0.0
 27
0.0
 37
0.0
 76
         0
330
B
331
0
345
0
346
0
  0
DICTIONARY
  5
1E
102
{ACAD_REACTORS
330
19
102
}
100
AcDbDictionary
280
         0
281
         1
  3
Layout1
350
21
  3
Model
350
20
  0
DICTIONARY
  5
22
102
{ACAD_REACTORS
330
19
102
}
100
AcDbDictionary
280
         0
281
         1
  0
WIPEOUTVARIABLES
  5
23
100
AcDbWipeoutVariables
 70
         1
  0
DICTIONARY
  5
12D
100
AcDbDictionary
280
         0
281
         0
  3
ACAD_FILTER
350
12E
  0
DICTIONARY
  5
12E
100
AcDbDictionary
280
         0
281
         0
  3
SPATIAL
350
12F
  0
SPATIAL_FILTER
  5
12F
100
AcDbFilter
100
AcDbSpatialFilter
 70
         2
 10
11.6576010798
 20
68.2732684861
 10
200.1076010798
 20
283.7732684861
210
0.0
220
0.0
230
1.0
 11
0.0
 21
0.0
 31
0.0
 71
         1
 72
         0
 73
         0
 40
1.0
 40
0.0
 40
0.0
 40
0.0
 40
0.0
 40
1.0
 40
0.0
 40
0.0
 40
0.0
 40
0.0
 40
1.0
 40
0.0
 40
1.0
 40
0.0
 40
0.0
 40
0.0
 40
0.0
 40
1.0
 40
0.0
 40
0.0
 40
0.0
 40
0.0
 40
1.0
 40
0.0
  0
DICTIONARY
  5
25C
100
AcDbDictionary
280
         0
281
         0
  3
DIMASSOC
350
25D
  0
DICTIONARYVAR
  5
25D
100
DictionaryVariables
280
         0
  1
2
  0
ENDSEC
  0
EOF
