  0
SECTION
  2
HEADER
  9
$ACADVER
  1
AC1015
  9
$ACADMAINTVER
 70
     6
  9
$DWGCODEPAGE
  3
ANSI_932
  9
$INSBASE
 10
0.0
 20
0.0
 30
0.0
  9
$EXTMIN
 10
0.0
 20
0.0
 30
0.0
  9
$EXTMAX
 10
210.0
 20
297.0
 30
0.0
  9
$LIMMIN
 10
0.0
 20
0.0
  9
$LIMMAX
 10
210.0
 20
297.0
  9
$ORTHOMODE
 70
     0
  9
$REGENMODE
 70
     1
  9
$FILLMODE
 70
     1
  9
$QTEXTMODE
 70
     0
  9
$MIRRTEXT
 70
     1
  9
$LTSCALE
 40
1.0
  9
$ATTMODE
 70
     1
  9
$TEXTSIZE
 40
0.2
  9
$TRACEWID
 40
0.05
  9
$TEXTSTYLE
  7
Standard
  9
$CLAYER
  8
0
  9
$CELTYPE
  6
ByLayer
  9
$CECOLOR
 62
   256
  9
$CELTSCALE
 40
25.4
  9
$DISPSILH
 70
     0
  9
$DIMSCALE
 40
1.0
  9
$DIMASZ
 40
0.18
  9
$DIMEXO
 40
0.0625
  9
$DIMDLI
 40
0.38
  9
$DIMRND
 40
0.0
  9
$DIMDLE
 40
0.0
  9
$DIMEXE
 40
0.18
  9
$DIMTP
 40
0.0
  9
$DIMTM
 40
0.0
  9
$DIMTXT
 40
0.18
  9
$DIMCEN
 40
0.09
  9
$DIMTSZ
 40
0.0
  9
$DIMTOL
 70
     0
  9
$DIMLIM
 70
     0
  9
$DIMTIH
 70
     1
  9
$DIMTOH
 70
     1
  9
$DIMSE1
 70
     0
  9
$DIMSE2
 70
     0
  9
$DIMTAD
 70
     0
  9
$DIMZIN
 70
     0
  9
$DIMBLK
  1

  9
$DIMASO
 70
     1
  9
$DIMSHO
 70
     1
  9
$DIMPOST
  1

  9
$DIMAPOST
  1

  9
$DIMALT
 70
     0
  9
$DIMALTD
 70
     2
  9
$DIMALTF
 40
25.4
  9
$DIMLFAC
 40
1.0
  9
$DIMTOFL
 70
     0
  9
$DIMTVP
 40
0.0
  9
$DIMTIX
 70
     0
  9
$DIMSOXD
 70
     0
  9
$DIMSAH
 70
     0
  9
$DIMBLK1
  1

  9
$DIMBLK2
  1

  9
$DIMSTYLE
  2
Standard
  9
$DIMCLRD
 70
     0
  9
$DIMCLRE
 70
     0
  9
$DIMCLRT
 70
     0
  9
$DIMTFAC
 40
1.0
  9
$DIMGAP
 40
0.09
  9
$DIMJUST
 70
     0
  9
$DIMSD1
 70
     0
  9
$DIMSD2
 70
     0
  9
$DIMTOLJ
 70
     1
  9
$DIMTZIN
 70
     0
  9
$DIMALTZ
 70
     0
  9
$DIMALTTZ
 70
     0
  9
$DIMUPT
 70
     0
  9
$DIMDEC
 70
     4
  9
$DIMTDEC
 70
     4
  9
$DIMALTU
 70
     2
  9
$DIMALTTD
 70
     2
  9
$DIMTXSTY
  7
Standard
  9
$DIMAUNIT
 70
     0
  9
$DIMADEC
 70
     0
  9
$DIMALTRND
 40
0.0
  9
$DIMAZIN
 70
     0
  9
$DIMDSEP
 70
    46
  9
$DIMATFIT
 70
     3
  9
$DIMFRAC
 70
     0
  9
$DIMLDRBLK
  1

  9
$DIMLUNIT
 70
     2
  9
$DIMLWD
 70
    -2
  9
$DIMLWE
 70
    -2
  9
$DIMTMOVE
 70
     0
  9
$LUNITS
 70
     2
  9
$LUPREC
 70
     4
  9
$SKETCHINC
 40
0.1
  9
$FILLETRAD
 40
0.5
  9
$AUNITS
 70
     0
  9
$AUPREC
 70
     0
  9
$MENU
  1
.
  9
$ELEVATION
 40
0.0
  9
$PELEVATION
 40
0.0
  9
$THICKNESS
 40
0.0
  9
$LIMCHECK
 70
     0
  9
$CHAMFERA
 40
0.5
  9
$CHAMFERB
 40
0.5
  9
$CHAMFERC
 40
1.0
  9
$CHAMFERD
 40
0.0
  9
$SKPOLY
 70
     0
  9
$TDCREATE
 40
2453971.553021551
  9
$TDUCREATE
 40
2453971.178021551
  9
$TDUPDATE
 40
2453971.553021562
  9
$TDUUPDATE
 40
2453971.178021562
  9
$TDINDWG
 40
0.0000000116
  9
$TDUSRTIMER
 40
0.0000000116
  9
$USRTIMER
 70
     1
  9
$ANGBASE
 50
0.0
  9
$ANGDIR
 70
     0
  9
$PDMODE
 70
     0
  9
$PDSIZE
 40
0.0
  9
$PLINEWID
 40
0.0
  9
$SPLFRAME
 70
     0
  9
$SPLINETYPE
 70
     6
  9
$SPLINESEGS
 70
     8
  9
$HANDSEED
  5
12B
  9
$SURFTAB1
 70
     6
  9
$SURFTAB2
 70
     6
  9
$SURFTYPE
 70
     6
  9
$SURFU
 70
     6
  9
$SURFV
 70
     6
  9
$UCSBASE
  2

  9
$UCSNAME
  2

  9
$UCSORG
 10
0.0
 20
0.0
 30
0.0
  9
$UCSXDIR
 10
1.0
 20
0.0
 30
0.0
  9
$UCSYDIR
 10
0.0
 20
1.0
 30
0.0
  9
$UCSORTHOREF
  2

  9
$UCSORTHOVIEW
 70
     0
  9
$UCSORGTOP
 10
0.0
 20
0.0
 30
0.0
  9
$UCSORGBOTTOM
 10
0.0
 20
0.0
 30
0.0
  9
$UCSORGLEFT
 10
0.0
 20
0.0
 30
0.0
  9
$UCSORGRIGHT
 10
0.0
 20
0.0
 30
0.0
  9
$UCSORGFRONT
 10
0.0
 20
0.0
 30
0.0
  9
$UCSORGBACK
 10
0.0
 20
0.0
 30
0.0
  9
$PUCSBASE
  2

  9
$PUCSNAME
  2

  9
$PUCSORG
 10
0.0
 20
0.0
 30
0.0
  9
$PUCSXDIR
 10
1.0
 20
0.0
 30
0.0
  9
$PUCSYDIR
 10
0.0
 20
1.0
 30
0.0
  9
$PUCSORTHOREF
  2

  9
$PUCSORTHOVIEW
 70
     0
  9
$PUCSORGTOP
 10
0.0
 20
0.0
 30
0.0
  9
$PUCSORGBOTTOM
 10
0.0
 20
0.0
 30
0.0
  9
$PUCSORGLEFT
 10
0.0
 20
0.0
 30
0.0
  9
$PUCSORGRIGHT
 10
0.0
 20
0.0
 30
0.0
  9
$PUCSORGFRONT
 10
0.0
 20
0.0
 30
0.0
  9
$PUCSORGBACK
 10
0.0
 20
0.0
 30
0.0
  9
$USERI1
 70
     0
  9
$USERI2
 70
     0
  9
$USERI3
 70
     0
  9
$USERI4
 70
     0
  9
$USERI5
 70
     0
  9
$USERR1
 40
0.0
  9
$USERR2
 40
0.0
  9
$USERR3
 40
0.0
  9
$USERR4
 40
0.0
  9
$USERR5
 40
0.0
  9
$WORLDVIEW
 70
     1
  9
$SHADEDGE
 70
     3
  9
$SHADEDIF
 70
    70
  9
$TILEMODE
 70
     1
  9
$MAXACTVP
 70
    64
  9
$PINSBASE
 10
0.0
 20
0.0
 30
0.0
  9
$PLIMCHECK
 70
     0
  9
$PEXTMIN
 10
0.0
 20
0.0
 30
0.0
  9
$PEXTMAX
 10
210.0
 20
297.0
 30
0.0
  9
$PLIMMIN
 10
0.0
 20
0.0
  9
$PLIMMAX
 10
210.0
 20
297.0
  9
$UNITMODE
 70
     0
  9
$VISRETAIN
 70
     1
  9
$PLINEGEN
 70
     0
  9
$PSLTSCALE
 70
     1
  9
$TREEDEPTH
 70
  3020
  9
$CMLSTYLE
  2
Standard
  9
$CMLJUST
 70
     0
  9
$CMLSCALE
 40
1.0
  9
$PROXYGRAPHICS
 70
     1
  9
$MEASUREMENT
 70
     1
  9
$CELWEIGHT
370
    -1
  9
$ENDCAPS
280
     0
  9
$JOINSTYLE
280
     0
  9
$LWDISPLAY
290
     0
  9
$INSUNITS
 70
     1
  9
$HYPERLINKBASE
  1

  9
$STYLESHEET
  1

  9
$XEDIT
290
     1
  9
$CEPSNTYPE
380
     0
  9
$PSTYLEMODE
290
     1
  9
$FINGERPRINTGUID
  2
{DFF01B9A-4A87-4965-A367-EE66079132B9}
  9
$VERSIONGUID
  2
{FAEB1C32-E019-11D5-929B-00C0DF256EC4}
  9
$EXTNAMES
290
     1
  9
$PSVPSCALE
 40
0.0
  9
$OLESTARTUP
290
     0
  0
ENDSEC
  0
SECTION
  2
CLASSES
  0
CLASS
  1
ACDBDICTIONARYWDFLT
  2
AcDbDictionaryWithDefault
  3
ObjectDBX Classes
 90
        0
280
     0
281
     0
  0
CLASS
  1
ACDBPLACEHOLDER
  2
AcDbPlaceHolder
  3
ObjectDBX Classes
 90
        0
280
     0
281
     0
  0
CLASS
  1
LAYOUT
  2
AcDbLayout
  3
ObjectDBX Classes
 90
        0
280
     0
281
     0
  0
ENDSEC
  0
SECTION
  2
TABLES
  0
TABLE
  2
VPORT
  5
8
330
0
100
AcDbSymbolTable
 70
     1
  0
VPORT
  5
29
330
8
100
AcDbSymbolTableRecord
100
AcDbViewportTableRecord
  2
*Active
 70
     0
 10
0.0
 20
0.0
 11
1.0
 21
1.0
 12
10.4299065421
 22
4.5
 13
0.0
 23
0.0
 14
0.5
 24
0.5
 15
0.5
 25
0.5
 16
0.0
 26
0.0
 36
1.0
 17
0.0
 27
0.0
 37
0.0
 40
9.0
 41
1.9729729729
 42
50.0
 43
0.0
 44
0.0
 50
0.0
 51
0.0
 71
     0
 72
   100
 73
     1
 74
     3
 75
     0
 76
     0
 77
     0
 78
     0
281
     0
 65
     1
110
0.0
120
0.0
130
0.0
111
1.0
121
0.0
131
0.0
112
0.0
122
1.0
132
0.0
 79
     0
146
0.0
  0
ENDTAB
  0
TABLE
  2
LTYPE
  5
5
330
0
100
AcDbSymbolTable
 70
     2
  0
LTYPE
  5
14
330
5
100
AcDbSymbolTableRecord
100
AcDbLinetypeTableRecord
  2
ByBlock
 70
     0
  3

 72
    65
 73
     0
 40
0.0
  0
LTYPE
  5
15
330
5
100
AcDbSymbolTableRecord
100
AcDbLinetypeTableRecord
  2
ByLayer
 70
     0
  3

 72
    65
 73
     0
 40
0.0
  0
LTYPE
  5
16
330
5
100
AcDbSymbolTableRecord
100
AcDbLinetypeTableRecord
  2
Continuous
 70
     0
  3
Solid line
 72
    65
 73
     0
 40
0.0
  0
LTYPE
  5
4C
330
5
100
AcDbSymbolTableRecord
100
AcDbLinetypeTableRecord
  2
CENTER2
 70
     0
  3
___ _ ___ _ ___ _ ___ _ ___ _ ___ _ ___ _ ___ _
 72
    65
 73
     4
 40
1.125
 49
0.75
 74
     4
 75
     0
340
0
 46
0.0
 50
0.0
 44
0.0
 45
0.0
 49
-0.125
 74
     4
 75
     0
340
0
 46
0.0
 50
0.0
 44
0.0
 45
0.0
 49
0.125
 74
     4
 75
     0
340
0
 46
0.0
 50
0.0
 44
0.0
 45
0.0
 49
-0.125
 74
     4
 75
     0
340
0
 46
0.0
 50
0.0
 44
0.0
 45
0.0
  0
ENDTAB
  0
TABLE
  2
LAYER
  5
2
330
0
100
AcDbSymbolTable
 70
     7
  0
LAYER
  5
10
330
2
100
AcDbSymbolTableRecord
100
AcDbLayerTableRecord
  2
0
 70
     0
 62
     7
  6
Continuous
370
    -3
390
F
  0
LAYER
  5
2A
330
2
100
AcDbSymbolTableRecord
100
AcDbLayerTableRecord
  2
Layer1
 70
     0
 62
     7
  6
Continuous
370
    -3
390
F
  0
LAYER
  5
41
330
2
100
AcDbSymbolTableRecord
100
AcDbLayerTableRecord
  2
Layer2
 70
     0
 62
     7
  6
Continuous
370
    -3
390
F
  0
LAYER
  5
55
330
2
100
AcDbSymbolTableRecord
100
AcDbLayerTableRecord
  2
Layer55
 70
     0
 62
     7
  6
Continuous
370
    -3
390
F
  0
LAYER
  5
7F
330
2
100
AcDbSymbolTableRecord
100
AcDbLayerTableRecord
  2
Layer3
 70
     0
 62
     7
  6
Continuous
370
    -3
390
F
  0
LAYER
  5
D2
330
2
100
AcDbSymbolTableRecord
100
AcDbLayerTableRecord
  2
MDS_Layer_90
 70
     0
 62
     7
  6
Continuous
370
    -3
390
F
  0
LAYER
  5
D5
330
2
100
AcDbSymbolTableRecord
100
AcDbLayerTableRecord
  2
MDS_Layer_94
 70
     0
 62
     7
  6
Continuous
370
    -3
390
F
  0
ENDTAB
  0
TABLE
  2
STYLE
  5
3
330
0
100
AcDbSymbolTable
 70
     5
  0
STYLE
  5
11
330
3
100
AcDbSymbolTableRecord
100
AcDbTextStyleTableRecord
  2
Standard
 70
     0
 40
0.0
 41
1.0
 50
0.0
 71
     0
 42
0.2
  3
txt
  4

  0
STYLE
  5
53
330
3
100
AcDbSymbolTableRecord
100
AcDbTextStyleTableRecord
  2
SEACAD_arial_ttfB
 70
     0
 40
0.2
 41
1.0
 50
0.0
 71
     0
 42
0.2
  3
arial.ttf
  4

  0
STYLE
  5
8B
330
3
100
AcDbSymbolTableRecord
100
AcDbTextStyleTableRecord
  2
SEACAD_arial_ttf
 70
     0
 40
0.2
 41
1.0
 50
0.0
 71
     0
 42
0.2
  3
arial.ttf
  4

  0
STYLE
  5
9A
330
3
100
AcDbSymbolTableRecord
100
AcDbTextStyleTableRecord
  2
SEACAD_semeca1_ttf
 70
     0
 40
0.2
 41
1.0
 50
0.0
 71
     0
 42
0.2
  3
semeca1.ttf
  4

  0
STYLE
  5
11E
330
3
100
AcDbSymbolTableRecord
100
AcDbTextStyleTableRecord
  2
SEACAD_seiso_ttf
 70
     0
 40
0.2
 41
1.0
 50
0.0
 71
     0
 42
0.2
  3
seiso.ttf
  4

  0
ENDTAB
  0
TABLE
  2
VIEW
  5
6
330
0
100
AcDbSymbolTable
 70
     0
  0
ENDTAB
  0
TABLE
  2
UCS
  5
7
330
0
100
AcDbSymbolTable
 70
     0
  0
ENDTAB
  0
TABLE
  2
APPID
  5
9
330
0
100
AcDbSymbolTable
 70
     1
  0
APPID
  5
12
330
9
100
AcDbSymbolTableRecord
100
AcDbRegAppTableRecord
  2
ACAD
 70
     0
  0
ENDTAB
  0
TABLE
  2
DIMSTYLE
  5
A
330
0
100
AcDbSymbolTable
 70
     1
100
AcDbDimStyleTable
  0
DIMSTYLE
105
27
330
A
100
AcDbSymbolTableRecord
100
AcDbDimStyleTableRecord
  2
Standard
 70
     0
340
11
  0
ENDTAB
  0
TABLE
  2
BLOCK_RECORD
  5
1
330
0
100
AcDbSymbolTable
 70
     7
  0
BLOCK_RECORD
  5
1F
330
1
100
AcDbSymbolTableRecord
100
AcDbBlockTableRecord
  2
*Model_Space
340
22
  0
BLOCK_RECORD
  5
1B
330
1
100
AcDbSymbolTableRecord
100
AcDbBlockTableRecord
  2
*Paper_Space
340
1E
  0
BLOCK_RECORD
  5
80
330
1
100
AcDbSymbolTableRecord
100
AcDbBlockTableRecord
  2
GDimGGroup
340
0
102
{BLKREFS
331
81
102
}
  0
BLOCK_RECORD
  5
8F
330
1
100
AcDbSymbolTableRecord
100
AcDbBlockTableRecord
  2
GDimGGroup1
340
0
102
{BLKREFS
331
90
102
}
  0
BLOCK_RECORD
  5
9E
330
1
100
AcDbSymbolTableRecord
100
AcDbBlockTableRecord
  2
GDimGGroup2
340
0
102
{BLKREFS
331
9F
102
}
  0
BLOCK_RECORD
  5
AB
330
1
100
AcDbSymbolTableRecord
100
AcDbBlockTableRecord
  2
GDimGGroup3
340
0
102
{BLKREFS
331
AC
102
}
  0
BLOCK_RECORD
  5
B8
330
1
100
AcDbSymbolTableRecord
100
AcDbBlockTableRecord
  2
GDimGGroup4
340
0
102
{BLKREFS
331
B9
102
}
  0
BLOCK_RECORD
  5
C5
330
1
100
AcDbSymbolTableRecord
100
AcDbBlockTableRecord
  2
GDimGGroup5
340
0
102
{BLKREFS
331
C6
102
}
  0
ENDTAB
  0
ENDSEC
  0
SECTION
  2
BLOCKS
  0
BLOCK
  5
20
330
1F
100
AcDbEntity
  8
0
100
AcDbBlockBegin
  2
*Model_Space
 70
     0
 71
     0
 10
0.0
 20
0.0
 30
0.0
  3
*Model_Space
  1

  0
ENDBLK
  5
21
330
1F
100
AcDbEntity
  8
0
100
AcDbBlockEnd
  0
BLOCK
  5
1C
330
1B
100
AcDbEntity
 67
     1
  8
0
100
AcDbBlockBegin
  2
*Paper_Space
 70
     0
 71
     0
 10
0.0
 20
0.0
 30
0.0
  3
*Paper_Space
  1

  0
ENDBLK
  5
1D
330
1B
100
AcDbEntity
 67
     1
  8
0
100
AcDbBlockEnd
  0
BLOCK
  5
8D
330
80
100
AcDbEntity
  8
0
100
AcDbBlockBegin
  2
GDimGGroup
 70
     0
 71
     0
 10
0.0
 20
0.0
 30
0.0
  3
GDimGGroup
  1

  0
HATCH
  5
82
330
80
100
AcDbEntity
  8
Layer3
  6
Continuous
 62
   136
 48
25.4
100
AcDbHatch
 10
0.0
 20
0.0
 30
0.0
210
0.0
220
0.0
230
1.0
  2
SOLID
 70
     1
 71
     0
 91
        1
 92
        1
 93
        3
 72
     1
 10
37.98981439371777
 20
187.586816368909
 11
38.98981440241012
 21
181.5868163167549
 72
     1
 10
38.98981440241012
 20
181.5868163167549
 11
39.98981441110247
 21
187.586816368909
 72
     1
 10
39.98981441110247
 20
187.586816368909
 11
37.98981439371777
 21
187.586816368909
 97
        0
 75
     0
 76
     1
 98
        0
  0
LWPOLYLINE
  5
83
330
80
100
AcDbEntity
  8
Layer3
  6
Continuous
 62
   136
 48
25.4
370
    20
100
AcDbPolyline
 90
        4
 70
     1
 43
0.00025
 10
37.9898143937
 20
187.5868163689
 10
38.9898144024
 20
181.5868163168
 10
39.9898144111
 20
187.5868163689
 10
37.9898143937
 20
187.5868163689
  0
HATCH
  5
84
330
80
100
AcDbEntity
  8
Layer3
  6
Continuous
 62
   136
 48
25.4
100
AcDbHatch
 10
0.0
 20
0.0
 30
0.0
210
0.0
220
0.0
230
1.0
  2
SOLID
 70
     1
 71
     0
 91
        1
 92
        1
 93
        3
 72
     1
 10
37.98981439371777
 20
168.6018162646008
 11
39.98981441110247
 21
168.6018162646008
 72
     1
 10
39.98981441110247
 20
168.6018162646008
 11
38.98981440241012
 21
174.6018163167549
 72
     1
 10
38.98981440241012
 20
174.6018163167549
 11
37.98981439371777
 21
168.6018162646008
 97
        0
 75
     0
 76
     1
 98
        0
  0
LWPOLYLINE
  5
85
330
80
100
AcDbEntity
  8
Layer3
  6
Continuous
 62
   136
 48
25.4
370
    20
100
AcDbPolyline
 90
        4
 70
     1
 43
0.00025
 10
37.9898143937
 20
168.6018162646
 10
38.9898144024
 20
174.6018163168
 10
39.9898144111
 20
168.6018162646
 10
37.9898143937
 20
168.6018162646
  0
LINE
  5
86
330
80
100
AcDbEntity
  8
Layer3
  6
Continuous
 62
     7
 48
25.4
100
AcDbLine
 10
44.8883915635
 20
181.5868163168
 30
0.0
 11
35.9898143763
 21
181.5868163168
 31
0.0
  0
LINE
  5
87
330
80
100
AcDbEntity
  8
Layer3
  6
Continuous
 62
     7
 48
25.4
100
AcDbLine
 10
44.8883915635
 20
174.6018163168
 30
0.0
 11
35.9898143763
 21
174.6018163168
 31
0.0
  0
LINE
  5
88
330
80
100
AcDbEntity
  8
Layer3
  6
Continuous
 62
     7
 48
25.4
100
AcDbLine
 10
38.9898144024
 20
203.9000684082
 30
0.0
 11
14.7289451527
 21
203.9000684082
 31
0.0
  0
LINE
  5
89
330
80
100
AcDbEntity
  8
Layer3
  6
Continuous
 62
     7
 48
25.4
100
AcDbLine
 10
38.9898144024
 20
203.9000684082
 30
0.0
 11
38.9898144024
 21
181.5868163168
 31
0.0
  0
LINE
  5
8A
330
80
100
AcDbEntity
  8
Layer3
  6
Continuous
 62
     7
 48
25.4
100
AcDbLine
 10
38.9898144024
 20
174.6018163168
 30
0.0
 11
38.9898144024
 21
162.6018162124
 31
0.0
  0
TEXT
  5
8C
330
80
100
AcDbEntity
  8
Layer3
  6
Continuous
 62
     7
 48
25.4
100
AcDbText
 10
16.8289448087
 20
205.4000684082
 30
0.0
 40
6.0
  1
G1/2
  7
SEACAD_arial_ttf
 11
16.8289448087
 21
211.4000684082
 31
0.0
100
AcDbText
 73
     3
  0
ENDBLK
  5
8E
330
80
100
AcDbEntity
  8
0
100
AcDbBlockEnd
  0
BLOCK
  5
9C
330
8F
100
AcDbEntity
  8
0
100
AcDbBlockBegin
  2
GDimGGroup1
 70
     0
 71
     0
 10
0.0
 20
0.0
 30
0.0
  3
GDimGGroup1
  1

  0
HATCH
  5
91
330
8F
100
AcDbEntity
  8
Layer3
  6
Continuous
 62
   136
 48
25.4
100
AcDbHatch
 10
0.0
 20
0.0
 30
0.0
210
0.0
220
0.0
230
1.0
  2
SOLID
 70
     1
 71
     0
 91
        1
 92
        1
 93
        3
 72
     1
 10
26.47852978054914
 20
194.9276497022423
 11
27.47852978924149
 21
188.9276496500883
 72
     1
 10
27.47852978924149
 20
188.9276496500883
 11
28.47852979793383
 21
194.9276497022423
 72
     1
 10
28.47852979793383
 20
194.9276497022423
 11
26.47852978054914
 21
194.9276497022423
 97
        0
 75
     0
 76
     1
 98
        0
  0
LWPOLYLINE
  5
92
330
8F
100
AcDbEntity
  8
Layer3
  6
Continuous
 62
   136
 48
25.4
370
    20
100
AcDbPolyline
 90
        4
 70
     1
 43
0.00025
 10
26.4785297805
 20
194.9276497022
 10
27.4785297892
 20
188.9276496501
 10
28.4785297979
 20
194.9276497022
 10
26.4785297805
 20
194.9276497022
  0
HATCH
  5
93
330
8F
100
AcDbEntity
  8
Layer3
  6
Continuous
 62
   136
 48
25.4
100
AcDbHatch
 10
0.0
 20
0.0
 30
0.0
210
0.0
220
0.0
230
1.0
  2
SOLID
 70
     1
 71
     0
 91
        1
 92
        1
 93
        3
 72
     1
 10
26.47852978054914
 20
161.2609829312675
 11
28.47852979793383
 21
161.2609829312675
 72
     1
 10
28.47852979793383
 20
161.2609829312675
 11
27.47852978924149
 21
167.2609829834215
 72
     1
 10
27.47852978924149
 20
167.2609829834215
 11
26.47852978054914
 21
161.2609829312675
 97
        0
 75
     0
 76
     1
 98
        0
  0
LWPOLYLINE
  5
94
330
8F
100
AcDbEntity
  8
Layer3
  6
Continuous
 62
   136
 48
25.4
370
    20
100
AcDbPolyline
 90
        4
 70
     1
 43
0.00025
 10
26.4785297805
 20
161.2609829313
 10
27.4785297892
 20
167.2609829834
 10
28.4785297979
 20
161.2609829313
 10
26.4785297805
 20
161.2609829313
  0
LINE
  5
95
330
8F
100
AcDbEntity
  8
Layer3
  6
Continuous
 62
     7
 48
25.4
100
AcDbLine
 10
33.1909891188
 20
188.9276496501
 30
0.0
 11
24.4785297632
 21
188.9276496501
 31
0.0
  0
LINE
  5
96
330
8F
100
AcDbEntity
  8
Layer3
  6
Continuous
 62
     7
 48
25.4
100
AcDbLine
 10
33.1909891188
 20
167.2609829834
 30
0.0
 11
24.4785297632
 21
167.2609829834
 31
0.0
  0
LINE
  5
97
330
8F
100
AcDbEntity
  8
Layer3
  6
Continuous
 62
     7
 48
25.4
100
AcDbLine
 10
27.4785297892
 20
200.9276497544
 30
0.0
 11
27.4785297892
 21
188.9276496501
 31
0.0
  0
LINE
  5
98
330
8F
100
AcDbEntity
  8
Layer3
  6
Continuous
 62
     7
 48
25.4
100
AcDbLine
 10
27.4785297892
 20
167.2609829834
 30
0.0
 11
27.4785297892
 21
155.2609828791
 31
0.0
  0
TEXT
  5
99
330
8F
100
AcDbEntity
  8
Layer3
  6
Continuous
 62
     7
 48
25.4
100
AcDbText
 10
26.8039302469
 20
175.0943164037
 30
0.0
 40
6.0
  1
65
  7
SEACAD_arial_ttf
 11
26.8039302469
 21
181.0943164037
 31
0.0
100
AcDbText
 73
     3
  0
TEXT
  5
9B
330
8F
100
AcDbEntity
  8
Layer3
  6
Continuous
 62
     7
 48
25.4
100
AcDbText
 10
18.7618249837
 20
175.0943164037
 30
0.0
 40
6.0
  1
O
  7
SEACAD_semeca1_ttf
 11
18.7618249837
 21
181.0943164037
 31
0.0
100
AcDbText
 73
     3
  0
ENDBLK
  5
9D
330
8F
100
AcDbEntity
  8
0
100
AcDbBlockEnd
  0
BLOCK
  5
A9
330
9E
100
AcDbEntity
  8
0
100
AcDbBlockBegin
  2
GDimGGroup2
 70
     0
 71
     0
 10
0.0
 20
0.0
 30
0.0
  3
GDimGGroup2
  1

  0
HATCH
  5
A0
330
9E
100
AcDbEntity
  8
Layer3
  6
Continuous
 62
   136
 48
25.4
100
AcDbHatch
 10
0.0
 20
0.0
 30
0.0
210
0.0
220
0.0
230
1.0
  2
SOLID
 70
     1
 71
     0
 91
        1
 92
        1
 93
        3
 72
     1
 10
161.2661545630816
 20
184.094316368909
 11
159.2661545456969
 21
184.094316368909
 72
     1
 10
159.2661545456969
 20
184.094316368909
 11
160.2661545543893
 21
178.0943163167549
 72
     1
 10
160.2661545543893
 20
178.0943163167549
 11
161.2661545630816
 21
184.094316368909
 97
        0
 75
     0
 76
     1
 98
        0
  0
LWPOLYLINE
  5
A1
330
9E
100
AcDbEntity
  8
Layer3
  6
Continuous
 62
   136
 48
25.4
370
    20
100
AcDbPolyline
 90
        4
 70
     1
 43
0.00025
 10
161.2661545631
 20
184.0943163689
 10
160.2661545544
 20
178.0943163168
 10
159.2661545457
 20
184.0943163689
 10
161.2661545631
 20
184.0943163689
  0
HATCH
  5
A2
330
9E
100
AcDbEntity
  8
Layer3
  6
Continuous
 62
   136
 48
25.4
100
AcDbHatch
 10
0.0
 20
0.0
 30
0.0
210
0.0
220
0.0
230
1.0
  2
SOLID
 70
     1
 71
     0
 91
        1
 92
        1
 93
        3
 72
     1
 10
161.2661545630816
 20
154.5943162646008
 11
160.2661545543893
 21
160.5943163167549
 72
     1
 10
160.2661545543893
 20
160.5943163167549
 11
159.2661545456969
 21
154.5943162646008
 72
     1
 10
159.2661545456969
 20
154.5943162646008
 11
161.2661545630816
 21
154.5943162646008
 97
        0
 75
     0
 76
     1
 98
        0
  0
LWPOLYLINE
  5
A3
330
9E
100
AcDbEntity
  8
Layer3
  6
Continuous
 62
   136
 48
25.4
370
    20
100
AcDbPolyline
 90
        4
 70
     1
 43
0.00025
 10
161.2661545631
 20
154.5943162646
 10
160.2661545544
 20
160.5943163168
 10
159.2661545457
 20
154.5943162646
 10
161.2661545631
 20
154.5943162646
  0
LINE
  5
A4
330
9E
100
AcDbEntity
  8
Layer3
  6
Continuous
 62
     7
 48
25.4
100
AcDbLine
 10
61.6919259696
 20
178.0943163168
 30
0.0
 11
163.2661545805
 21
178.0943163168
 31
0.0
  0
LINE
  5
A5
330
9E
100
AcDbEntity
  8
Layer3
  6
Continuous
 62
     7
 48
25.4
100
AcDbLine
 10
147.5808915635
 20
160.5943163168
 30
0.0
 11
163.2661545805
 21
160.5943163168
 31
0.0
  0
LINE
  5
A6
330
9E
100
AcDbEntity
  8
Layer3
  6
Continuous
 62
     7
 48
25.4
100
AcDbLine
 10
160.2661545544
 20
190.0943164211
 30
0.0
 11
160.2661545544
 21
178.0943163168
 31
0.0
  0
LINE
  5
A7
330
9E
100
AcDbEntity
  8
Layer3
  6
Continuous
 62
     7
 48
25.4
100
AcDbLine
 10
160.2661545544
 20
160.5943163168
 30
0.0
 11
160.2661545544
 21
148.5943162124
 31
0.0
  0
TEXT
  5
A8
330
9E
100
AcDbEntity
  8
Layer3
  6
Continuous
 62
     7
 48
25.4
100
AcDbText
 10
155.5705023805
 20
166.3443162795
 30
0.0
 40
6.0
  1
53
  7
SEACAD_arial_ttf
 11
155.5705023805
 21
172.3443162795
 31
0.0
100
AcDbText
 73
     3
  0
ENDBLK
  5
AA
330
9E
100
AcDbEntity
  8
0
100
AcDbBlockEnd
  0
BLOCK
  5
B6
330
AB
100
AcDbEntity
  8
0
100
AcDbBlockBegin
  2
GDimGGroup3
 70
     0
 71
     0
 10
0.0
 20
0.0
 30
0.0
  3
GDimGGroup3
  1

  0
HATCH
  5
AD
330
AB
100
AcDbEntity
  8
Layer3
  6
Continuous
 62
   136
 48
25.4
100
AcDbHatch
 10
0.0
 20
0.0
 30
0.0
210
0.0
220
0.0
230
1.0
  2
SOLID
 70
     1
 71
     0
 91
        1
 92
        1
 93
        3
 72
     1
 10
56.48839161570079
 20
127.1434939646337
 11
56.48839161570079
 21
129.1434939820184
 72
     1
 10
56.48839161570079
 20
129.1434939820184
 11
50.48839156354673
 21
128.143493973326
 72
     1
 10
50.48839156354673
 20
128.143493973326
 11
56.48839161570079
 21
127.1434939646337
 97
        0
 75
     0
 76
     1
 98
        0
  0
LWPOLYLINE
  5
AE
330
AB
100
AcDbEntity
  8
Layer3
  6
Continuous
 62
   136
 48
25.4
370
    20
100
AcDbPolyline
 90
        4
 70
     1
 43
0.00025
 10
56.4883916157
 20
127.1434939646
 10
50.4883915635
 20
128.1434939733
 10
56.4883916157
 20
129.143493982
 10
56.4883916157
 20
127.1434939646
  0
HATCH
  5
AF
330
AB
100
AcDbEntity
  8
Layer3
  6
Continuous
 62
   136
 48
25.4
100
AcDbHatch
 10
0.0
 20
0.0
 30
0.0
210
0.0
220
0.0
230
1.0
  2
SOLID
 70
     1
 71
     0
 91
        1
 92
        1
 93
        3
 72
     1
 10
138.4883915113893
 20
127.1434939646337
 11
144.4883915635433
 21
128.143493973326
 72
     1
 10
144.4883915635433
 20
128.143493973326
 11
138.4883915113893
 21
129.1434939820184
 72
     1
 10
138.4883915113893
 20
129.1434939820184
 11
138.4883915113893
 21
127.1434939646337
 97
        0
 75
     0
 76
     1
 98
        0
  0
LWPOLYLINE
  5
B0
330
AB
100
AcDbEntity
  8
Layer3
  6
Continuous
 62
   136
 48
25.4
370
    20
100
AcDbPolyline
 90
        4
 70
     1
 43
0.00025
 10
138.4883915114
 20
127.1434939646
 10
144.4883915635
 20
128.1434939733
 10
138.4883915114
 20
129.143493982
 10
138.4883915114
 20
127.1434939646
  0
LINE
  5
B1
330
AB
100
AcDbEntity
  8
Layer3
  6
Continuous
 62
     7
 48
25.4
100
AcDbLine
 10
50.4883915635
 20
167.2609829834
 30
0.0
 11
50.4883915635
 21
125.1434939472
 31
0.0
  0
LINE
  5
B2
330
AB
100
AcDbEntity
  8
Layer3
  6
Continuous
 62
     7
 48
25.4
100
AcDbLine
 10
144.4883915635
 20
158.8733523157
 30
0.0
 11
144.4883915635
 21
125.1434939472
 31
0.0
  0
LINE
  5
B3
330
AB
100
AcDbEntity
  8
Layer3
  6
Continuous
 62
     7
 48
25.4
100
AcDbLine
 10
50.4883915635
 20
128.1434939733
 30
0.0
 11
88.3449107858
 21
128.1434939733
 31
0.0
  0
LINE
  5
B4
330
AB
100
AcDbEntity
  8
Layer3
  6
Continuous
 62
     7
 48
25.4
100
AcDbLine
 10
106.631868616
 20
128.1434939733
 30
0.0
 11
144.4883915635
 21
128.1434939733
 31
0.0
  0
TEXT
  5
B5
330
AB
100
AcDbEntity
  8
Layer3
  6
Continuous
 62
     7
 48
25.4
100
AcDbText
 10
90.4449116934
 20
125.1434939733
 30
0.0
 40
6.0
  1
282
  7
SEACAD_arial_ttf
 11
90.4449116934
 21
131.1434939733
 31
0.0
100
AcDbText
 73
     3
  0
ENDBLK
  5
B7
330
AB
100
AcDbEntity
  8
0
100
AcDbBlockEnd
  0
BLOCK
  5
C3
330
B8
100
AcDbEntity
  8
0
100
AcDbBlockBegin
  2
GDimGGroup4
 70
     0
 71
     0
 10
0.0
 20
0.0
 30
0.0
  3
GDimGGroup4
  1

  0
HATCH
  5
BA
330
B8
100
AcDbEntity
  8
Layer2
  6
Continuous
 62
   136
 48
25.4
100
AcDbHatch
 10
0.0
 20
0.0
 30
0.0
210
0.0
220
0.0
230
1.0
  2
SOLID
 70
     1
 71
     0
 91
        1
 92
        1
 93
        3
 72
     1
 10
134.9958915113894
 20
136.7420824451856
 11
140.9958915635434
 21
137.742082453878
 72
     1
 10
140.9958915635434
 20
137.742082453878
 11
134.9958915113894
 21
138.7420824625704
 72
     1
 10
134.9958915113894
 20
138.7420824625704
 11
134.9958915113894
 21
136.7420824451856
 97
        0
 75
     0
 76
     1
 98
        0
  0
LWPOLYLINE
  5
BB
330
B8
100
AcDbEntity
  8
Layer2
  6
Continuous
 62
   136
 48
25.4
370
    20
100
AcDbPolyline
 90
        4
 70
     1
 43
0.00025
 10
134.9958915114
 20
136.7420824452
 10
140.9958915635
 20
137.7420824539
 10
134.9958915114
 20
138.7420824626
 10
134.9958915114
 20
136.7420824452
  0
HATCH
  5
BC
330
B8
100
AcDbEntity
  8
Layer2
  6
Continuous
 62
   136
 48
25.4
100
AcDbHatch
 10
0.0
 20
0.0
 30
0.0
210
0.0
220
0.0
230
1.0
  2
SOLID
 70
     1
 71
     0
 91
        1
 92
        1
 93
        3
 72
     1
 10
153.9808916156974
 20
136.7420824451856
 11
153.9808916156974
 21
138.7420824625704
 72
     1
 10
153.9808916156974
 20
138.7420824625704
 11
147.9808915635433
 21
137.742082453878
 72
     1
 10
147.9808915635433
 20
137.742082453878
 11
153.9808916156974
 21
136.7420824451856
 97
        0
 75
     0
 76
     1
 98
        0
  0
LWPOLYLINE
  5
BD
330
B8
100
AcDbEntity
  8
Layer2
  6
Continuous
 62
   136
 48
25.4
370
    20
100
AcDbPolyline
 90
        4
 70
     1
 43
0.00025
 10
153.9808916157
 20
136.7420824452
 10
147.9808915635
 20
137.7420824539
 10
153.9808916157
 20
138.7420824626
 10
153.9808916157
 20
136.7420824452
  0
LINE
  5
BE
330
B8
100
AcDbEntity
  8
Layer2
  6
Continuous
 62
     7
 48
25.4
100
AcDbLine
 10
140.9958915635
 20
160.9943163168
 30
0.0
 11
140.9958915635
 21
134.7420824278
 31
0.0
  0
LINE
  5
BF
330
B8
100
AcDbEntity
  8
Layer2
  6
Continuous
 62
     7
 48
25.4
100
AcDbLine
 10
147.9808915635
 20
160.9943163168
 30
0.0
 11
147.9808915635
 21
134.7420824278
 31
0.0
  0
LINE
  5
C0
330
B8
100
AcDbEntity
  8
Layer2
  6
Continuous
 62
     7
 48
25.4
100
AcDbLine
 10
128.9958914592
 20
137.7420824539
 30
0.0
 11
140.9958915635
 21
137.7420824539
 31
0.0
  0
LINE
  5
C1
330
B8
100
AcDbEntity
  8
Layer2
  6
Continuous
 62
     7
 48
25.4
100
AcDbLine
 10
147.9808915635
 20
137.7420824539
 30
0.0
 11
176.3773080191
 21
137.7420824539
 31
0.0
  0
TEXT
  5
C2
330
B8
100
AcDbEntity
  8
Layer2
  6
Continuous
 62
     7
 48
25.4
100
AcDbText
 10
154.8164390161
 20
139.2420824539
 30
0.0
 40
6.0
  1
G1/2
  7
SEACAD_arial_ttf
 11
154.8164390161
 21
145.2420824539
 31
0.0
100
AcDbText
 73
     3
  0
ENDBLK
  5
C4
330
B8
100
AcDbEntity
  8
0
100
AcDbBlockEnd
  0
BLOCK
  5
D0
330
C5
100
AcDbEntity
  8
0
100
AcDbBlockBegin
  2
GDimGGroup5
 70
     0
 71
     0
 10
0.0
 20
0.0
 30
0.0
  3
GDimGGroup5
  1

  0
HATCH
  5
C7
330
C5
100
AcDbEntity
  8
Layer3
  6
Continuous
 62
   136
 48
25.4
100
AcDbHatch
 10
0.0
 20
0.0
 30
0.0
210
0.0
220
0.0
230
1.0
  2
SOLID
 70
     1
 71
     0
 91
        1
 92
        1
 93
        3
 72
     1
 10
44.48839151139266
 20
136.5179895603272
 11
50.48839156354673
 21
137.5179895690196
 72
     1
 10
50.48839156354673
 20
137.5179895690196
 11
44.48839151139266
 21
138.5179895777119
 72
     1
 10
44.48839151139266
 20
138.5179895777119
 11
44.48839151139266
 21
136.5179895603272
 97
        0
 75
     0
 76
     1
 98
        0
  0
LWPOLYLINE
  5
C8
330
C5
100
AcDbEntity
  8
Layer3
  6
Continuous
 62
   136
 48
25.4
370
    20
100
AcDbPolyline
 90
        4
 70
     1
 43
0.00025
 10
44.4883915114
 20
136.5179895603
 10
50.4883915635
 20
137.517989569
 10
44.4883915114
 20
138.5179895777
 10
44.4883915114
 20
136.5179895603
  0
HATCH
  5
C9
330
C5
100
AcDbEntity
  8
Layer3
  6
Continuous
 62
   136
 48
25.4
100
AcDbHatch
 10
0.0
 20
0.0
 30
0.0
210
0.0
220
0.0
230
1.0
  2
SOLID
 70
     1
 71
     0
 91
        1
 92
        1
 93
        3
 72
     1
 10
59.69574307340142
 20
136.5179895603272
 11
59.69574307340142
 21
138.5179895777119
 72
     1
 10
59.69574307340142
 20
138.5179895777119
 11
53.69574302124735
 21
137.5179895690196
 72
     1
 10
53.69574302124735
 20
137.5179895690196
 11
59.69574307340142
 21
136.5179895603272
 97
        0
 75
     0
 76
     1
 98
        0
  0
LWPOLYLINE
  5
CA
330
C5
100
AcDbEntity
  8
Layer3
  6
Continuous
 62
   136
 48
25.4
370
    20
100
AcDbPolyline
 90
        4
 70
     1
 43
0.00025
 10
59.6957430734
 20
136.5179895603
 10
53.6957430212
 20
137.517989569
 10
59.6957430734
 20
138.5179895777
 10
59.6957430734
 20
136.5179895603
  0
LINE
  5
CB
330
C5
100
AcDbEntity
  8
Layer3
  6
Continuous
 62
     7
 48
25.4
100
AcDbLine
 10
50.4883915635
 20
167.2609829834
 30
0.0
 11
50.4883915635
 21
134.5179895429
 31
0.0
  0
LINE
  5
CC
330
C5
100
AcDbEntity
  8
Layer3
  6
Continuous
 62
     7
 48
25.4
100
AcDbLine
 10
53.6957430212
 20
167.6819331217
 30
0.0
 11
53.6957430212
 21
134.5179895429
 31
0.0
  0
LINE
  5
CD
330
C5
100
AcDbEntity
  8
Layer3
  6
Continuous
 62
     7
 48
25.4
100
AcDbLine
 10
38.4883914592
 20
137.517989569
 30
0.0
 11
50.4883915635
 21
137.517989569
 31
0.0
  0
LINE
  5
CE
330
C5
100
AcDbEntity
  8
Layer3
  6
Continuous
 62
     7
 48
25.4
100
AcDbLine
 10
53.6957430212
 20
137.517989569
 30
0.0
 11
75.998059523
 21
137.517989569
 31
0.0
  0
TEXT
  5
CF
330
C5
100
AcDbEntity
  8
Layer3
  6
Continuous
 62
     7
 48
25.4
100
AcDbText
 10
64.5067547249
 20
139.017989569
 30
0.0
 40
6.0
  1
10
  7
SEACAD_arial_ttf
 11
64.5067547249
 21
145.017989569
 31
0.0
100
AcDbText
 73
     3
  0
ENDBLK
  5
D1
330
C5
100
AcDbEntity
  8
0
100
AcDbBlockEnd
  0
ENDSEC
  0
SECTION
  2
ENTITIES
  0
LINE
  5
2B
330
1F
100
AcDbEntity
  8
Layer1
  6
Continuous
 62
     7
 48
25.4
100
AcDbLine
 10
44.4883915635
 20
175.0018163168
 30
0.0
 11
50.4883915635
 21
175.0018163168
 31
0.0
  0
LINE
  5
2C
330
1F
100
AcDbEntity
  8
Layer1
  6
Continuous
 62
     7
 48
25.4
100
AcDbLine
 10
44.4883915635
 20
181.1619290126
 30
0.0
 11
50.4883915635
 21
181.1619290126
 31
0.0
  0
LINE
  5
2D
330
1F
100
AcDbEntity
  8
Layer1
  6
Continuous
 62
     7
 48
25.4
100
AcDbLine
 10
44.8883915635
 20
174.6018163168
 30
0.0
 11
50.4883915635
 21
174.6018163168
 31
0.0
  0
LINE
  5
2E
330
1F
100
AcDbEntity
  8
Layer1
  6
Continuous
 62
     7
 48
25.4
100
AcDbLine
 10
50.4883915635
 20
181.5868163168
 30
0.0
 11
44.8883915635
 21
181.5868163168
 31
0.0
  0
LINE
  5
2F
330
1F
100
AcDbEntity
  8
Layer1
  6
Continuous
 62
     7
 48
25.4
100
AcDbLine
 10
147.9808915635
 20
160.9943163168
 30
0.0
 11
147.9808915635
 21
164.5943163168
 31
0.0
  0
LINE
  5
30
330
1F
100
AcDbEntity
  8
Layer1
  6
Continuous
 62
     7
 48
25.4
100
AcDbLine
 10
140.9958915635
 20
164.5943163168
 30
0.0
 11
140.9958915635
 21
160.9943163168
 31
0.0
  0
LINE
  5
31
330
1F
100
AcDbEntity
  8
Layer1
  6
Continuous
 62
     7
 48
25.4
100
AcDbLine
 10
130.9883915635
 20
181.9276496501
 30
0.0
 11
53.8209703748
 21
181.9276496501
 31
0.0
  0
LINE
  5
32
330
1F
100
AcDbEntity
  8
Layer1
  6
Continuous
 62
     7
 48
25.4
100
AcDbLine
 10
44.4883915635
 20
175.0018163168
 30
0.0
 11
44.4883915635
 21
181.1868163168
 31
0.0
  0
LINE
  5
33
330
1F
100
AcDbEntity
  8
Layer1
  6
Continuous
 62
     7
 48
25.4
100
AcDbLine
 10
147.5808915635
 20
160.5943163168
 30
0.0
 11
141.3958915635
 21
160.5943163168
 31
0.0
  0
LINE
  5
34
330
1F
100
AcDbEntity
  8
Layer1
  6
Continuous
 62
     7
 48
25.4
100
AcDbLine
 10
140.6550582302
 20
164.5943163168
 30
0.0
 11
148.3217248969
 21
164.5943163168
 31
0.0
  0
LINE
  5
35
330
1F
100
AcDbEntity
  8
Layer1
  6
Continuous
 62
     7
 48
25.4
100
AcDbLine
 10
44.4883915635
 20
175.0018163168
 30
0.0
 11
44.8883915635
 21
174.6018163168
 31
0.0
  0
LINE
  5
36
330
1F
100
AcDbEntity
  8
Layer1
  6
Continuous
 62
     7
 48
25.4
100
AcDbLine
 10
44.8883915635
 20
181.5868163168
 30
0.0
 11
44.4883915635
 21
181.1868163168
 31
0.0
  0
LINE
  5
37
330
1F
100
AcDbEntity
  8
Layer1
  6
Continuous
 62
     7
 48
25.4
100
AcDbLine
 10
147.5808915635
 20
160.5943163168
 30
0.0
 11
147.9808915635
 21
160.9943163168
 31
0.0
  0
LINE
  5
38
330
1F
100
AcDbEntity
  8
Layer1
  6
Continuous
 62
     7
 48
25.4
100
AcDbLine
 10
140.9958915635
 20
160.9943163168
 30
0.0
 11
141.3958915635
 21
160.5943163168
 31
0.0
  0
LINE
  5
39
330
1F
100
AcDbEntity
  8
Layer1
  6
Continuous
 62
     7
 48
25.4
100
AcDbLine
 10
44.8883915635
 20
181.5868163168
 30
0.0
 11
44.8883915635
 21
174.6018163168
 31
0.0
  0
ARC
  5
3A
330
1F
100
AcDbEntity
  8
Layer1
  6
Continuous
 62
     7
 48
25.4
100
AcDbCircle
 10
130.9883915635
 20
164.5943163168
 30
0.0
 40
17.33333333333334
100
AcDbArc
 50
0.0
 51
90.0
  0
ARC
  5
3B
330
1F
100
AcDbEntity
  8
Layer1
  6
Continuous
 62
     7
 48
25.4
100
AcDbCircle
 10
130.9883915635
 20
164.5943163168
 30
0.0
 40
9.666666666666671
100
AcDbArc
 50
0.0
 51
90.0
  0
LINE
  5
3C
330
1F
100
AcDbEntity
  8
Layer1
  6
Continuous
 62
     7
 48
25.4
100
AcDbLine
 10
140.9958915635
 20
160.9943163168
 30
0.0
 11
147.9808915635
 21
160.9943163168
 31
0.0
  0
LINE
  5
3D
330
1F
100
AcDbEntity
  8
Layer1
  6
Continuous
 62
     7
 48
25.4
100
AcDbLine
 10
53.8209703748
 20
174.2609829834
 30
0.0
 11
130.9883915635
 21
174.2609829834
 31
0.0
  0
LINE
  5
3E
330
1F
100
AcDbEntity
  8
Layer1
  6
Continuous
 62
     7
 48
25.4
100
AcDbLine
 10
147.5935582302
 20
160.6069829834
 30
0.0
 11
147.5935582302
 21
163.7609829834
 31
0.0
  0
LINE
  5
3F
330
1F
100
AcDbEntity
  8
Layer1
  6
Continuous
 62
     7
 48
25.4
100
AcDbLine
 10
141.3832248969
 20
160.6069829834
 30
0.0
 11
141.3832248969
 21
163.7609829834
 31
0.0
  0
LINE
  5
40
330
1F
100
AcDbEntity
  8
Layer1
  6
Continuous
 62
     7
 48
25.4
100
AcDbLine
 10
140.9958915635
 20
163.7609829834
 30
0.0
 11
147.9808915635
 21
163.7609829834
 31
0.0
  0
LINE
  5
42
330
1F
100
AcDbEntity
  8
Layer2
  6
Continuous
 62
     7
 48
25.4
100
AcDbLine
 10
50.4883915635
 20
167.2609829834
 30
0.0
 11
50.4883915635
 21
188.9276496501
 31
0.0
  0
ARC
  5
43
330
1F
100
AcDbEntity
  8
Layer2
  6
Continuous
 62
     7
 48
25.4
100
AcDbCircle
 10
53.3626616517
 20
188.4937414121
 30
0.0
 40
0.3333333333333333
100
AcDbArc
 50
2.227894651
 51
88.0
  0
ARC
  5
44
330
1F
100
AcDbEntity
  8
Layer2
  6
Continuous
 62
     7
 48
25.4
100
AcDbCircle
 10
-112.8449417698
 20
174.1609829834
 30
0.0
 40
166.6666666666667
100
AcDbArc
 50
357.772105349
 51
359.8275951877
  0
LINE
  5
45
330
1F
100
AcDbEntity
  8
Layer2
  6
Continuous
 62
     7
 48
25.4
100
AcDbLine
 10
50.4883915635
 20
167.2609829834
 30
0.0
 11
53.3742948172
 21
167.3617609457
 31
0.0
  0
ARC
  5
46
330
1F
100
AcDbEntity
  8
Layer2
  6
Continuous
 62
     7
 48
25.4
100
AcDbCircle
 10
53.3626616517
 20
167.6948912214
 30
0.0
 40
0.3333333333333333
100
AcDbArc
 50
272.0
 51
357.772105349
  0
ARC
  5
47
330
1F
100
AcDbEntity
  8
Layer2
  6
Continuous
 62
     7
 48
25.4
100
AcDbCircle
 10
-112.8449417698
 20
182.0276496501
 30
0.0
 40
166.6666666666667
100
AcDbArc
 50
0.1724048123
 51
2.227894651
  0
LINE
  5
48
330
1F
100
AcDbEntity
  8
Layer2
  6
Continuous
 62
     7
 48
25.4
100
AcDbLine
 10
53.3742948172
 20
188.8268716878
 30
0.0
 11
50.4883915635
 21
188.9276496501
 31
0.0
  0
LINE
  5
49
330
1F
100
AcDbEntity
  8
Layer2
  6
Continuous
 62
     7
 48
25.4
100
AcDbLine
 10
53.8209703748
 20
173.6594784699
 30
0.0
 11
53.8209703748
 21
182.5291541636
 31
0.0
  0
LINE
  5
4A
330
1F
100
AcDbEntity
  8
Layer2
  6
Continuous
 62
     7
 48
25.4
100
AcDbLine
 10
53.443145163
 20
168.0457543953
 30
0.0
 11
53.443145163
 21
188.1323835477
 31
0.0
  0
LINE
  5
4B
330
1F
100
AcDbEntity
  8
Layer2
  6
Continuous
 62
     7
 48
25.4
100
AcDbLine
 10
53.8209726384
 20
173.6609829834
 30
0.0
 11
53.8209726384
 21
182.5276496501
 31
0.0
  0
LINE
  5
4D
330
1F
100
AcDbEntity
  8
Layer2
  6
CENTER2
 62
     7
 48
25.4
100
AcDbLine
 10
42.0683073818
 20
178.0943163168
 30
0.0
 11
61.6919259696
 21
178.0943163168
 31
0.0
  0
LINE
  5
4E
330
1F
100
AcDbEntity
  8
Layer2
  6
CENTER2
 62
     7
 48
25.4
100
AcDbLine
 10
144.4883915635
 20
158.8733523157
 30
0.0
 11
144.4883915635
 21
162.2044440322
 31
0.0
  0
LINE
  5
4F
330
1F
100
AcDbEntity
  8
Layer2
  6
Continuous
 62
     7
 48
25.4
100
AcDbLine
 10
50.4883915635
 20
188.9276496501
 30
0.0
 11
41.5858311244
 21
188.9276496501
 31
0.0
  0
LINE
  5
50
330
1F
100
AcDbEntity
  8
Layer2
  6
Continuous
 62
     7
 48
25.4
100
AcDbLine
 10
36.697695273
 20
188.9276496501
 30
0.0
 11
33.1909891188
 21
188.9276496501
 31
0.0
  0
LINE
  5
51
330
1F
100
AcDbEntity
  8
Layer2
  6
Continuous
 62
     7
 48
25.4
100
AcDbLine
 10
50.4883915635
 20
167.2609829834
 30
0.0
 11
41.5858311244
 21
167.2609829834
 31
0.0
  0
LINE
  5
52
330
1F
100
AcDbEntity
  8
Layer2
  6
Continuous
 62
     7
 48
25.4
100
AcDbLine
 10
36.697695273
 20
167.2609829834
 30
0.0
 11
33.1909891188
 21
167.2609829834
 31
0.0
  0
TEXT
  5
54
330
1F
100
AcDbEntity
  8
Layer55
  6
Continuous
 62
     7
 48
25.4
100
AcDbText
 10
51.2222222222
 20
41.4666666667
 30
0.0
 40
2.0
  1
84489
  7
SEACAD_arial_ttfB
 11
51.2222222222
 21
43.4666666667
 31
0.0
100
AcDbText
 73
     3
  0
TEXT
  5
56
330
1F
100
AcDbEntity
  8
Layer55
  6
Continuous
 62
     7
 48
25.4
100
AcDbText
 10
49.7111111111
 20
36.9666666667
 30
0.0
 40
2.0
  1
11.09.02
  7
SEACAD_arial_ttfB
 11
49.7111111111
 21
38.9666666667
 31
0.0
100
AcDbText
 73
     3
  0
TEXT
  5
57
330
1F
100
AcDbEntity
  8
Layer55
  6
Continuous
 62
     7
 48
25.4
100
AcDbText
 10
49.6666666667
 20
31.9666666667
 30
0.0
 40
2.0
  1
Thiesbr.
  7
SEACAD_arial_ttfB
 11
49.6666666667
 21
33.9666666667
 31
0.0
100
AcDbText
 73
     3
  0
TEXT
  5
58
330
1F
100
AcDbEntity
  8
Layer55
  6
Continuous
 62
     7
 48
25.4
100
AcDbText
 10
47.9777777778
 20
26.9666666667
 30
0.0
 40
2.0
  1
Kamphaus
  7
SEACAD_arial_ttfB
 11
47.9777777778
 21
28.9666666667
 31
0.0
100
AcDbText
 73
     3
  0
TEXT
  5
59
330
1F
100
AcDbEntity
  8
Layer55
  6
Continuous
 62
     7
 48
25.4
100
AcDbText
 10
12.1444444444
 20
31.9333333333
 30
0.0
 40
4.0
  1
1:3
  7
SEACAD_arial_ttfB
 11
12.1444444444
 21
35.9333333333
 31
0.0
100
AcDbText
 73
     3
  0
TEXT
  5
5A
330
1F
100
AcDbEntity
  8
Layer55
  6
Continuous
 62
     7
 48
25.4
100
AcDbText
 10
18.9611111111
 20
8.6666666667
 30
0.0
 40
5.0
  1
x
  7
SEACAD_arial_ttfB
 11
18.9611111111
 21
13.6666666667
 31
0.0
100
AcDbText
 73
     3
  0
TEXT
  5
5B
330
1F
100
AcDbEntity
  8
Layer55
  6
Continuous
 62
     7
 48
25.4
100
AcDbText
 10
180.6888888889
 20
13.9333333333
 30
0.0
 40
4.0
  1
28.576
  7
SEACAD_arial_ttfB
 11
180.6888888889
 21
17.9333333333
 31
0.0
100
AcDbText
 73
     3
  0
LINE
  5
5C
330
1F
100
AcDbEntity
  8
Layer1
  6
Continuous
 62
     7
 48
25.4
100
AcDbLine
 10
44.4883915635
 20
225.0018163168
 30
0.0
 11
50.4883915635
 21
225.0018163168
 31
0.0
  0
LINE
  5
5D
330
1F
100
AcDbEntity
  8
Layer1
  6
Continuous
 62
     7
 48
25.4
100
AcDbLine
 10
44.4883915635
 20
231.1619290126
 30
0.0
 11
50.4883915635
 21
231.1619290126
 31
0.0
  0
LINE
  5
5E
330
1F
100
AcDbEntity
  8
Layer1
  6
Continuous
 62
     7
 48
25.4
100
AcDbLine
 10
44.8883915635
 20
224.6018163168
 30
0.0
 11
50.4883915635
 21
224.6018163168
 31
0.0
  0
LINE
  5
5F
330
1F
100
AcDbEntity
  8
Layer1
  6
Continuous
 62
     7
 48
25.4
100
AcDbLine
 10
50.4883915635
 20
231.5868163168
 30
0.0
 11
44.8883915635
 21
231.5868163168
 31
0.0
  0
LINE
  5
60
330
1F
100
AcDbEntity
  8
Layer1
  6
Continuous
 62
     7
 48
25.4
100
AcDbLine
 10
187.9808915635
 20
160.9943163168
 30
0.0
 11
187.9808915635
 21
164.5943163168
 31
0.0
  0
LINE
  5
61
330
1F
100
AcDbEntity
  8
Layer1
  6
Continuous
 62
     7
 48
25.4
100
AcDbLine
 10
180.9958915635
 20
164.5943163168
 30
0.0
 11
180.9958915635
 21
160.9943163168
 31
0.0
  0
LINE
  5
62
330
1F
100
AcDbEntity
  8
Layer1
  6
Continuous
 62
     7
 48
25.4
100
AcDbLine
 10
144.4883915635
 20
231.9276496501
 30
0.0
 11
53.8209703748
 21
231.9276496501
 31
0.0
  0
LINE
  5
63
330
1F
100
AcDbEntity
  8
Layer1
  6
Continuous
 62
     7
 48
25.4
100
AcDbLine
 10
44.4883915635
 20
225.0018163168
 30
0.0
 11
44.4883915635
 21
231.1868163168
 31
0.0
  0
LINE
  5
64
330
1F
100
AcDbEntity
  8
Layer1
  6
Continuous
 62
     7
 48
25.4
100
AcDbLine
 10
187.5808915635
 20
160.5943163168
 30
0.0
 11
181.3958915635
 21
160.5943163168
 31
0.0
  0
LINE
  5
65
330
1F
100
AcDbEntity
  8
Layer1
  6
Continuous
 62
     7
 48
25.4
100
AcDbLine
 10
180.6550582302
 20
164.5943163168
 30
0.0
 11
188.3217248969
 21
164.5943163168
 31
0.0
  0
LINE
  5
66
330
1F
100
AcDbEntity
  8
Layer1
  6
Continuous
 62
     7
 48
25.4
100
AcDbLine
 10
44.4883915635
 20
225.0018163168
 30
0.0
 11
44.8883915635
 21
224.6018163168
 31
0.0
  0
LINE
  5
67
330
1F
100
AcDbEntity
  8
Layer1
  6
Continuous
 62
     7
 48
25.4
100
AcDbLine
 10
44.8883915635
 20
231.5868163168
 30
0.0
 11
44.4883915635
 21
231.1868163168
 31
0.0
  0
LINE
  5
68
330
1F
100
AcDbEntity
  8
Layer1
  6
Continuous
 62
     7
 48
25.4
100
AcDbLine
 10
187.5808915635
 20
160.5943163168
 30
0.0
 11
187.9808915635
 21
160.9943163168
 31
0.0
  0
LINE
  5
69
330
1F
100
AcDbEntity
  8
Layer1
  6
Continuous
 62
     7
 48
25.4
100
AcDbLine
 10
180.9958915635
 20
160.9943163168
 30
0.0
 11
181.3958915635
 21
160.5943163168
 31
0.0
  0
LINE
  5
6A
330
1F
100
AcDbEntity
  8
Layer1
  6
Continuous
 62
     7
 48
25.4
100
AcDbLine
 10
44.8883915635
 20
231.5868163168
 30
0.0
 11
44.8883915635
 21
224.6018163168
 31
0.0
  0
LINE
  5
6B
330
1F
100
AcDbEntity
  8
Layer1
  6
Continuous
 62
     7
 48
25.4
100
AcDbLine
 10
180.9958915635
 20
160.9943163168
 30
0.0
 11
187.9808915635
 21
160.9943163168
 31
0.0
  0
LINE
  5
6C
330
1F
100
AcDbEntity
  8
Layer1
  6
Continuous
 62
     7
 48
25.4
100
AcDbLine
 10
53.8209703748
 20
224.2609829834
 30
0.0
 11
144.4883915635
 21
224.2609829834
 31
0.0
  0
LINE
  5
6D
330
1F
100
AcDbEntity
  8
Layer1
  6
Continuous
 62
     7
 48
25.4
100
AcDbLine
 10
187.5935582302
 20
160.6069829834
 30
0.0
 11
187.5935582302
 21
163.7609829834
 31
0.0
  0
LINE
  5
6E
330
1F
100
AcDbEntity
  8
Layer1
  6
Continuous
 62
     7
 48
25.4
100
AcDbLine
 10
181.3832248969
 20
160.6069829834
 30
0.0
 11
181.3832248969
 21
163.7609829834
 31
0.0
  0
LINE
  5
6F
330
1F
100
AcDbEntity
  8
Layer1
  6
Continuous
 62
     7
 48
25.4
100
AcDbLine
 10
180.9958915635
 20
163.7609829834
 30
0.0
 11
187.9808915635
 21
163.7609829834
 31
0.0
  0
LINE
  5
70
330
1F
100
AcDbEntity
  8
Layer2
  6
Continuous
 62
     7
 48
25.4
100
AcDbLine
 10
50.4883915635
 20
217.2609829834
 30
0.0
 11
50.4883915635
 21
238.9276496501
 31
0.0
  0
ARC
  5
71
330
1F
100
AcDbEntity
  8
Layer2
  6
Continuous
 62
     7
 48
25.4
100
AcDbCircle
 10
53.3626616517
 20
238.4937414121
 30
0.0
 40
0.3333333333333333
100
AcDbArc
 50
2.227894651
 51
88.0
  0
ARC
  5
72
330
1F
100
AcDbEntity
  8
Layer2
  6
Continuous
 62
     7
 48
25.4
100
AcDbCircle
 10
-112.8449417698
 20
224.1609829834
 30
0.0
 40
166.6666666666667
100
AcDbArc
 50
357.772105349
 51
359.8275951877
  0
LINE
  5
73
330
1F
100
AcDbEntity
  8
Layer2
  6
Continuous
 62
     7
 48
25.4
100
AcDbLine
 10
50.4883915635
 20
217.2609829834
 30
0.0
 11
53.3742948172
 21
217.3617609457
 31
0.0
  0
ARC
  5
74
330
1F
100
AcDbEntity
  8
Layer2
  6
Continuous
 62
     7
 48
25.4
100
AcDbCircle
 10
53.3626616517
 20
217.6948912214
 30
0.0
 40
0.3333333333333333
100
AcDbArc
 50
272.0
 51
357.772105349
  0
ARC
  5
75
330
1F
100
AcDbEntity
  8
Layer2
  6
Continuous
 62
     7
 48
25.4
100
AcDbCircle
 10
-112.8449417698
 20
232.0276496501
 30
0.0
 40
166.6666666666667
100
AcDbArc
 50
0.1724048123
 51
2.227894651
  0
LINE
  5
76
330
1F
100
AcDbEntity
  8
Layer2
  6
Continuous
 62
     7
 48
25.4
100
AcDbLine
 10
53.3742948172
 20
238.8268716878
 30
0.0
 11
50.4883915635
 21
238.9276496501
 31
0.0
  0
LINE
  5
77
330
1F
100
AcDbEntity
  8
Layer2
  6
Continuous
 62
     7
 48
25.4
100
AcDbLine
 10
53.8209703748
 20
223.6594784699
 30
0.0
 11
53.8209703748
 21
232.5291541636
 31
0.0
  0
LINE
  5
78
330
1F
100
AcDbEntity
  8
Layer2
  6
Continuous
 62
     7
 48
25.4
100
AcDbLine
 10
53.443145163
 20
218.0457543953
 30
0.0
 11
53.443145163
 21
238.1323835477
 31
0.0
  0
LINE
  5
79
330
1F
100
AcDbEntity
  8
Layer2
  6
Continuous
 62
     7
 48
25.4
100
AcDbLine
 10
53.8209726384
 20
223.6609829834
 30
0.0
 11
53.8209726384
 21
232.5276496501
 31
0.0
  0
ARC
  5
7A
330
1F
100
AcDbEntity
  8
Layer1
  6
Continuous
 62
     7
 48
25.4
100
AcDbCircle
 10
144.4883915635
 20
228.0943163168
 30
0.0
 40
3.833333333333355
100
AcDbArc
 50
270.0
 51
90.0
  0
ARC
  5
7B
330
1F
100
AcDbEntity
  8
Layer1
  6
Continuous
 62
     7
 48
25.4
100
AcDbCircle
 10
184.4883915635
 20
178.0943163168
 30
0.0
 40
3.833333333333355
100
AcDbArc
 50
0.0
 51
180.0
  0
LINE
  5
7C
330
1F
100
AcDbEntity
  8
Layer1
  6
Continuous
 62
     7
 48
25.4
100
AcDbLine
 10
180.6550582302
 20
178.0943163168
 30
0.0
 11
180.6550582302
 21
164.5943163168
 31
0.0
  0
LINE
  5
7D
330
1F
100
AcDbEntity
  8
Layer1
  6
Continuous
 62
     7
 48
25.4
100
AcDbLine
 10
188.3217248969
 20
164.5943163168
 30
0.0
 11
188.3217248969
 21
178.0943163168
 31
0.0
  0
ARC
  5
7E
330
1F
100
AcDbEntity
  8
Layer2
  6
Continuous
 62
     7
 48
25.4
100
AcDbCircle
 10
184.4883915635
 20
178.0943163168
 30
0.0
 40
10.83333333333333
100
AcDbArc
 50
290.7227443816
 51
249.2772556184
  0
INSERT
  5
81
330
1F
100
AcDbEntity
  8
Layer3
100
AcDbBlockReference
  2
GDimGGroup
 10
0.0
 20
0.0
 30
0.0
  0
INSERT
  5
90
330
1F
100
AcDbEntity
  8
Layer3
100
AcDbBlockReference
  2
GDimGGroup1
 10
0.0
 20
0.0
 30
0.0
  0
INSERT
  5
9F
330
1F
100
AcDbEntity
  8
Layer3
100
AcDbBlockReference
  2
GDimGGroup2
 10
0.0
 20
0.0
 30
0.0
  0
INSERT
  5
AC
330
1F
100
AcDbEntity
  8
Layer3
100
AcDbBlockReference
  2
GDimGGroup3
 10
0.0
 20
0.0
 30
0.0
  0
INSERT
  5
B9
330
1F
100
AcDbEntity
  8
Layer2
100
AcDbBlockReference
  2
GDimGGroup4
 10
0.0
 20
0.0
 30
0.0
  0
INSERT
  5
C6
330
1F
100
AcDbEntity
  8
Layer3
100
AcDbBlockReference
  2
GDimGGroup5
 10
0.0
 20
0.0
 30
0.0
  0
LINE
  5
D3
330
1F
100
AcDbEntity
  8
MDS_Layer_90
  6
Continuous
 62
     7
 48
25.4
100
AcDbLine
 10
6.6
 20
291.0
 30
0.0
 11
205.0
 21
291.0
 31
0.0
  0
LINE
  5
D4
330
1F
100
AcDbEntity
  8
MDS_Layer_90
  6
Continuous
 62
     7
 48
25.4
100
AcDbLine
 10
6.6
 20
291.0
 30
0.0
 11
6.6
 21
45.0
 31
0.0
  0
LINE
  5
D6
330
1F
100
AcDbEntity
  8
MDS_Layer_94
  6
Continuous
 62
     7
 48
25.4
100
AcDbLine
 10
85.0
 20
30.0
 30
0.0
 11
105.0
 21
30.0
 31
0.0
  0
LINE
  5
D7
330
1F
100
AcDbEntity
  8
MDS_Layer_94
  6
Continuous
 62
     7
 48
25.4
100
AcDbLine
 10
125.0
 20
35.0
 30
0.0
 11
145.0
 21
35.0
 31
0.0
  0
LINE
  5
D8
330
1F
100
AcDbEntity
  8
MDS_Layer_94
  6
Continuous
 62
     7
 48
25.4
100
AcDbLine
 10
105.0
 20
30.0
 30
0.0
 11
125.0
 21
30.0
 31
0.0
  0
LINE
  5
D9
330
1F
100
AcDbEntity
  8
MDS_Layer_94
  6
Continuous
 62
     7
 48
25.4
100
AcDbLine
 10
105.0
 20
25.0
 30
0.0
 11
105.0
 21
45.0
 31
0.0
  0
LINE
  5
DA
330
1F
100
AcDbEntity
  8
MDS_Layer_94
  6
Continuous
 62
     7
 48
25.4
100
AcDbLine
 10
25.6
 20
45.0
 30
0.0
 11
25.6
 21
25.0
 31
0.0
  0
LINE
  5
DB
330
1F
100
AcDbEntity
  8
MDS_Layer_94
  6
Continuous
 62
     7
 48
25.4
100
AcDbLine
 10
85.0
 20
25.0
 30
0.0
 11
105.0
 21
25.0
 31
0.0
  0
LINE
  5
DC
330
1F
100
AcDbEntity
  8
MDS_Layer_94
  6
Continuous
 62
     7
 48
25.4
100
AcDbLine
 10
125.0
 20
30.0
 30
0.0
 11
145.0
 21
30.0
 31
0.0
  0
LINE
  5
DD
330
1F
100
AcDbEntity
  8
MDS_Layer_94
  6
Continuous
 62
     7
 48
25.4
100
AcDbLine
 10
105.0
 20
25.0
 30
0.0
 11
125.0
 21
25.0
 31
0.0
  0
LINE
  5
DE
330
1F
100
AcDbEntity
  8
MDS_Layer_94
  6
Continuous
 62
     7
 48
25.4
100
AcDbLine
 10
125.0
 20
25.0
 30
0.0
 11
125.0
 21
45.0
 31
0.0
  0
LINE
  5
DF
330
1F
100
AcDbEntity
  8
MDS_Layer_94
  6
Continuous
 62
     7
 48
25.4
100
AcDbLine
 10
145.0
 20
25.0
 30
0.0
 11
145.0
 21
45.0
 31
0.0
  0
LINE
  5
E0
330
1F
100
AcDbEntity
  8
MDS_Layer_94
  6
Continuous
 62
     7
 48
25.4
100
AcDbLine
 10
125.0
 20
25.0
 30
0.0
 11
145.0
 21
25.0
 31
0.0
  0
LINE
  5
E1
330
1F
100
AcDbEntity
  8
MDS_Layer_94
  6
Continuous
 62
     7
 48
25.4
100
AcDbLine
 10
85.0
 20
40.0
 30
0.0
 11
105.0
 21
40.0
 31
0.0
  0
LINE
  5
E2
330
1F
100
AcDbEntity
  8
MDS_Layer_94
  6
Continuous
 62
     7
 48
25.4
100
AcDbLine
 10
105.0
 20
40.0
 30
0.0
 11
125.0
 21
40.0
 31
0.0
  0
LINE
  5
E3
330
1F
100
AcDbEntity
  8
MDS_Layer_94
  6
Continuous
 62
     7
 48
25.4
100
AcDbLine
 10
125.0
 20
40.0
 30
0.0
 11
145.0
 21
40.0
 31
0.0
  0
LINE
  5
E4
330
1F
100
AcDbEntity
  8
MDS_Layer_94
  6
Continuous
 62
     7
 48
25.4
100
AcDbLine
 10
25.6
 20
35.0
 30
0.0
 11
45.0
 21
35.0
 31
0.0
  0
LINE
  5
E5
330
1F
100
AcDbEntity
  8
MDS_Layer_94
  6
Continuous
 62
     7
 48
25.4
100
AcDbLine
 10
85.0
 20
35.0
 30
0.0
 11
105.0
 21
35.0
 31
0.0
  0
LINE
  5
E6
330
1F
100
AcDbEntity
  8
MDS_Layer_94
  6
Continuous
 62
     7
 48
25.4
100
AcDbLine
 10
105.0
 20
35.0
 30
0.0
 11
125.0
 21
35.0
 31
0.0
  0
LINE
  5
E7
330
1F
100
AcDbEntity
  8
MDS_Layer_94
  6
Continuous
 62
     7
 48
25.4
100
AcDbLine
 10
6.6
 20
5.0168024536
 30
0.0
 11
6.6
 21
25.0
 31
0.0
  0
LINE
  5
E8
330
1F
100
AcDbEntity
  8
MDS_Layer_94
  6
Continuous
 62
     7
 48
25.4
100
AcDbLine
 10
16.1
 20
20.0
 30
0.0
 11
16.1
 21
5.0168024536
 31
0.0
  0
LINE
  5
E9
330
1F
100
AcDbEntity
  8
MDS_Layer_94
  6
Continuous
 62
     7
 48
25.4
100
AcDbLine
 10
6.6
 20
5.0
 30
0.0
 11
45.0
 21
5.0
 31
0.0
  0
LINE
  5
EA
330
1F
100
AcDbEntity
  8
MDS_Layer_94
  6
Continuous
 62
     7
 48
25.4
100
AcDbLine
 10
6.6
 20
39.999
 30
0.0
 11
45.0
 21
39.999
 31
0.0
  0
LINE
  5
EB
330
1F
100
AcDbEntity
  8
MDS_Layer_94
  6
Continuous
 62
     7
 48
25.4
100
AcDbLine
 10
6.6
 20
40.0
 30
0.0
 11
45.0
 21
40.0
 31
0.0
  0
LINE
  5
EC
330
1F
100
AcDbEntity
  8
MDS_Layer_94
  6
Continuous
 62
     7
 48
25.4
100
AcDbLine
 10
6.6
 20
39.998
 30
0.0
 11
45.0
 21
39.998
 31
0.0
  0
LINE
  5
ED
330
1F
100
AcDbEntity
  8
MDS_Layer_94
  6
Continuous
 62
     7
 48
25.4
100
AcDbLine
 10
45.0
 20
5.0
 30
0.0
 11
45.0
 21
25.0
 31
0.0
  0
LINE
  5
EE
330
1F
100
AcDbEntity
  8
MDS_Layer_94
  6
Continuous
 62
     7
 48
25.4
100
AcDbLine
 10
45.0
 20
15.0
 30
0.0
 11
77.0
 21
15.0
 31
0.0
  0
LINE
  5
EF
330
1F
100
AcDbEntity
  8
MDS_Layer_94
  6
Continuous
 62
     7
 48
25.4
100
AcDbLine
 10
77.0
 20
15.0
 30
0.0
 11
109.0
 21
15.0
 31
0.0
  0
LINE
  5
F0
330
1F
100
AcDbEntity
  8
MDS_Layer_94
  6
Continuous
 62
     7
 48
25.4
100
AcDbLine
 10
25.6
 20
5.0168024536
 30
0.0
 11
25.6
 21
25.0
 31
0.0
  0
LINE
  5
F1
330
1F
100
AcDbEntity
  8
MDS_Layer_94
  6
Continuous
 62
     7
 48
25.4
100
AcDbLine
 10
45.0
 20
5.0
 30
0.0
 11
77.0
 21
5.0
 31
0.0
  0
LINE
  5
F2
330
1F
100
AcDbEntity
  8
MDS_Layer_94
  6
Continuous
 62
     7
 48
25.4
100
AcDbLine
 10
165.0
 20
25.0
 30
0.0
 11
185.0
 21
25.0
 31
0.0
  0
LINE
  5
F3
330
1F
100
AcDbEntity
  8
MDS_Layer_94
  6
Continuous
 62
     7
 48
25.4
100
AcDbLine
 10
141.0
 20
15.0
 30
0.0
 11
173.0
 21
15.0
 31
0.0
  0
LINE
  5
F4
330
1F
100
AcDbEntity
  8
MDS_Layer_94
  6
Continuous
 62
     7
 48
25.4
100
AcDbLine
 10
205.0
 20
25.0
 30
0.0
 11
205.0
 21
45.0
 31
0.0
  0
LINE
  5
F5
330
1F
100
AcDbEntity
  8
MDS_Layer_94
  6
Continuous
 62
     7
 48
25.4
100
AcDbLine
 10
185.0
 20
30.0
 30
0.0
 11
205.0
 21
30.0
 31
0.0
  0
LINE
  5
F6
330
1F
100
AcDbEntity
  8
MDS_Layer_94
  6
Continuous
 62
     7
 48
25.4
100
AcDbLine
 10
185.0
 20
35.0
 30
0.0
 11
205.0
 21
35.0
 31
0.0
  0
LINE
  5
F7
330
1F
100
AcDbEntity
  8
MDS_Layer_94
  6
Continuous
 62
     7
 48
25.4
100
AcDbLine
 10
185.0
 20
40.0
 30
0.0
 11
205.0
 21
40.0
 31
0.0
  0
LINE
  5
F8
330
1F
100
AcDbEntity
  8
MDS_Layer_94
  6
Continuous
 62
     7
 48
25.4
100
AcDbLine
 10
185.0
 20
25.0
 30
0.0
 11
185.0
 21
45.0
 31
0.0
  0
LINE
  5
F9
330
1F
100
AcDbEntity
  8
MDS_Layer_94
  6
Continuous
 62
     7
 48
25.4
100
AcDbLine
 10
165.0
 20
30.0
 30
0.0
 11
185.0
 21
30.0
 31
0.0
  0
LINE
  5
FA
330
1F
100
AcDbEntity
  8
MDS_Layer_94
  6
Continuous
 62
     7
 48
25.4
100
AcDbLine
 10
165.0
 20
35.0
 30
0.0
 11
185.0
 21
35.0
 31
0.0
  0
LINE
  5
FB
330
1F
100
AcDbEntity
  8
MDS_Layer_94
  6
Continuous
 62
     7
 48
25.4
100
AcDbLine
 10
165.0
 20
40.0
 30
0.0
 11
185.0
 21
40.0
 31
0.0
  0
LINE
  5
FC
330
1F
100
AcDbEntity
  8
MDS_Layer_94
  6
Continuous
 62
     7
 48
25.4
100
AcDbLine
 10
145.0
 20
35.0
 30
0.0
 11
165.0
 21
35.0
 31
0.0
  0
LINE
  5
FD
330
1F
100
AcDbEntity
  8
MDS_Layer_94
  6
Continuous
 62
     7
 48
25.4
100
AcDbLine
 10
165.0
 20
25.0
 30
0.0
 11
165.0
 21
45.0
 31
0.0
  0
LINE
  5
FE
330
1F
100
AcDbEntity
  8
MDS_Layer_94
  6
Continuous
 62
     7
 48
25.4
100
AcDbLine
 10
145.0
 20
40.0
 30
0.0
 11
165.0
 21
40.0
 31
0.0
  0
LINE
  5
FF
330
1F
100
AcDbEntity
  8
MDS_Layer_94
  6
Continuous
 62
     7
 48
25.4
100
AcDbLine
 10
45.0
 20
45.0
 30
0.0
 11
205.0
 21
45.0
 31
0.0
  0
LINE
  5
100
330
1F
100
AcDbEntity
  8
MDS_Layer_94
  6
Continuous
 62
     7
 48
25.4
100
AcDbLine
 10
25.6
 20
30.0
 30
0.0
 11
45.0
 21
30.0
 31
0.0
  0
LINE
  5
101
330
1F
100
AcDbEntity
  8
MDS_Layer_94
  6
Continuous
 62
     7
 48
25.4
100
AcDbLine
 10
6.6
 20
20.0
 30
0.0
 11
25.6
 21
20.0
 31
0.0
  0
LINE
  5
102
330
1F
100
AcDbEntity
  8
MDS_Layer_94
  6
Continuous
 62
     7
 48
25.4
100
AcDbLine
 10
6.6
 20
15.0
 30
0.0
 11
25.6
 21
15.0
 31
0.0
  0
LINE
  5
103
330
1F
100
AcDbEntity
  8
MDS_Layer_94
  6
Continuous
 62
     7
 48
25.4
100
AcDbLine
 10
6.6
 20
25.0
 30
0.0
 11
45.0
 21
25.0
 31
0.0
  0
LINE
  5
104
330
1F
100
AcDbEntity
  8
MDS_Layer_94
  6
Continuous
 62
     7
 48
25.4
100
AcDbLine
 10
45.0
 20
25.0
 30
0.0
 11
45.0
 21
45.0
 31
0.0
  0
LINE
  5
105
330
1F
100
AcDbEntity
  8
MDS_Layer_94
  6
Continuous
 62
     7
 48
25.4
100
AcDbLine
 10
45.0
 20
40.0
 30
0.0
 11
65.0
 21
40.0
 31
0.0
  0
LINE
  5
106
330
1F
100
AcDbEntity
  8
MDS_Layer_94
  6
Continuous
 62
     7
 48
25.4
100
AcDbLine
 10
45.0
 20
35.0
 30
0.0
 11
65.0
 21
35.0
 31
0.0
  0
LINE
  5
107
330
1F
100
AcDbEntity
  8
MDS_Layer_94
  6
Continuous
 62
     7
 48
25.4
100
AcDbLine
 10
45.0
 20
30.0
 30
0.0
 11
65.0
 21
30.0
 31
0.0
  0
LINE
  5
108
330
1F
100
AcDbEntity
  8
MDS_Layer_94
  6
Continuous
 62
     7
 48
25.4
100
AcDbLine
 10
65.0
 20
25.0
 30
0.0
 11
65.0
 21
45.0
 31
0.0
  0
LINE
  5
109
330
1F
100
AcDbEntity
  8
MDS_Layer_94
  6
Continuous
 62
     7
 48
25.4
100
AcDbLine
 10
45.0
 20
25.0
 30
0.0
 11
65.0
 21
25.0
 31
0.0
  0
LINE
  5
10A
330
1F
100
AcDbEntity
  8
MDS_Layer_94
  6
Continuous
 62
     7
 48
25.4
100
AcDbLine
 10
65.0
 20
40.0
 30
0.0
 11
85.0
 21
40.0
 31
0.0
  0
LINE
  5
10B
330
1F
100
AcDbEntity
  8
MDS_Layer_94
  6
Continuous
 62
     7
 48
25.4
100
AcDbLine
 10
65.0
 20
35.0
 30
0.0
 11
85.0
 21
35.0
 31
0.0
  0
LINE
  5
10C
330
1F
100
AcDbEntity
  8
MDS_Layer_94
  6
Continuous
 62
     7
 48
25.4
100
AcDbLine
 10
65.0
 20
30.0
 30
0.0
 11
85.0
 21
30.0
 31
0.0
  0
LINE
  5
10D
330
1F
100
AcDbEntity
  8
MDS_Layer_94
  6
Continuous
 62
     7
 48
25.4
100
AcDbLine
 10
85.0
 20
25.0
 30
0.0
 11
85.0
 21
45.0
 31
0.0
  0
LINE
  5
10E
330
1F
100
AcDbEntity
  8
MDS_Layer_94
  6
Continuous
 62
     7
 48
25.4
100
AcDbLine
 10
65.0
 20
25.0
 30
0.0
 11
85.0
 21
25.0
 31
0.0
  0
LINE
  5
10F
330
1F
100
AcDbEntity
  8
MDS_Layer_94
  6
Continuous
 62
     7
 48
25.4
100
AcDbLine
 10
45.0
 20
45.0
 30
0.0
 11
6.6
 21
45.0
 31
0.0
  0
LINE
  5
110
330
1F
100
AcDbEntity
  8
MDS_Layer_94
  6
Continuous
 62
     7
 48
25.4
100
AcDbLine
 10
6.6
 20
45.0
 30
0.0
 11
6.6
 21
25.0
 31
0.0
  0
LINE
  5
111
330
1F
100
AcDbEntity
  8
MDS_Layer_94
  6
Continuous
 62
     7
 48
25.4
100
AcDbLine
 10
185.0
 20
25.0
 30
0.0
 11
205.0
 21
25.0
 31
0.0
  0
LINE
  5
112
330
1F
100
AcDbEntity
  8
MDS_Layer_94
  6
Continuous
 62
     7
 48
25.4
100
AcDbLine
 10
77.0
 20
5.0
 30
0.0
 11
109.0
 21
5.0
 31
0.0
  0
LINE
  5
113
330
1F
100
AcDbEntity
  8
MDS_Layer_94
  6
Continuous
 62
     7
 48
25.4
100
AcDbLine
 10
145.0
 20
30.0
 30
0.0
 11
165.0
 21
30.0
 31
0.0
  0
LINE
  5
114
330
1F
100
AcDbEntity
  8
MDS_Layer_94
  6
Continuous
 62
     7
 48
25.4
100
AcDbLine
 10
109.0
 20
5.0
 30
0.0
 11
109.0
 21
25.0
 31
0.0
  0
LINE
  5
115
330
1F
100
AcDbEntity
  8
MDS_Layer_94
  6
Continuous
 62
     7
 48
25.4
100
AcDbLine
 10
109.0
 20
15.0
 30
0.0
 11
141.0
 21
15.0
 31
0.0
  0
LINE
  5
116
330
1F
100
AcDbEntity
  8
MDS_Layer_94
  6
Continuous
 62
     7
 48
25.4
100
AcDbLine
 10
145.0
 20
25.0
 30
0.0
 11
165.0
 21
25.0
 31
0.0
  0
LINE
  5
117
330
1F
100
AcDbEntity
  8
MDS_Layer_94
  6
Continuous
 62
     7
 48
25.4
100
AcDbLine
 10
77.0
 20
5.0
 30
0.0
 11
77.0
 21
25.0
 31
0.0
  0
LINE
  5
118
330
1F
100
AcDbEntity
  8
MDS_Layer_94
  6
Continuous
 62
     7
 48
25.4
100
AcDbLine
 10
205.0
 20
5.0
 30
0.0
 11
205.0
 21
25.0
 31
0.0
  0
LINE
  5
119
330
1F
100
AcDbEntity
  8
MDS_Layer_94
  6
Continuous
 62
     7
 48
25.4
100
AcDbLine
 10
173.0
 20
5.0
 30
0.0
 11
205.0
 21
5.0
 31
0.0
  0
LINE
  5
11A
330
1F
100
AcDbEntity
  8
MDS_Layer_94
  6
Continuous
 62
     7
 48
25.4
100
AcDbLine
 10
173.0
 20
5.0
 30
0.0
 11
173.0
 21
25.0
 31
0.0
  0
LINE
  5
11B
330
1F
100
AcDbEntity
  8
MDS_Layer_94
  6
Continuous
 62
     7
 48
25.4
100
AcDbLine
 10
141.0
 20
5.0
 30
0.0
 11
173.0
 21
5.0
 31
0.0
  0
LINE
  5
11C
330
1F
100
AcDbEntity
  8
MDS_Layer_94
  6
Continuous
 62
     7
 48
25.4
100
AcDbLine
 10
109.0
 20
5.0
 30
0.0
 11
141.0
 21
5.0
 31
0.0
  0
LINE
  5
11D
330
1F
100
AcDbEntity
  8
MDS_Layer_94
  6
Continuous
 62
     7
 48
25.4
100
AcDbLine
 10
141.0
 20
5.0
 30
0.0
 11
141.0
 21
25.0
 31
0.0
  0
TEXT
  5
11F
330
1F
100
AcDbEntity
  8
MDS_Layer_94
  6
Continuous
 62
     7
 48
25.4
100
AcDbText
 10
27.2
 20
14.0913731012
 30
0.0
 40
2.5
  1
und
  7
SEACAD_seiso_ttf
 11
27.2
 21
16.5913731012
 31
0.0
100
AcDbText
 73
     3
  0
TEXT
  5
120
330
1F
100
AcDbEntity
  8
MDS_Layer_94
  6
Continuous
 62
     7
 48
25.4
100
AcDbText
 10
27.2
 20
9.0913731012
 30
0.0
 40
2.5
  1
Varianten
  7
SEACAD_seiso_ttf
 11
27.2
 21
11.5913731012
 31
0.0
100
AcDbText
 73
     3
  0
TEXT
  5
121
330
1F
100
AcDbEntity
  8
MDS_Layer_94
  6
Continuous
 62
     7
 48
25.4
100
AcDbText
 10
7.1240657125
 20
21.5397731012
 30
0.0
 40
2.5
  1
Dateiformat
  7
SEACAD_seiso_ttf
 11
7.1240657125
 21
24.0397731012
 31
0.0
100
AcDbText
 73
     3
  0
TEXT
  5
122
330
1F
100
AcDbEntity
  8
MDS_Layer_94
  6
Continuous
 62
     7
 48
25.4
100
AcDbText
 10
7.4059642026
 20
16.5238108871
 30
0.0
 40
2.0
  1
Raster
  7
SEACAD_arial_ttf
 11
7.4059642026
 21
18.5238108871
 31
0.0
100
AcDbText
 73
     3
  0
TEXT
  5
123
330
1F
100
AcDbEntity
  8
MDS_Layer_94
  6
Continuous
 62
     7
 48
25.4
100
AcDbText
 10
16.9707887071
 20
16.3869274332
 30
0.0
 40
2.0
  1
Vektor
  7
SEACAD_arial_ttf
 11
16.9707887071
 21
18.3869274332
 31
0.0
100
AcDbText
 73
     3
  0
TEXT
  5
124
330
1F
100
AcDbEntity
  8
MDS_Layer_94
  6
Continuous
 62
     7
 48
25.4
100
AcDbText
 10
27.2
 20
31.4228985666
 30
0.0
 40
2.5
  1
Name
  7
SEACAD_seiso_ttf
 11
27.2
 21
33.9228985666
 31
0.0
100
AcDbText
 73
     3
  0
TEXT
  5
125
330
1F
100
AcDbEntity
  8
MDS_Layer_94
  6
Continuous
 62
     7
 48
25.4
100
AcDbText
 10
27.2
 20
19.0913831012
 30
0.0
 40
2.5
  1
Prod.-Nr.
  7
SEACAD_seiso_ttf
 11
27.2
 21
21.5913831012
 31
0.0
100
AcDbText
 73
     3
  0
TEXT
  5
126
330
1F
100
AcDbEntity
  8
MDS_Layer_94
  6
Continuous
 62
     7
 48
25.4
100
AcDbText
 10
27.266739169
 20
26.5531113353
 30
0.0
 40
2.5
  1
Gepruft
  7
SEACAD_seiso_ttf
 11
27.266739169
 21
29.0531113353
 31
0.0
100
AcDbText
 73
     3
  0
TEXT
  5
127
330
1F
100
AcDbEntity
  8
MDS_Layer_94
  6
Continuous
 62
     7
 48
25.4
100
AcDbText
 10
9.468641411
 20
41.4915690176
 30
0.0
 40
2.5
  1
Masstab
  7
SEACAD_seiso_ttf
 11
9.468641411
 21
43.9915690176
 31
0.0
100
AcDbText
 73
     3
  0
TEXT
  5
128
330
1F
100
AcDbEntity
  8
MDS_Layer_94
  6
Continuous
 62
     7
 48
25.4
100
AcDbText
 10
27.2010851897
 20
36.4228985666
 30
0.0
 40
2.5
  1
Datum
  7
SEACAD_seiso_ttf
 11
27.2010851897
 21
38.9228985666
 31
0.0
100
AcDbText
 73
     3
  0
TEXT
  5
129
330
1F
100
AcDbEntity
  8
MDS_Layer_94
  6
Continuous
 62
     7
 48
25.4
100
AcDbText
 10
27.2
 20
41.4250689461
 30
0.0
 40
2.5
  1
And.-Mitt.
  7
SEACAD_seiso_ttf
 11
27.2
 21
43.9250689461
 31
0.0
100
AcDbText
 73
     3
  0
LINE
  5
12A
330
1F
100
AcDbEntity
  8
MDS_Layer_90
  6
Continuous
 62
     7
 48
25.4
100
AcDbLine
 10
205.0
 20
291.0
 30
0.0
 11
205.0
 21
45.0
 31
0.0
  0
ENDSEC
  0
SECTION
  2
OBJECTS
  0
DICTIONARY
  5
C
330
0
100
AcDbDictionary
281
     1
  3
ACAD_GROUP
350
D
  3
ACAD_LAYOUT
350
1A
  3
ACAD_MLINESTYLE
350
17
  3
ACAD_PLOTSETTINGS
350
19
  3
ACAD_PLOTSTYLENAME
350
E
  0
DICTIONARY
  5
D
102
{ACAD_REACTORS
330
C
102
}
330
C
100
AcDbDictionary
281
     1
  0
DICTIONARY
  5
1A
102
{ACAD_REACTORS
330
C
102
}
330
C
100
AcDbDictionary
281
     1
  3
Layout1
350
1E
  3
Model
350
22
  0
DICTIONARY
  5
17
102
{ACAD_REACTORS
330
C
102
}
330
C
100
AcDbDictionary
281
     1
  3
Standard
350
18
  0
DICTIONARY
  5
19
102
{ACAD_REACTORS
330
C
102
}
330
C
100
AcDbDictionary
281
     1
  0
ACDBDICTIONARYWDFLT
  5
E
102
{ACAD_REACTORS
330
C
102
}
330
C
100
AcDbDictionary
281
     1
  3
Normal
350
F
100
AcDbDictionaryWithDefault
340
F
  0
LAYOUT
  5
1E
102
{ACAD_REACTORS
330
1A
102
}
330
1A
100
AcDbPlotSettings
  1

  2

  4

  6

 40
0.0
 41
0.0
 42
0.0
 43
0.0
 44
0.0
 45
0.0
 46
0.0
 47
0.0
 48
0.0
 49
0.0
140
0.0
141
0.0
142
1.0
143
1.0
 70
   688
 72
     0
 73
     0
 74
     5
  7

 75
    16
147
1.0
148
0.0
149
0.0
100
AcDbLayout
  1
Layout1
 70
     1
 71
     1
 10
0.0
 20
0.0
 11
210.0
 21
297.0
 12
0.0
 22
0.0
 32
0.0
 14
0.0
 24
0.0
 34
0.0
 15
210.0
 25
297.0
 35
0.0
146
0.0
 13
0.0
 23
0.0
 33
0.0
 16
1.0
 26
0.0
 36
0.0
 17
0.0
 27
1.0
 37
0.0
 76
     0
330
1B
  0
LAYOUT
  5
22
102
{ACAD_REACTORS
330
1A
102
}
330
1A
100
AcDbPlotSettings
  1

  2

  4

  6

 40
0.0
 41
0.0
 42
0.0
 43
0.0
 44
0.0
 45
0.0
 46
0.0
 47
0.0
 48
0.0
 49
0.0
140
0.0
141
0.0
142
1.0
143
1.0
 70
  1712
 72
     0
 73
     0
 74
     0
  7

 75
     0
147
1.0
148
0.0
149
0.0
100
AcDbLayout
  1
Model
 70
     1
 71
     0
 10
0.0
 20
0.0
 11
210.0
 21
297.0
 12
0.0
 22
0.0
 32
0.0
 14
0.0
 24
0.0
 34
0.0
 15
210.0
 25
297.0
 35
0.0
146
0.0
 13
0.0
 23
0.0
 33
0.0
 16
1.0
 26
0.0
 36
0.0
 17
0.0
 27
1.0
 37
0.0
 76
     0
330
1F
  0
MLINESTYLE
  5
18
102
{ACAD_REACTORS
330
17
102
}
330
17
100
AcDbMlineStyle
  2
Standard
 70
     0
  3

 62
   256
 51
90.0
 52
90.0
 71
     2
 49
0.5
 62
   256
  6
BYLAYER
 49
-0.5
 62
   256
  6
BYLAYER
  0
ACDBPLACEHOLDER
  5
F
102
{ACAD_REACTORS
330
E
102
}
330
E
  0
ENDSEC
  0
EOF
