  0
SECTION
  2
HEADER
  9
$ACADVER
  1
AC1015
  9
$ACADMAINTVER
 70
     6
  9
$DWGCODEPAGE
  3
ANSI_932
  9
$INSBASE
 10
0.0
 20
0.0
 30
0.0
  9
$EXTMIN
 10
0.0
 20
0.0
 30
0.0
  9
$EXTMAX
 10
210.0
 20
297.0
 30
0.0
  9
$LIMMIN
 10
0.0
 20
0.0
  9
$LIMMAX
 10
210.0
 20
297.0
  9
$ORTHOMODE
 70
     0
  9
$REGENMODE
 70
     1
  9
$FILLMODE
 70
     1
  9
$QTEXTMODE
 70
     0
  9
$MIRRTEXT
 70
     1
  9
$LTSCALE
 40
1.0
  9
$ATTMODE
 70
     1
  9
$TEXTSIZE
 40
0.2
  9
$TRACEWID
 40
0.05
  9
$TEXTSTYLE
  7
Standard
  9
$CLAYER
  8
0
  9
$CELTYPE
  6
ByLayer
  9
$CECOLOR
 62
   256
  9
$CELTSCALE
 40
25.4
  9
$DISPSILH
 70
     0
  9
$DIMSCALE
 40
1.0
  9
$DIMASZ
 40
0.18
  9
$DIMEXO
 40
0.0625
  9
$DIMDLI
 40
0.38
  9
$DIMRND
 40
0.0
  9
$DIMDLE
 40
0.0
  9
$DIMEXE
 40
0.18
  9
$DIMTP
 40
0.0
  9
$DIMTM
 40
0.0
  9
$DIMTXT
 40
0.18
  9
$DIMCEN
 40
0.09
  9
$DIMTSZ
 40
0.0
  9
$DIMTOL
 70
     0
  9
$DIMLIM
 70
     0
  9
$DIMTIH
 70
     1
  9
$DIMTOH
 70
     1
  9
$DIMSE1
 70
     0
  9
$DIMSE2
 70
     0
  9
$DIMTAD
 70
     0
  9
$DIMZIN
 70
     0
  9
$DIMBLK
  1

  9
$DIMASO
 70
     1
  9
$DIMSHO
 70
     1
  9
$DIMPOST
  1

  9
$DIMAPOST
  1

  9
$DIMALT
 70
     0
  9
$DIMALTD
 70
     2
  9
$DIMALTF
 40
25.4
  9
$DIMLFAC
 40
1.0
  9
$DIMTOFL
 70
     0
  9
$DIMTVP
 40
0.0
  9
$DIMTIX
 70
     0
  9
$DIMSOXD
 70
     0
  9
$DIMSAH
 70
     0
  9
$DIMBLK1
  1

  9
$DIMBLK2
  1

  9
$DIMSTYLE
  2
Standard
  9
$DIMCLRD
 70
     0
  9
$DIMCLRE
 70
     0
  9
$DIMCLRT
 70
     0
  9
$DIMTFAC
 40
1.0
  9
$DIMGAP
 40
0.09
  9
$DIMJUST
 70
     0
  9
$DIMSD1
 70
     0
  9
$DIMSD2
 70
     0
  9
$DIMTOLJ
 70
     1
  9
$DIMTZIN
 70
     0
  9
$DIMALTZ
 70
     0
  9
$DIMALTTZ
 70
     0
  9
$DIMUPT
 70
     0
  9
$DIMDEC
 70
     4
  9
$DIMTDEC
 70
     4
  9
$DIMALTU
 70
     2
  9
$DIMALTTD
 70
     2
  9
$DIMTXSTY
  7
Standard
  9
$DIMAUNIT
 70
     0
  9
$DIMADEC
 70
     0
  9
$DIMALTRND
 40
0.0
  9
$DIMAZIN
 70
     0
  9
$DIMDSEP
 70
    46
  9
$DIMATFIT
 70
     3
  9
$DIMFRAC
 70
     0
  9
$DIMLDRBLK
  1

  9
$DIMLUNIT
 70
     2
  9
$DIMLWD
 70
    -2
  9
$DIMLWE
 70
    -2
  9
$DIMTMOVE
 70
     0
  9
$LUNITS
 70
     2
  9
$LUPREC
 70
     4
  9
$SKETCHINC
 40
0.1
  9
$FILLETRAD
 40
0.5
  9
$AUNITS
 70
     0
  9
$AUPREC
 70
     0
  9
$MENU
  1
.
  9
$ELEVATION
 40
0.0
  9
$PELEVATION
 40
0.0
  9
$THICKNESS
 40
0.0
  9
$LIMCHECK
 70
     0
  9
$CHAMFERA
 40
0.5
  9
$CHAMFERB
 40
0.5
  9
$CHAMFERC
 40
1.0
  9
$CHAMFERD
 40
0.0
  9
$SKPOLY
 70
     0
  9
$TDCREATE
 40
2454672.548817083
  9
$TDUCREATE
 40
2454672.173817083
  9
$TDUPDATE
 40
2454672.548817095
  9
$TDUUPDATE
 40
2454672.173817095
  9
$TDINDWG
 40
0.0000000116
  9
$TDUSRTIMER
 40
0.0000000116
  9
$USRTIMER
 70
     1
  9
$ANGBASE
 50
0.0
  9
$ANGDIR
 70
     0
  9
$PDMODE
 70
     0
  9
$PDSIZE
 40
0.0
  9
$PLINEWID
 40
0.0
  9
$SPLFRAME
 70
     0
  9
$SPLINETYPE
 70
     6
  9
$SPLINESEGS
 70
     8
  9
$HANDSEED
  5
13A
  9
$SURFTAB1
 70
     6
  9
$SURFTAB2
 70
     6
  9
$SURFTYPE
 70
     6
  9
$SURFU
 70
     6
  9
$SURFV
 70
     6
  9
$UCSBASE
  2

  9
$UCSNAME
  2

  9
$UCSORG
 10
0.0
 20
0.0
 30
0.0
  9
$UCSXDIR
 10
1.0
 20
0.0
 30
0.0
  9
$UCSYDIR
 10
0.0
 20
1.0
 30
0.0
  9
$UCSORTHOREF
  2

  9
$UCSORTHOVIEW
 70
     0
  9
$UCSORGTOP
 10
0.0
 20
0.0
 30
0.0
  9
$UCSORGBOTTOM
 10
0.0
 20
0.0
 30
0.0
  9
$UCSORGLEFT
 10
0.0
 20
0.0
 30
0.0
  9
$UCSORGRIGHT
 10
0.0
 20
0.0
 30
0.0
  9
$UCSORGFRONT
 10
0.0
 20
0.0
 30
0.0
  9
$UCSORGBACK
 10
0.0
 20
0.0
 30
0.0
  9
$PUCSBASE
  2

  9
$PUCSNAME
  2

  9
$PUCSORG
 10
0.0
 20
0.0
 30
0.0
  9
$PUCSXDIR
 10
1.0
 20
0.0
 30
0.0
  9
$PUCSYDIR
 10
0.0
 20
1.0
 30
0.0
  9
$PUCSORTHOREF
  2

  9
$PUCSORTHOVIEW
 70
     0
  9
$PUCSORGTOP
 10
0.0
 20
0.0
 30
0.0
  9
$PUCSORGBOTTOM
 10
0.0
 20
0.0
 30
0.0
  9
$PUCSORGLEFT
 10
0.0
 20
0.0
 30
0.0
  9
$PUCSORGRIGHT
 10
0.0
 20
0.0
 30
0.0
  9
$PUCSORGFRONT
 10
0.0
 20
0.0
 30
0.0
  9
$PUCSORGBACK
 10
0.0
 20
0.0
 30
0.0
  9
$USERI1
 70
     0
  9
$USERI2
 70
     0
  9
$USERI3
 70
     0
  9
$USERI4
 70
     0
  9
$USERI5
 70
     0
  9
$USERR1
 40
0.0
  9
$USERR2
 40
0.0
  9
$USERR3
 40
0.0
  9
$USERR4
 40
0.0
  9
$USERR5
 40
0.0
  9
$WORLDVIEW
 70
     1
  9
$SHADEDGE
 70
     3
  9
$SHADEDIF
 70
    70
  9
$TILEMODE
 70
     1
  9
$MAXACTVP
 70
    64
  9
$PINSBASE
 10
0.0
 20
0.0
 30
0.0
  9
$PLIMCHECK
 70
     0
  9
$PEXTMIN
 10
0.0
 20
0.0
 30
0.0
  9
$PEXTMAX
 10
210.0
 20
297.0
 30
0.0
  9
$PLIMMIN
 10
0.0
 20
0.0
  9
$PLIMMAX
 10
210.0
 20
297.0
  9
$UNITMODE
 70
     0
  9
$VISRETAIN
 70
     1
  9
$PLINEGEN
 70
     0
  9
$PSLTSCALE
 70
     1
  9
$TREEDEPTH
 70
  3020
  9
$CMLSTYLE
  2
Standard
  9
$CMLJUST
 70
     0
  9
$CMLSCALE
 40
1.0
  9
$PROXYGRAPHICS
 70
     1
  9
$MEASUREMENT
 70
     1
  9
$CELWEIGHT
370
    -1
  9
$ENDCAPS
280
     0
  9
$JOINSTYLE
280
     0
  9
$LWDISPLAY
290
     0
  9
$INSUNITS
 70
     1
  9
$HYPERLINKBASE
  1

  9
$STYLESHEET
  1

  9
$XEDIT
290
     1
  9
$CEPSNTYPE
380
     0
  9
$PSTYLEMODE
290
     1
  9
$FINGERPRINTGUID
  2
{865167C8-5A08-41E6-86BD-C3100629D376}
  9
$VERSIONGUID
  2
{FAEB1C32-E019-11D5-929B-00C0DF256EC4}
  9
$EXTNAMES
290
     1
  9
$PSVPSCALE
 40
0.0
  9
$OLESTARTUP
290
     0
  0
ENDSEC
  0
SECTION
  2
CLASSES
  0
CLASS
  1
ACDBDICTIONARYWDFLT
  2
AcDbDictionaryWithDefault
  3
ObjectDBX Classes
 90
        0
280
     0
281
     0
  0
CLASS
  1
ACDBPLACEHOLDER
  2
AcDbPlaceHolder
  3
ObjectDBX Classes
 90
        0
280
     0
281
     0
  0
CLASS
  1
LAYOUT
  2
AcDbLayout
  3
ObjectDBX Classes
 90
        0
280
     0
281
     0
  0
ENDSEC
  0
SECTION
  2
TABLES
  0
TABLE
  2
VPORT
  5
8
330
0
100
AcDbSymbolTable
 70
     1
  0
VPORT
  5
29
330
8
100
AcDbSymbolTableRecord
100
AcDbViewportTableRecord
  2
*Active
 70
     0
 10
0.0
 20
0.0
 11
1.0
 21
1.0
 12
10.4299065421
 22
4.5
 13
0.0
 23
0.0
 14
0.5
 24
0.5
 15
0.5
 25
0.5
 16
0.0
 26
0.0
 36
1.0
 17
0.0
 27
0.0
 37
0.0
 40
9.0
 41
1.9729729729
 42
50.0
 43
0.0
 44
0.0
 50
0.0
 51
0.0
 71
     0
 72
   100
 73
     1
 74
     3
 75
     0
 76
     0
 77
     0
 78
     0
281
     0
 65
     1
110
0.0
120
0.0
130
0.0
111
1.0
121
0.0
131
0.0
112
0.0
122
1.0
132
0.0
 79
     0
146
0.0
  0
ENDTAB
  0
TABLE
  2
LTYPE
  5
5
330
0
100
AcDbSymbolTable
 70
     3
  0
LTYPE
  5
14
330
5
100
AcDbSymbolTableRecord
100
AcDbLinetypeTableRecord
  2
ByBlock
 70
     0
  3

 72
    65
 73
     0
 40
0.0
  0
LTYPE
  5
15
330
5
100
AcDbSymbolTableRecord
100
AcDbLinetypeTableRecord
  2
ByLayer
 70
     0
  3

 72
    65
 73
     0
 40
0.0
  0
LTYPE
  5
16
330
5
100
AcDbSymbolTableRecord
100
AcDbLinetypeTableRecord
  2
Continuous
 70
     0
  3
Solid line
 72
    65
 73
     0
 40
0.0
  0
LTYPE
  5
2B
330
5
100
AcDbSymbolTableRecord
100
AcDbLinetypeTableRecord
  2
CENTER2
 70
     0
  3
___ _ ___ _ ___ _ ___ _ ___ _ ___ _ ___ _ ___ _
 72
    65
 73
     4
 40
1.125
 49
0.75
 74
     4
 75
     0
340
0
 46
0.0
 50
0.0
 44
0.0
 45
0.0
 49
-0.125
 74
     4
 75
     0
340
0
 46
0.0
 50
0.0
 44
0.0
 45
0.0
 49
0.125
 74
     4
 75
     0
340
0
 46
0.0
 50
0.0
 44
0.0
 45
0.0
 49
-0.125
 74
     4
 75
     0
340
0
 46
0.0
 50
0.0
 44
0.0
 45
0.0
  0
LTYPE
  5
8F
330
5
100
AcDbSymbolTableRecord
100
AcDbLinetypeTableRecord
  2
HIDDEN2
 70
     0
  3
_ _ _ _ _ _ _ _ _ _ _ _ _ _ _ _ _ _ _ _ _ _ _ _
 72
    65
 73
     2
 40
0.1875
 49
0.125
 74
     4
 75
     0
340
0
 46
0.0
 50
0.0
 44
0.0
 45
0.0
 49
-0.0625
 74
     4
 75
     0
340
0
 46
0.0
 50
0.0
 44
0.0
 45
0.0
  0
ENDTAB
  0
TABLE
  2
LAYER
  5
2
330
0
100
AcDbSymbolTable
 70
     8
  0
LAYER
  5
10
330
2
100
AcDbSymbolTableRecord
100
AcDbLayerTableRecord
  2
0
 70
     0
 62
     7
  6
Continuous
370
    -3
390
F
  0
LAYER
  5
2A
330
2
100
AcDbSymbolTableRecord
100
AcDbLayerTableRecord
  2
Layer1
 70
     0
 62
     7
  6
Continuous
370
    -3
390
F
  0
LAYER
  5
2D
330
2
100
AcDbSymbolTableRecord
100
AcDbLayerTableRecord
  2
Layer2
 70
     0
 62
     7
  6
Continuous
370
    -3
390
F
  0
LAYER
  5
88
330
2
100
AcDbSymbolTableRecord
100
AcDbLayerTableRecord
  2
Layer55
 70
     0
 62
     7
  6
Continuous
370
    -3
390
F
  0
LAYER
  5
9C
330
2
100
AcDbSymbolTableRecord
100
AcDbLayerTableRecord
  2
Auto_-_ausblenden
 70
     0
 62
     7
  6
Continuous
370
    -3
390
F
  0
LAYER
  5
B8
330
2
100
AcDbSymbolTableRecord
100
AcDbLayerTableRecord
  2
Layer3
 70
     0
 62
     7
  6
Continuous
370
    -3
390
F
  0
LAYER
  5
E1
330
2
100
AcDbSymbolTableRecord
100
AcDbLayerTableRecord
  2
MDS_Layer_90
 70
     0
 62
     7
  6
Continuous
370
    -3
390
F
  0
LAYER
  5
E4
330
2
100
AcDbSymbolTableRecord
100
AcDbLayerTableRecord
  2
MDS_Layer_94
 70
     0
 62
     7
  6
Continuous
370
    -3
390
F
  0
ENDTAB
  0
TABLE
  2
STYLE
  5
3
330
0
100
AcDbSymbolTable
 70
     4
  0
STYLE
  5
11
330
3
100
AcDbSymbolTableRecord
100
AcDbTextStyleTableRecord
  2
Standard
 70
     0
 40
0.0
 41
1.0
 50
0.0
 71
     0
 42
0.2
  3
txt
  4

  0
STYLE
  5
86
330
3
100
AcDbSymbolTableRecord
100
AcDbTextStyleTableRecord
  2
SEACAD_arial_ttfB
 70
     0
 40
0.2
 41
1.0
 50
0.0
 71
     0
 42
0.2
  3
arial.ttf
  4

  0
STYLE
  5
C3
330
3
100
AcDbSymbolTableRecord
100
AcDbTextStyleTableRecord
  2
SEACAD_arial_ttf
 70
     0
 40
0.2
 41
1.0
 50
0.0
 71
     0
 42
0.2
  3
arial.ttf
  4

  0
STYLE
  5
12D
330
3
100
AcDbSymbolTableRecord
100
AcDbTextStyleTableRecord
  2
SEACAD_seiso_ttf
 70
     0
 40
0.2
 41
1.0
 50
0.0
 71
     0
 42
0.2
  3
seiso.ttf
  4

  0
ENDTAB
  0
TABLE
  2
VIEW
  5
6
330
0
100
AcDbSymbolTable
 70
     0
  0
ENDTAB
  0
TABLE
  2
UCS
  5
7
330
0
100
AcDbSymbolTable
 70
     0
  0
ENDTAB
  0
TABLE
  2
APPID
  5
9
330
0
100
AcDbSymbolTable
 70
     1
  0
APPID
  5
12
330
9
100
AcDbSymbolTableRecord
100
AcDbRegAppTableRecord
  2
ACAD
 70
     0
  0
ENDTAB
  0
TABLE
  2
DIMSTYLE
  5
A
330
0
100
AcDbSymbolTable
 70
     1
100
AcDbDimStyleTable
  0
DIMSTYLE
105
27
330
A
100
AcDbSymbolTableRecord
100
AcDbDimStyleTableRecord
  2
Standard
 70
     0
340
11
  0
ENDTAB
  0
TABLE
  2
BLOCK_RECORD
  5
1
330
0
100
AcDbSymbolTable
 70
     4
  0
BLOCK_RECORD
  5
1F
330
1
100
AcDbSymbolTableRecord
100
AcDbBlockTableRecord
  2
*Model_Space
340
22
  0
BLOCK_RECORD
  5
1B
330
1
100
AcDbSymbolTableRecord
100
AcDbBlockTableRecord
  2
*Paper_Space
340
1E
  0
BLOCK_RECORD
  5
B9
330
1
100
AcDbSymbolTableRecord
100
AcDbBlockTableRecord
  2
GDimGGroup
340
0
102
{BLKREFS
331
BA
102
}
  0
BLOCK_RECORD
  5
C7
330
1
100
AcDbSymbolTableRecord
100
AcDbBlockTableRecord
  2
GDimGGroup1
340
0
102
{BLKREFS
331
C8
102
}
  0
BLOCK_RECORD
  5
D4
330
1
100
AcDbSymbolTableRecord
100
AcDbBlockTableRecord
  2
GDimGGroup2
340
0
102
{BLKREFS
331
D5
102
}
  0
ENDTAB
  0
ENDSEC
  0
SECTION
  2
BLOCKS
  0
BLOCK
  5
20
330
1F
100
AcDbEntity
  8
0
100
AcDbBlockBegin
  2
*Model_Space
 70
     0
 71
     0
 10
0.0
 20
0.0
 30
0.0
  3
*Model_Space
  1

  0
ENDBLK
  5
21
330
1F
100
AcDbEntity
  8
0
100
AcDbBlockEnd
  0
BLOCK
  5
1C
330
1B
100
AcDbEntity
 67
     1
  8
0
100
AcDbBlockBegin
  2
*Paper_Space
 70
     0
 71
     0
 10
0.0
 20
0.0
 30
0.0
  3
*Paper_Space
  1

  0
ENDBLK
  5
1D
330
1B
100
AcDbEntity
 67
     1
  8
0
100
AcDbBlockEnd
  0
BLOCK
  5
C5
330
B9
100
AcDbEntity
  8
0
100
AcDbBlockBegin
  2
GDimGGroup
 70
     0
 71
     0
 10
0.0
 20
0.0
 30
0.0
  3
GDimGGroup
  1

  0
HATCH
  5
BB
330
B9
100
AcDbEntity
  8
Layer3
  6
Continuous
 62
   136
 48
25.4
100
AcDbHatch
 10
0.0
 20
0.0
 30
0.0
210
0.0
220
0.0
230
1.0
  2
SOLID
 70
     1
 71
     0
 91
        1
 92
        1
 93
        3
 72
     1
 10
24.70920214773926
 20
103.3546277614959
 11
25.70920215643161
 21
97.35462770934186
 72
     1
 10
25.70920215643161
 20
97.35462770934186
 11
26.70920216512395
 21
103.3546277614959
 72
     1
 10
26.70920216512395
 20
103.3546277614959
 11
24.70920214773926
 21
103.3546277614959
 97
        0
 75
     0
 76
     1
 98
        0
  0
LWPOLYLINE
  5
BC
330
B9
100
AcDbEntity
  8
Layer3
  6
Continuous
 62
   136
 48
25.4
370
    20
100
AcDbPolyline
 90
        4
 70
     1
 43
0.00025
 10
24.7092021477
 20
103.3546277615
 10
25.7092021564
 20
97.3546277093
 10
26.7092021651
 20
103.3546277615
 10
24.7092021477
 20
103.3546277615
  0
HATCH
  5
BD
330
B9
100
AcDbEntity
  8
Layer3
  6
Continuous
 62
   136
 48
25.4
100
AcDbHatch
 10
0.0
 20
0.0
 30
0.0
210
0.0
220
0.0
230
1.0
  2
SOLID
 70
     1
 71
     0
 91
        1
 92
        1
 93
        3
 72
     1
 10
24.70920214773926
 20
146.3546276571878
 11
26.70920216512395
 21
146.3546276571878
 72
     1
 10
26.70920216512395
 20
146.3546276571878
 11
25.70920215643161
 21
152.3546277093418
 72
     1
 10
25.70920215643161
 20
152.3546277093418
 11
24.70920214773926
 21
146.3546276571878
 97
        0
 75
     0
 76
     1
 98
        0
  0
LWPOLYLINE
  5
BE
330
B9
100
AcDbEntity
  8
Layer3
  6
Continuous
 62
   136
 48
25.4
370
    20
100
AcDbPolyline
 90
        4
 70
     1
 43
0.00025
 10
24.7092021477
 20
146.3546276572
 10
25.7092021564
 20
152.3546277093
 10
26.7092021651
 20
146.3546276572
 10
24.7092021477
 20
146.3546276572
  0
LINE
  5
BF
330
B9
100
AcDbEntity
  8
Layer3
  6
Continuous
 62
     7
 48
25.4
100
AcDbLine
 10
46.6971822242
 20
97.3546277093
 30
0.0
 11
22.7092021304
 21
97.3546277093
 31
0.0
  0
LINE
  5
C0
330
B9
100
AcDbEntity
  8
Layer3
  6
Continuous
 62
     7
 48
25.4
100
AcDbLine
 10
46.6971822242
 20
152.3546277093
 30
0.0
 11
22.7092021304
 21
152.3546277093
 31
0.0
  0
LINE
  5
C1
330
B9
100
AcDbEntity
  8
Layer3
  6
Continuous
 62
     7
 48
25.4
100
AcDbLine
 10
25.7092021564
 20
97.3546277093
 30
0.0
 11
25.7092021564
 21
119.7546269106
 31
0.0
  0
LINE
  5
C2
330
B9
100
AcDbEntity
  8
Layer3
  6
Continuous
 62
     7
 48
25.4
100
AcDbLine
 10
25.7092021564
 20
129.9546266454
 30
0.0
 11
25.7092021564
 21
152.3546277093
 31
0.0
  0
TEXT
  5
C4
330
B9
100
AcDbEntity
  8
Layer3
  6
Continuous
 62
     7
 48
25.4
100
AcDbText
 10
17.1526804173
 20
121.8546275603
 30
0.0
 40
6.0
  1
O55
  7
SEACAD_arial_ttf
 11
17.1526804173
 21
127.8546275603
 31
0.0
100
AcDbText
 73
     3
  0
ENDBLK
  5
C6
330
B9
100
AcDbEntity
  8
0
100
AcDbBlockEnd
  0
BLOCK
  5
D2
330
C7
100
AcDbEntity
  8
0
100
AcDbBlockBegin
  2
GDimGGroup1
 70
     0
 71
     0
 10
0.0
 20
0.0
 30
0.0
  3
GDimGGroup1
  1

  0
HATCH
  5
C9
330
C7
100
AcDbEntity
  8
Layer3
  6
Continuous
 62
   136
 48
25.4
100
AcDbHatch
 10
0.0
 20
0.0
 30
0.0
210
0.0
220
0.0
230
1.0
  2
SOLID
 70
     1
 71
     0
 91
        1
 92
        1
 93
        3
 72
     1
 10
24.71284631069763
 20
241.854627761496
 11
25.71284631938997
 21
235.8546277093419
 72
     1
 10
25.71284631938997
 20
235.8546277093419
 11
26.71284632808231
 21
241.854627761496
 72
     1
 10
26.71284632808231
 20
241.854627761496
 11
24.71284631069763
 21
241.854627761496
 97
        0
 75
     0
 76
     1
 98
        0
  0
LWPOLYLINE
  5
CA
330
C7
100
AcDbEntity
  8
Layer3
  6
Continuous
 62
   136
 48
25.4
370
    20
100
AcDbPolyline
 90
        4
 70
     1
 43
0.00025
 10
24.7128463107
 20
241.8546277615
 10
25.7128463194
 20
235.8546277093
 10
26.7128463281
 20
241.8546277615
 10
24.7128463107
 20
241.8546277615
  0
HATCH
  5
CB
330
C7
100
AcDbEntity
  8
Layer3
  6
Continuous
 62
   136
 48
25.4
100
AcDbHatch
 10
0.0
 20
0.0
 30
0.0
210
0.0
220
0.0
230
1.0
  2
SOLID
 70
     1
 71
     0
 91
        1
 92
        1
 93
        3
 72
     1
 10
24.71284631069763
 20
206.8546276571879
 11
26.71284632808231
 21
206.8546276571879
 72
     1
 10
26.71284632808231
 20
206.8546276571879
 11
25.71284631938997
 21
212.8546277093419
 72
     1
 10
25.71284631938997
 20
212.8546277093419
 11
24.71284631069763
 21
206.8546276571879
 97
        0
 75
     0
 76
     1
 98
        0
  0
LWPOLYLINE
  5
CC
330
C7
100
AcDbEntity
  8
Layer3
  6
Continuous
 62
   136
 48
25.4
370
    20
100
AcDbPolyline
 90
        4
 70
     1
 43
0.00025
 10
24.7128463107
 20
206.8546276572
 10
25.7128463194
 20
212.8546277093
 10
26.7128463281
 20
206.8546276572
 10
24.7128463107
 20
206.8546276572
  0
LINE
  5
CD
330
C7
100
AcDbEntity
  8
Layer3
  6
Continuous
 62
     7
 48
25.4
100
AcDbLine
 10
37.1631984666
 20
235.8546277093
 30
0.0
 11
22.7128462933
 21
235.8546277093
 31
0.0
  0
LINE
  5
CE
330
C7
100
AcDbEntity
  8
Layer3
  6
Continuous
 62
     7
 48
25.4
100
AcDbLine
 10
37.1631984666
 20
212.8546277093
 30
0.0
 11
22.7128462933
 21
212.8546277093
 31
0.0
  0
LINE
  5
CF
330
C7
100
AcDbEntity
  8
Layer3
  6
Continuous
 62
     7
 48
25.4
100
AcDbLine
 10
25.7128463194
 20
247.8546278137
 30
0.0
 11
25.7128463194
 21
235.8546277093
 31
0.0
  0
LINE
  5
D0
330
C7
100
AcDbEntity
  8
Layer3
  6
Continuous
 62
     7
 48
25.4
100
AcDbLine
 10
25.7128463194
 20
212.8546277093
 30
0.0
 11
25.7128463194
 21
200.854627605
 31
0.0
  0
TEXT
  5
D1
330
C7
100
AcDbEntity
  8
Layer3
  6
Continuous
 62
     7
 48
25.4
100
AcDbText
 10
21.0171941455
 20
221.354627687
 30
0.0
 40
6.0
  1
23
  7
SEACAD_arial_ttf
 11
21.0171941455
 21
227.354627687
 31
0.0
100
AcDbText
 73
     3
  0
ENDBLK
  5
D3
330
C7
100
AcDbEntity
  8
0
100
AcDbBlockEnd
  0
BLOCK
  5
DF
330
D4
100
AcDbEntity
  8
0
100
AcDbBlockBegin
  2
GDimGGroup2
 70
     0
 71
     0
 10
0.0
 20
0.0
 30
0.0
  3
GDimGGroup2
  1

  0
HATCH
  5
D6
330
D4
100
AcDbEntity
  8
Layer3
  6
Continuous
 62
   136
 48
25.4
100
AcDbHatch
 10
0.0
 20
0.0
 30
0.0
210
0.0
220
0.0
230
1.0
  2
SOLID
 70
     1
 71
     0
 91
        1
 92
        1
 93
        3
 72
     1
 10
52.19718227631562
 20
164.8587225601104
 11
46.19718222416155
 21
163.8587225514181
 72
     1
 10
46.19718222416155
 20
163.8587225514181
 11
52.19718227631562
 21
162.8587225427257
 72
     1
 10
52.19718227631562
 20
162.8587225427257
 11
52.19718227631562
 21
164.8587225601104
 97
        0
 75
     0
 76
     1
 98
        0
  0
LWPOLYLINE
  5
D7
330
D4
100
AcDbEntity
  8
Layer3
  6
Continuous
 62
   136
 48
25.4
370
    20
100
AcDbPolyline
 90
        4
 70
     1
 43
0.00025
 10
52.1971822763
 20
164.8587225601
 10
46.1971822242
 20
163.8587225514
 10
52.1971822763
 20
162.8587225427
 10
52.1971822763
 20
164.8587225601
  0
HATCH
  5
D8
330
D4
100
AcDbEntity
  8
Layer3
  6
Continuous
 62
   136
 48
25.4
100
AcDbHatch
 10
0.0
 20
0.0
 30
0.0
210
0.0
220
0.0
230
1.0
  2
SOLID
 70
     1
 71
     0
 91
        1
 92
        1
 93
        3
 72
     1
 10
107.6971821720075
 20
164.8587225601104
 11
107.6971821720075
 21
162.8587225427257
 72
     1
 10
107.6971821720075
 20
162.8587225427257
 11
113.6971822241616
 21
163.8587225514181
 72
     1
 10
113.6971822241616
 20
163.8587225514181
 11
107.6971821720075
 21
164.8587225601104
 97
        0
 75
     0
 76
     1
 98
        0
  0
LWPOLYLINE
  5
D9
330
D4
100
AcDbEntity
  8
Layer3
  6
Continuous
 62
   136
 48
25.4
370
    20
100
AcDbPolyline
 90
        4
 70
     1
 43
0.00025
 10
107.697182172
 20
164.8587225601
 10
113.6971822242
 20
163.8587225514
 10
107.697182172
 20
162.8587225427
 10
107.697182172
 20
164.8587225601
  0
LINE
  5
DA
330
D4
100
AcDbEntity
  8
Layer3
  6
Continuous
 62
     7
 48
25.4
100
AcDbLine
 10
46.1971822242
 20
145.6546277093
 30
0.0
 11
46.1971822242
 21
166.8587225775
 31
0.0
  0
LINE
  5
DB
330
D4
100
AcDbEntity
  8
Layer3
  6
Continuous
 62
     7
 48
25.4
100
AcDbLine
 10
113.6971822242
 20
138.3658267679
 30
0.0
 11
113.6971822242
 21
166.8587225775
 31
0.0
  0
LINE
  5
DC
330
D4
100
AcDbEntity
  8
Layer3
  6
Continuous
 62
     7
 48
25.4
100
AcDbLine
 10
46.1971822242
 20
163.8587225514
 30
0.0
 11
73.1515313546
 21
163.8587225514
 31
0.0
  0
LINE
  5
DD
330
D4
100
AcDbEntity
  8
Layer3
  6
Continuous
 62
     7
 48
25.4
100
AcDbLine
 10
86.7428349564
 20
163.8587225514
 30
0.0
 11
113.6971822242
 21
163.8587225514
 31
0.0
  0
TEXT
  5
DE
330
D4
100
AcDbEntity
  8
Layer3
  6
Continuous
 62
     7
 48
25.4
100
AcDbText
 10
75.2515313914
 20
160.8587225514
 30
0.0
 40
6.0
  1
68
  7
SEACAD_arial_ttf
 11
75.2515313914
 21
166.8587225514
 31
0.0
100
AcDbText
 73
     3
  0
ENDBLK
  5
E0
330
D4
100
AcDbEntity
  8
0
100
AcDbBlockEnd
  0
ENDSEC
  0
SECTION
  2
ENTITIES
  0
LINE
  5
2C
330
1F
100
AcDbEntity
  8
Layer1
  6
CENTER2
 62
     7
 48
25.4
100
AcDbLine
 10
99.6971822242
 20
104.1046277093
 30
0.0
 11
99.6971822242
 21
145.6046277093
 31
0.0
  0
LINE
  5
2E
330
1F
100
AcDbEntity
  8
Layer2
  6
CENTER2
 62
     7
 48
25.4
100
AcDbLine
 10
37.1631984666
 20
235.8546277093
 30
0.0
 11
61.0530229084
 21
235.8546277093
 31
0.0
  0
LINE
  5
2F
330
1F
100
AcDbEntity
  8
Layer2
  6
CENTER2
 62
     7
 48
25.4
100
AcDbLine
 10
37.1631984666
 20
212.8546277093
 30
0.0
 11
61.1145946209
 21
212.8546277093
 31
0.0
  0
LINE
  5
30
330
1F
100
AcDbEntity
  8
Layer1
  6
Continuous
 62
     7
 48
25.4
100
AcDbLine
 10
57.1971822242
 20
142.6046277093
 30
0.0
 11
86.540320192
 21
142.6046277093
 31
0.0
  0
LINE
  5
31
330
1F
100
AcDbEntity
  8
Layer1
  6
Continuous
 62
     7
 48
25.4
100
AcDbLine
 10
53.1971822242
 20
147.3546277093
 30
0.0
 11
56.1971822242
 21
147.3546277093
 31
0.0
  0
LINE
  5
32
330
1F
100
AcDbEntity
  8
Layer1
  6
Continuous
 62
     7
 48
25.4
100
AcDbLine
 10
46.6971822242
 20
152.3546277093
 30
0.0
 11
52.1971822242
 21
152.3546277093
 31
0.0
  0
ARC
  5
33
330
1F
100
AcDbEntity
  8
Layer1
  6
Continuous
 62
     7
 48
25.4
100
AcDbCircle
 10
52.1971822242
 20
97.8546277093
 30
0.0
 40
0.5
100
AcDbArc
 50
270.0
 51
360.0
  0
ARC
  5
34
330
1F
100
AcDbEntity
  8
Layer1
  6
Continuous
 62
     7
 48
25.4
100
AcDbCircle
 10
57.1971822242
 20
106.6046277093
 30
0.0
 40
0.5
100
AcDbArc
 50
90.0
 51
180.0
  0
ARC
  5
35
330
1F
100
AcDbEntity
  8
Layer1
  6
Continuous
 62
     7
 48
25.4
100
AcDbCircle
 10
56.1971822242
 20
102.8546277093
 30
0.0
 40
0.5
100
AcDbArc
 50
270.0
 51
360.0
  0
ARC
  5
36
330
1F
100
AcDbEntity
  8
Layer1
  6
Continuous
 62
     7
 48
25.4
100
AcDbCircle
 10
53.1971822242
 20
101.8546277093
 30
0.0
 40
0.5
100
AcDbArc
 50
90.0
 51
180.0
  0
LINE
  5
37
330
1F
100
AcDbEntity
  8
Layer1
  6
Continuous
 62
     7
 48
25.4
100
AcDbLine
 10
88.4104579002
 20
107.1046277093
 30
0.0
 11
57.1971822242
 21
107.1046277093
 31
0.0
  0
LINE
  5
38
330
1F
100
AcDbEntity
  8
Layer1
  6
Continuous
 62
     7
 48
25.4
100
AcDbLine
 10
46.6971822242
 20
97.3546277093
 30
0.0
 11
46.6971822242
 21
152.3546277093
 31
0.0
  0
LINE
  5
39
330
1F
100
AcDbEntity
  8
Layer1
  6
Continuous
 62
     7
 48
25.4
100
AcDbLine
 10
113.6971822242
 20
111.3434286508
 30
0.0
 11
113.6971822242
 21
138.3658267679
 31
0.0
  0
LINE
  5
3A
330
1F
100
AcDbEntity
  8
Layer1
  6
Continuous
 62
     7
 48
25.4
100
AcDbLine
 10
112.6971822242
 20
140.2121177386
 30
0.0
 11
109.2246179912
 21
140.2121177386
 31
0.0
  0
LINE
  5
3B
330
1F
100
AcDbEntity
  8
Layer1
  6
Continuous
 62
     7
 48
25.4
100
AcDbLine
 10
52.6971822242
 20
151.8546277093
 30
0.0
 11
52.6971822242
 21
97.8546277093
 31
0.0
  0
LINE
  5
3C
330
1F
100
AcDbEntity
  8
Layer1
  6
Continuous
 62
     7
 48
25.4
100
AcDbLine
 10
56.6971822242
 20
146.8546277093
 30
0.0
 11
56.6971822242
 21
102.8546277093
 31
0.0
  0
LINE
  5
3D
330
1F
100
AcDbEntity
  8
Layer1
  6
Continuous
 62
     7
 48
25.4
100
AcDbLine
 10
106.8658250124
 20
109.49713768
 30
0.0
 11
112.6971822242
 21
109.49713768
 31
0.0
  0
SPLINE
  5
3E
330
1F
100
AcDbEntity
  8
Layer1
  6
Continuous
 62
     7
 48
25.4
100
AcDbSpline
210
0.0
220
0.0
230
1.0
 70
     8
 71
     3
 72
    14
 73
    10
 74
     0
 42
0.0000000001
 43
0.0000000001
 40
0.0
 40
0.0
 40
0.0
 40
0.0
 40
0.0055814765220289
 40
0.1709410118210321
 40
0.3515838431956702
 40
0.5198816705668847
 40
0.6844127049297705
 40
0.8383578506160805
 40
1.0
 40
1.0
 40
1.0
 40
1.0
 10
86.53163547079967
 20
142.6066011260627
 30
0.0
 10
86.53157216467611
 20
142.6066279086358
 30
0.0
 10
86.54345792971724
 20
142.5974626113004
 30
0.0
 10
87.44599792645127
 20
141.942584633979
 30
0.0
 10
90.66972012349922
 20
139.8177456456872
 30
0.0
 10
95.17028991427112
 20
137.5791136135766
 30
0.0
 10
100.4712362122022
 20
136.6968957336551
 30
0.0
 10
105.6074540335322
 20
138.1871823103933
 30
0.0
 10
107.9691965492415
 20
139.4733636111354
 30
0.0
 10
109.2246179911548
 20
140.2121177386402
 30
0.0
  0
SPLINE
  5
3F
330
1F
100
AcDbEntity
  8
Layer1
  6
Continuous
 62
     7
 48
25.4
100
AcDbSpline
210
0.0
220
0.0
230
1.0
 70
     8
 71
     3
 72
    11
 73
     7
 74
     0
 42
0.0000000001
 43
0.0000000001
 40
0.0
 40
0.0
 40
0.0
 40
0.0
 40
0.2892987958884128
 40
0.5615411173968752
 40
0.8527775006030486
 40
1.0
 40
1.0
 40
1.0
 40
1.0
 10
106.8658250123746
 20
109.4971376800435
 30
0.0
 10
104.8437339735712
 20
110.4597454128117
 30
0.0
 10
100.3248887447988
 20
112.0961783666378
 30
0.0
 10
92.75061259470571
 20
110.0142810154382
 30
0.0
 10
89.03564380800833
 20
107.5092105998263
 30
0.0
 10
88.45484307946347
 20
107.1143334888299
 30
0.0
 10
88.45389623458436
 20
107.1132195224687
 30
0.0
  0
LINE
  5
40
330
1F
100
AcDbEntity
  8
Layer1
  6
Continuous
 62
     7
 48
25.4
100
AcDbLine
 10
56.1971822242
 20
102.3546277093
 30
0.0
 11
53.1971822242
 21
102.3546277093
 31
0.0
  0
LINE
  5
41
330
1F
100
AcDbEntity
  8
Layer1
  6
Continuous
 62
     7
 48
25.4
100
AcDbLine
 10
52.1971822242
 20
97.3546277093
 30
0.0
 11
46.6971822242
 21
97.3546277093
 31
0.0
  0
SPLINE
  5
42
330
1F
100
AcDbEntity
  8
Layer1
  6
Continuous
 62
     7
 48
25.4
100
AcDbSpline
210
0.0
220
0.0
230
1.0
 70
     8
 71
     3
 72
     9
 73
     5
 74
     0
 42
0.0000000001
 43
0.0000000001
 40
0.0
 40
0.0
 40
0.0
 40
0.0
 40
0.5857219622669144
 40
1.0
 40
1.0
 40
1.0
 40
1.0
 10
113.6971822241616
 20
111.3434286507831
 30
0.0
 10
113.6969942486507
 20
110.8648066875976
 30
0.0
 10
113.6086489314853
 20
110.1848278936112
 30
0.0
 10
113.0584100192467
 20
109.5283424086508
 30
0.0
 10
112.6971822241616
 20
109.4971376800435
 30
0.0
  0
SPLINE
  5
43
330
1F
100
AcDbEntity
  8
Layer1
  6
Continuous
 62
     7
 48
25.4
100
AcDbSpline
210
0.0
220
0.0
230
1.0
 70
     8
 71
     3
 72
     9
 73
     5
 74
     0
 42
0.0000000001
 43
0.0000000001
 40
0.0
 40
0.0
 40
0.0
 40
0.0
 40
0.4142780377331065
 40
1.0
 40
1.0
 40
1.0
 40
1.0
 10
112.6971822241616
 20
140.2121177386402
 30
0.0
 10
113.0584100192467
 20
140.1809130100328
 30
0.0
 10
113.6086489314847
 20
139.5244275250731
 30
0.0
 10
113.6969942486518
 20
138.8444487310853
 30
0.0
 10
113.6971822241616
 20
138.3658267679006
 30
0.0
  0
ARC
  5
44
330
1F
100
AcDbEntity
  8
Layer1
  6
Continuous
 62
     7
 48
25.4
100
AcDbCircle
 10
52.1971822242
 20
151.8546277093
 30
0.0
 40
0.5
100
AcDbArc
 50
0.0
 51
90.0
  0
ARC
  5
45
330
1F
100
AcDbEntity
  8
Layer1
  6
Continuous
 62
     7
 48
25.4
100
AcDbCircle
 10
57.1971822242
 20
143.1046277093
 30
0.0
 40
0.5
100
AcDbArc
 50
180.0
 51
270.0
  0
ARC
  5
46
330
1F
100
AcDbEntity
  8
Layer1
  6
Continuous
 62
     7
 48
25.4
100
AcDbCircle
 10
56.1971822242
 20
146.8546277093
 30
0.0
 40
0.5
100
AcDbArc
 50
0.0
 51
90.0
  0
ARC
  5
47
330
1F
100
AcDbEntity
  8
Layer1
  6
Continuous
 62
     7
 48
25.4
100
AcDbCircle
 10
53.1971822242
 20
147.8546277093
 30
0.0
 40
0.5
100
AcDbArc
 50
180.0
 51
270.0
  0
LINE
  5
48
330
1F
100
AcDbEntity
  8
Layer2
  6
Continuous
 62
     7
 48
25.4
100
AcDbLine
 10
57.1971822242
 20
207.1046277093
 30
0.0
 11
112.6971822242
 21
207.1046277093
 31
0.0
  0
LINE
  5
49
330
1F
100
AcDbEntity
  8
Layer2
  6
Continuous
 62
     7
 48
25.4
100
AcDbLine
 10
53.1971822242
 20
202.3546277093
 30
0.0
 11
56.1971822242
 21
202.3546277093
 31
0.0
  0
LINE
  5
4A
330
1F
100
AcDbEntity
  8
Layer2
  6
Continuous
 62
     7
 48
25.4
100
AcDbLine
 10
46.6971822242
 20
197.3546277093
 30
0.0
 11
52.1971822242
 21
197.3546277093
 31
0.0
  0
ARC
  5
4B
330
1F
100
AcDbEntity
  8
Layer2
  6
Continuous
 62
     7
 48
25.4
100
AcDbCircle
 10
112.6971822242
 20
208.1046277093
 30
0.0
 40
1.0
100
AcDbArc
 50
270.0
 51
360.0
  0
ARC
  5
4C
330
1F
100
AcDbEntity
  8
Layer2
  6
Continuous
 62
     7
 48
25.4
100
AcDbCircle
 10
112.6971822242
 20
241.6046277093
 30
0.0
 40
1.0
100
AcDbArc
 50
0.0
 51
90.0
  0
ARC
  5
4D
330
1F
100
AcDbEntity
  8
Layer2
  6
Continuous
 62
     7
 48
25.4
100
AcDbCircle
 10
52.1971822242
 20
251.8546277093
 30
0.0
 40
0.5
100
AcDbArc
 50
0.0
 51
90.0
  0
ARC
  5
4E
330
1F
100
AcDbEntity
  8
Layer2
  6
Continuous
 62
     7
 48
25.4
100
AcDbCircle
 10
57.1971822242
 20
243.1046277093
 30
0.0
 40
0.5
100
AcDbArc
 50
180.0
 51
270.0
  0
ARC
  5
4F
330
1F
100
AcDbEntity
  8
Layer2
  6
Continuous
 62
     7
 48
25.4
100
AcDbCircle
 10
56.1971822242
 20
246.8546277093
 30
0.0
 40
0.5
100
AcDbArc
 50
0.0
 51
90.0
  0
ARC
  5
50
330
1F
100
AcDbEntity
  8
Layer2
  6
Continuous
 62
     7
 48
25.4
100
AcDbCircle
 10
53.1971822242
 20
247.8546277093
 30
0.0
 40
0.5
100
AcDbArc
 50
180.0
 51
270.0
  0
LINE
  5
51
330
1F
100
AcDbEntity
  8
Layer2
  6
Continuous
 62
     7
 48
25.4
100
AcDbLine
 10
112.6971822242
 20
242.6046277093
 30
0.0
 11
57.1971822242
 21
242.6046277093
 31
0.0
  0
LINE
  5
52
330
1F
100
AcDbEntity
  8
Layer2
  6
Continuous
 62
     7
 48
25.4
100
AcDbLine
 10
109.2246179912
 20
215.9546277093
 30
0.0
 11
112.6971822242
 21
215.9546277093
 31
0.0
  0
LINE
  5
53
330
1F
100
AcDbEntity
  8
Layer2
  6
Continuous
 62
     7
 48
25.4
100
AcDbLine
 10
46.6971822242
 20
197.3546277093
 30
0.0
 11
46.6971822242
 21
252.3546277093
 31
0.0
  0
LINE
  5
54
330
1F
100
AcDbEntity
  8
Layer2
  6
Continuous
 62
     7
 48
25.4
100
AcDbLine
 10
113.6971822242
 20
241.6046277093
 30
0.0
 11
113.6971822242
 21
234.7546277093
 31
0.0
  0
LINE
  5
55
330
1F
100
AcDbEntity
  8
Layer2
  6
Continuous
 62
     7
 48
25.4
100
AcDbLine
 10
112.6971822242
 20
233.7546277093
 30
0.0
 11
109.2246179912
 21
233.7546277093
 31
0.0
  0
LINE
  5
56
330
1F
100
AcDbEntity
  8
Layer2
  6
Continuous
 62
     7
 48
25.4
100
AcDbLine
 10
113.6971822242
 20
208.1046277093
 30
0.0
 11
113.6971822242
 21
214.9546277093
 31
0.0
  0
LINE
  5
57
330
1F
100
AcDbEntity
  8
Layer2
  6
Continuous
 62
     7
 48
25.4
100
AcDbLine
 10
52.6971822242
 20
197.8546277093
 30
0.0
 11
52.6971822242
 21
251.8546277093
 31
0.0
  0
LINE
  5
58
330
1F
100
AcDbEntity
  8
Layer2
  6
Continuous
 62
     7
 48
25.4
100
AcDbLine
 10
56.6971822242
 20
202.8546277093
 30
0.0
 11
56.6971822242
 21
246.8546277093
 31
0.0
  0
LINE
  5
59
330
1F
100
AcDbEntity
  8
Layer2
  6
Continuous
 62
     7
 48
25.4
100
AcDbLine
 10
109.2246179912
 20
215.9546277093
 30
0.0
 11
106.8658250124
 21
215.9546277093
 31
0.0
  0
SPLINE
  5
5A
330
1F
100
AcDbEntity
  8
Layer2
  6
Continuous
 62
     7
 48
25.4
100
AcDbSpline
210
0.0
220
0.0
230
1.0
 70
     8
 71
     3
 72
    19
 73
    15
 74
     0
 42
0.0000000001
 43
0.0000000001
 40
0.0
 40
0.0
 40
0.0
 40
0.0
 40
0.0860128124585486
 40
0.1684108931340503
 40
0.2433064404057094
 40
0.3282680292744654
 40
0.4286319921865281
 40
0.502767973327384
 40
0.5854515265045686
 40
0.675777077595616
 40
0.7599298440743675
 40
0.8421991278168589
 40
0.9191752248813963
 40
1.0
 40
1.0
 40
1.0
 40
1.0
 10
109.2246179911548
 20
215.9546277093419
 30
0.0
 10
107.8840107209761
 20
214.6403459179963
 30
0.0
 10
105.3522307483212
 20
212.8629684338266
 30
0.0
 10
100.0258602895142
 20
211.624085968256
 30
0.0
 10
94.83548213667267
 20
212.5721047553346
 30
0.0
 10
90.32359265321627
 20
215.2521084982994
 30
0.0
 10
87.21365930891714
 20
219.6392959326333
 30
0.0
 10
86.17717902851993
 20
225.2315606399269
 30
0.0
 10
87.4459979264513
 20
230.5347549983991
 30
0.0
 10
90.66972012349916
 20
234.7026337583813
 30
0.0
 10
95.17028991427104
 20
237.292694048208
 30
0.0
 10
100.4712362122023
 20
238.0743474579152
 30
0.0
 10
105.6074540335323
 20
236.6753381374775
 30
0.0
 10
107.9691965492415
 20
234.9973408424661
 30
0.0
 10
109.2246179911548
 20
233.7546277093418
 30
0.0
  0
SPLINE
  5
5B
330
1F
100
AcDbEntity
  8
Layer2
  6
Continuous
 62
     7
 48
25.4
100
AcDbSpline
210
0.0
220
0.0
230
1.0
 70
     8
 71
     3
 72
     8
 73
     4
 74
     0
 42
0.0000000001
 43
0.0000000001
 40
0.0
 40
0.0
 40
0.0
 40
0.0
 40
0.0031062282627494
 40
0.0031062282627494
 40
0.0031062282627494
 40
0.0031062282627494
 10
106.8658250123746
 20
233.7546277093418
 30
0.0
 10
106.8224030891468
 20
233.789129960717
 30
0.0
 10
106.7788400806693
 20
233.8233244199261
 30
0.0
 10
106.7351377847431
 20
233.8572090403097
 30
0.0
  0
SPLINE
  5
5C
330
1F
100
AcDbEntity
  8
Layer2
  6
Continuous
 62
     7
 48
25.4
100
AcDbSpline
210
0.0
220
0.0
230
1.0
 70
     8
 71
     3
 72
     8
 73
     4
 74
     0
 42
0.0000000001
 43
0.0000000001
 40
0.9969657675884318
 40
0.9969657675884318
 40
0.9969657675884318
 40
0.9969657675884318
 40
1.0
 40
1.0
 40
1.0
 40
1.0
 10
106.7386223953479
 20
215.8530965364023
 30
0.0
 10
106.7811543324204
 20
215.8866298112559
 30
0.0
 10
106.8235556662474
 20
215.9204740489691
 30
0.0
 10
106.8658250123746
 20
215.9546277093419
 30
0.0
  0
LINE
  5
5D
330
1F
100
AcDbEntity
  8
Layer2
  6
Continuous
 62
     7
 48
25.4
100
AcDbLine
 10
106.8658250124
 20
233.7546277093
 30
0.0
 11
109.2246179912
 21
233.7546277093
 31
0.0
  0
LINE
  5
5E
330
1F
100
AcDbEntity
  8
Layer2
  6
Continuous
 62
     7
 48
25.4
100
AcDbLine
 10
56.1971822242
 20
247.3546277093
 30
0.0
 11
53.1971822242
 21
247.3546277093
 31
0.0
  0
LINE
  5
5F
330
1F
100
AcDbEntity
  8
Layer2
  6
Continuous
 62
     7
 48
25.4
100
AcDbLine
 10
52.1971822242
 20
252.3546277093
 30
0.0
 11
46.6971822242
 21
252.3546277093
 31
0.0
  0
ARC
  5
60
330
1F
100
AcDbEntity
  8
Layer2
  6
Continuous
 62
     7
 48
25.4
100
AcDbCircle
 10
112.6971822242
 20
214.9546277093
 30
0.0
 40
1.000000000000013
100
AcDbArc
 50
0.0
 51
90.0
  0
ARC
  5
61
330
1F
100
AcDbEntity
  8
Layer2
  6
Continuous
 62
     7
 48
25.4
100
AcDbCircle
 10
112.6971822242
 20
234.7546277093
 30
0.0
 40
1.000000000000015
100
AcDbArc
 50
270.0
 51
360.0
  0
ARC
  5
62
330
1F
100
AcDbEntity
  8
Layer2
  6
Continuous
 62
     7
 48
25.4
100
AcDbCircle
 10
52.1971822242
 20
197.8546277093
 30
0.0
 40
0.5
100
AcDbArc
 50
270.0
 51
360.0
  0
ARC
  5
63
330
1F
100
AcDbEntity
  8
Layer2
  6
Continuous
 62
     7
 48
25.4
100
AcDbCircle
 10
57.1971822242
 20
206.6046277093
 30
0.0
 40
0.5
100
AcDbArc
 50
90.0
 51
180.0
  0
ARC
  5
64
330
1F
100
AcDbEntity
  8
Layer2
  6
Continuous
 62
     7
 48
25.4
100
AcDbCircle
 10
56.1971822242
 20
202.8546277093
 30
0.0
 40
0.5
100
AcDbArc
 50
270.0
 51
360.0
  0
ARC
  5
65
330
1F
100
AcDbEntity
  8
Layer2
  6
Continuous
 62
     7
 48
25.4
100
AcDbCircle
 10
53.1971822242
 20
201.8546277093
 30
0.0
 40
0.5
100
AcDbArc
 50
90.0
 51
180.0
  0
LINE
  5
66
330
1F
100
AcDbEntity
  8
Layer2
  6
Continuous
 62
     7
 48
25.4
100
AcDbLine
 10
104.2960491713
 20
215.8546277093
 30
0.0
 11
106.9074546874
 21
215.8546277093
 31
0.0
  0
ELLIPSE
  5
67
330
1F
100
AcDbEntity
  8
Layer2
  6
Continuous
 62
     7
 48
25.4
100
AcDbEllipse
 10
102.7558670515
 20
213.6579923708
 30
0.0
 11
0.4109081857506177
 21
-1.442620692657335
 31
0.0
210
0.0
220
0.0
230
0.9999999999999998
 40
0.2020772688
 41
3.08812875118398
 42
3.142768296715786
  0
SPLINE
  5
68
330
1F
100
AcDbEntity
  8
Layer2
  6
Continuous
 62
     7
 48
25.4
100
AcDbSpline
210
0.0
220
0.0
230
1.0
 70
     8
 71
     3
 72
     9
 73
     5
 74
     0
 42
0.0000000001
 43
0.0000000001
 40
0.0
 40
0.0
 40
0.0
 40
0.0
 40
0.6040987223144069
 40
1.0
 40
1.0
 40
1.0
 40
1.0
 10
104.160646123666
 20
215.8222655617747
 30
0.0
 10
103.7788443250327
 20
215.63059603186
 30
0.0
 10
103.2337783200201
 20
215.3834894192148
 30
0.0
 10
102.6231164793069
 20
215.178896287295
 30
0.0
 10
102.3434524060613
 20
215.1041778205077
 30
0.0
  0
LINE
  5
69
330
1F
100
AcDbEntity
  8
Layer2
  6
Continuous
 62
     7
 48
25.4
100
AcDbLine
 10
106.9074546874
 20
233.8546277093
 30
0.0
 11
104.2960491713
 21
233.8546277093
 31
0.0
  0
LINE
  5
6A
330
1F
100
AcDbEntity
  8
Layer2
  6
Continuous
 62
     7
 48
25.4
100
AcDbLine
 10
108.239410334
 20
233.8546277093
 30
0.0
 11
109.1049036156
 21
233.8546277093
 31
0.0
  0
SPLINE
  5
6B
330
1F
100
AcDbEntity
  8
Layer2
  6
Continuous
 62
     7
 48
25.4
100
AcDbSpline
210
0.0
220
0.0
230
1.0
 70
     8
 71
     3
 72
     8
 73
     4
 74
     0
 42
0.0000000001
 43
0.0000000001
 40
0.0
 40
0.0
 40
0.0
 40
0.0
 40
1.0
 40
1.0
 40
1.0
 40
1.0
 10
104.1307140255736
 20
215.8030416865297
 30
0.0
 10
103.5104581897068
 20
215.5028187477
 30
0.0
 10
103.0342740527438
 20
215.3146426602126
 30
0.0
 10
102.3611244118557
 20
215.1029890405324
 30
0.0
  0
LINE
  5
6C
330
1F
100
AcDbEntity
  8
Layer2
  6
Continuous
 62
     7
 48
25.4
100
AcDbLine
 10
108.239410334
 20
233.8546277093
 30
0.0
 11
106.9074546874
 21
233.8546277093
 31
0.0
  0
SPLINE
  5
6D
330
1F
100
AcDbEntity
  8
Layer2
  6
Continuous
 62
     7
 48
25.4
100
AcDbSpline
210
0.0
220
0.0
230
1.0
 70
     8
 71
     3
 72
     8
 73
     4
 74
     0
 42
0.0000000001
 43
0.0000000001
 40
0.0
 40
0.0
 40
0.0
 40
0.0
 40
0.0370310353359991
 40
0.0370310353359991
 40
0.0370310353359991
 40
0.0370310353359991
 10
102.3444403580879
 20
234.6073120398773
 30
0.0
 10
102.3706134591279
 20
234.6003344650317
 30
0.0
 10
102.3964593396742
 20
234.5932906680854
 30
0.0
 10
102.4220002965282
 20
234.5861825441892
 30
0.0
  0
SPLINE
  5
6E
330
1F
100
AcDbEntity
  8
Layer2
  6
Continuous
 62
     7
 48
25.4
100
AcDbSpline
210
0.0
220
0.0
230
1.0
 70
     8
 71
     3
 72
     9
 73
     5
 74
     0
 42
0.0000000001
 43
0.0000000001
 40
0.0
 40
0.0
 40
0.0
 40
0.0
 40
0.3649107910820612
 40
1.0
 40
1.0
 40
1.0
 40
1.0
 10
97.04546854663838
 20
234.6051795376016
 30
0.0
 10
97.90971746244637
 20
234.8756243904554
 30
0.0
 10
100.1741770473131
 20
235.1171766237902
 30
0.0
 10
102.3805669652892
 20
234.7411222768358
 30
0.0
 10
104.0702362508514
 20
233.9608467147961
 30
0.0
  0
SPLINE
  5
6F
330
1F
100
AcDbEntity
  8
Layer2
  6
Continuous
 62
     7
 48
25.4
100
AcDbSpline
210
0.0
220
0.0
230
1.0
 70
     8
 71
     3
 72
     9
 73
     5
 74
     0
 42
0.0000000001
 43
0.0000000001
 40
0.0
 40
0.0
 40
0.0
 40
0.0
 40
0.5412768395349801
 40
1.0
 40
1.0
 40
1.0
 40
1.0
 10
102.3439841124356
 20
215.1031320094564
 30
0.0
 10
101.3421003976817
 20
214.8238540380444
 30
0.0
 10
99.63366180006896
 20
214.6457260023904
 30
0.0
 10
97.88336516903986
 20
214.8403024275305
 30
0.0
 10
97.04482169320444
 20
215.1032149279233
 30
0.0
  0
ELLIPSE
  5
70
330
1F
100
AcDbEntity
  8
Layer2
  6
Continuous
 62
     7
 48
25.4
100
AcDbEllipse
 10
102.7558670515
 20
236.0512630479
 30
0.0
 11
0.4109081857462604
 21
1.442620692658577
 31
0.0
210
0.0
220
0.0
230
1.0
 40
0.2020772688
 41
3.14050047536139
 42
3.195056555995066
  0
ELLIPSE
  5
71
330
1F
100
AcDbEntity
  8
Layer2
  6
Continuous
 62
     7
 48
25.4
100
AcDbEllipse
 10
96.6324377058
 20
236.0495683006
 30
0.0
 11
-0.4116535019680067
 21
1.44240819268246
 31
0.0
210
0.0
220
0.0
230
1.0
 40
0.2016215307
 41
3.088133882888729
 42
3.143454973602557
  0
SPLINE
  5
72
330
1F
100
AcDbEntity
  8
Layer2
  6
Continuous
 62
     7
 48
25.4
100
AcDbSpline
210
0.0
220
0.0
230
1.0
 70
     8
 71
     3
 72
    13
 73
     9
 74
     0
 42
0.0000000001
 43
0.0000000001
 40
0.0
 40
0.0
 40
0.0
 40
0.0
 40
0.1598500580380848
 40
0.3389117053161032
 40
0.4991370919665081
 40
0.6557650462141953
 40
0.8298437111760814
 40
1.0
 40
1.0
 40
1.0
 40
1.0
 10
97.04577254993957
 20
215.1052222658984
 30
0.0
 10
95.55951179980271
 20
215.5304366814741
 30
0.0
 10
93.20747672787775
 20
216.8742059903817
 30
0.0
 10
90.43518947086807
 20
220.3090738562065
 30
0.0
 10
89.5085473977112
 20
224.7980815188964
 30
0.0
 10
90.3832162548639
 20
229.2471521447388
 30
0.0
 10
93.09935991198695
 20
232.7598901978925
 30
0.0
 10
95.46949375061958
 20
234.1440557767556
 30
0.0
 10
97.04520774872083
 20
234.6050060593796
 30
0.0
  0
ARC
  5
73
330
1F
100
AcDbEntity
  8
Layer2
  6
Continuous
 62
     7
 48
25.4
100
AcDbCircle
 10
77.1182540466
 20
1612.2408595652
 30
0.0
 40
1378.599314122061
100
AcDbArc
 50
271.1227330429
 51
271.2228619413
  0
ARC
  5
74
330
1F
100
AcDbEntity
  8
Layer2
  6
Continuous
 62
     7
 48
25.4
100
AcDbCircle
 10
104.2982673775
 20
215.5567725795
 30
0.0
 40
0.2978633895389163
100
AcDbArc
 50
90.4266889908
 51
124.230075032
  0
ARC
  5
75
330
1F
100
AcDbEntity
  8
Layer2
  6
Continuous
 62
     7
 48
25.4
100
AcDbCircle
 10
41.7729699919
 20
-2889.0468570745
 30
0.0
 40
3105.476031476832
100
AcDbArc
 50
88.8049776355
 51
88.8494273802
  0
ARC
  5
76
330
1F
100
AcDbEntity
  8
Layer2
  6
Continuous
 62
     7
 48
25.4
100
AcDbCircle
 10
106.9075479007
 20
215.1326139518
 30
0.0
 40
0.7220137635316077
100
AcDbArc
 50
90.0073969881
 51
120.6546704079
  0
ELLIPSE
  5
77
330
1F
100
AcDbEntity
  8
Layer2
  6
Continuous
 62
     7
 48
25.4
100
AcDbEllipse
 10
96.6324377058
 20
213.659687118
 30
0.0
 11
-0.4116535019641281
 21
-1.442408192683565
 31
0.0
210
0.0
220
0.0
230
1.0
 40
0.2016215307
 41
3.140945293260345
 42
3.195051424289841
  0
ARC
  5
78
330
1F
100
AcDbEntity
  8
Layer2
  6
Continuous
 62
     7
 48
25.4
100
AcDbCircle
 10
99.6971235245
 20
224.3955334223
 30
0.0
 40
9.666865149297035
100
AcDbArc
 50
253.9715686104
 51
285.9966195122
  0
LINE
  5
79
330
1F
100
AcDbEntity
  8
Layer2
  6
Continuous
 62
     7
 48
25.4
100
AcDbLine
 10
109.1049036156
 20
215.8546277093
 30
0.0
 11
108.239410334
 21
215.8546277093
 31
0.0
  0
SPLINE
  5
7A
330
1F
100
AcDbEntity
  8
Layer2
  6
Continuous
 62
     7
 48
25.4
100
AcDbSpline
210
0.0
220
0.0
230
1.0
 70
     8
 71
     3
 72
    13
 73
     9
 74
     0
 42
0.0000000001
 43
0.0000000001
 40
0.0
 40
0.0
 40
0.0
 40
0.0
 40
0.1566074535432324
 40
0.2994929585637413
 40
0.4797946885344548
 40
0.652216292040071
 40
0.829657355223658
 40
1.0
 40
1.0
 40
1.0
 40
1.0
 10
108.2394103339924
 20
215.854627709347
 30
0.0
 10
106.0033436221086
 20
213.6370480053204
 30
0.0
 10
100.6571384164461
 20
210.9969533134214
 30
0.0
 10
90.94964401961461
 20
214.1156317071712
 30
0.0
 10
86.32929739561659
 20
223.3288495520026
 30
0.0
 10
89.25356741617632
 20
234.1767774031414
 30
0.0
 10
99.32831863373818
 20
239.1222998097944
 30
0.0
 10
105.8161174007203
 20
236.2384099679062
 30
0.0
 10
108.2394103339967
 20
233.8546277093323
 30
0.0
  0
ARC
  5
7B
330
1F
100
AcDbEntity
  8
Layer2
  6
Continuous
 62
     7
 48
25.4
100
AcDbCircle
 10
104.2982673775
 20
234.1524828392
 30
0.0
 40
0.2978633895260481
100
AcDbArc
 50
235.7699249673
 51
242.7511518321
  0
ARC
  5
7C
330
1F
100
AcDbEntity
  8
Layer2
  6
Continuous
 62
     7
 48
25.4
100
AcDbCircle
 10
104.2982673775
 20
234.1524828392
 30
0.0
 40
0.2978633895260481
100
AcDbArc
 50
220.0435119372
 51
269.5733110109
  0
ARC
  5
7D
330
1F
100
AcDbEntity
  8
Layer2
  6
Continuous
 62
     7
 48
25.4
100
AcDbCircle
 10
99.6585776868
 20
225.1881758859
 30
0.0
 40
9.798172652109917
100
AcDbArc
 50
62.8433058228
 51
73.9890235422
  0
SPLINE
  5
7E
330
1F
100
AcDbEntity
  8
Layer2
  6
Continuous
 62
     7
 48
25.4
100
AcDbSpline
210
0.0
220
0.0
230
1.0
 70
     8
 71
     3
 72
    15
 73
    11
 74
     0
 42
0.0000000001
 43
0.0000000001
 40
0.0
 40
0.0
 40
0.0
 40
0.0
 40
0.126105582634506
 40
0.2474483606440576
 40
0.3755593881171566
 40
0.4972701789527411
 40
0.6132483811470749
 40
0.7524856825577269
 40
0.870662578774301
 40
1.0
 40
1.0
 40
1.0
 40
1.0
 10
106.5394201686253
 20
233.9555248533183
 30
0.0
 10
104.7220430054553
 20
235.1909373653681
 30
0.0
 10
100.9315540768555
 20
236.6845921649415
 30
0.0
 10
94.01102129112438
 20
235.3578187117129
 30
0.0
 10
89.6811147125055
 20
231.4220744057189
 30
0.0
 10
87.43148519365232
 20
225.1189531808061
 30
0.0
 10
89.48498641129157
 20
218.5048504165238
 30
0.0
 10
93.78106783900422
 20
214.4313365351979
 30
0.0
 10
100.8530962158065
 20
213.0136079888048
 30
0.0
 10
104.6741924027443
 20
214.4923960906939
 30
0.0
 10
106.5394201686252
 20
215.7537305653654
 30
0.0
  0
ARC
  5
7F
330
1F
100
AcDbEntity
  8
Layer2
  6
Continuous
 62
     7
 48
25.4
100
AcDbCircle
 10
106.9075479007
 20
234.5766414668
 30
0.0
 40
0.7220137634479893
100
AcDbArc
 50
239.3453295903
 51
269.9926030137
  0
SPLINE
  5
80
330
1F
100
AcDbEntity
  8
Layer2
  6
Continuous
 62
     7
 48
25.4
100
AcDbSpline
210
0.0
220
0.0
230
1.0
 70
     8
 71
     3
 72
    12
 73
     8
 74
     0
 42
0.0000000001
 43
0.0000000001
 40
0.0
 40
0.0
 40
0.0
 40
0.0
 40
0.1982641565223565
 40
0.4190971036164252
 40
0.6209570156496839
 40
0.8244064791928942
 40
1.0
 40
1.0
 40
1.0
 40
1.0
 10
97.02796362296488
 20
215.1044695846731
 30
0.0
 10
95.2034242853253
 20
215.6515228403839
 30
0.0
 10
92.36416712787174
 20
217.4220643941675
 30
0.0
 10
89.50815637576682
 20
222.3411529359911
 30
0.0
 10
89.84024379976415
 20
228.3032549476108
 30
0.0
 10
92.79151353745205
 20
232.5843629659471
 30
0.0
 10
95.40909294434796
 20
234.1188653248963
 30
0.0
 10
97.02796362293947
 20
234.6047858340033
 30
0.0
  0
ARC
  5
81
330
1F
100
AcDbEntity
  8
Layer2
  6
Continuous
 62
     7
 48
25.4
100
AcDbCircle
 10
99.6971236842
 20
225.3131468278
 30
0.0
 40
9.667418003472562
100
AcDbArc
 50
74.0043208094
 51
106.0274910683
  0
LINE
  5
82
330
1F
100
AcDbEntity
  8
Layer2
  6
Continuous
 62
     7
 48
25.4
100
AcDbLine
 10
106.9074546874
 20
215.8546277093
 30
0.0
 11
108.239410334
 21
215.8546277093
 31
0.0
  0
LINE
  5
83
330
1F
100
AcDbEntity
  8
Layer1
  6
Continuous
 62
     7
 48
25.4
100
AcDbLine
 10
112.6971822242
 20
110.0196335316
 30
0.0
 11
112.6971822242
 21
139.6896218871
 31
0.0
  0
LINE
  5
84
330
1F
100
AcDbEntity
  8
Layer2
  6
Continuous
 62
     7
 48
25.4
100
AcDbLine
 10
112.6971822242
 20
242.4636466216
 30
0.0
 11
112.6971822242
 21
233.8956087971
 31
0.0
  0
LINE
  5
85
330
1F
100
AcDbEntity
  8
Layer2
  6
Continuous
 62
     7
 48
25.4
100
AcDbLine
 10
112.6971822242
 20
215.8136466216
 30
0.0
 11
112.6971822242
 21
207.2456087971
 31
0.0
  0
TEXT
  5
87
330
1F
100
AcDbEntity
  8
Layer55
  6
Continuous
 62
     7
 48
25.4
100
AcDbText
 10
51.2222222222
 20
41.4666666667
 30
0.0
 40
2.0
  1
84365
  7
SEACAD_arial_ttfB
 11
51.2222222222
 21
43.4666666667
 31
0.0
100
AcDbText
 73
     3
  0
TEXT
  5
89
330
1F
100
AcDbEntity
  8
Layer55
  6
Continuous
 62
     7
 48
25.4
100
AcDbText
 10
49.7111111111
 20
36.9666666667
 30
0.0
 40
2.0
  1
26.11.01
  7
SEACAD_arial_ttfB
 11
49.7111111111
 21
38.9666666667
 31
0.0
100
AcDbText
 73
     3
  0
TEXT
  5
8A
330
1F
100
AcDbEntity
  8
Layer55
  6
Continuous
 62
     7
 48
25.4
100
AcDbText
 10
49.6666666667
 20
31.9666666667
 30
0.0
 40
2.0
  1
Thiesbr.
  7
SEACAD_arial_ttfB
 11
49.6666666667
 21
33.9666666667
 31
0.0
100
AcDbText
 73
     3
  0
TEXT
  5
8B
330
1F
100
AcDbEntity
  8
Layer55
  6
Continuous
 62
     7
 48
25.4
100
AcDbText
 10
47.9777777778
 20
26.9666666667
 30
0.0
 40
2.0
  1
Kamphaus
  7
SEACAD_arial_ttfB
 11
47.9777777778
 21
28.9666666667
 31
0.0
100
AcDbText
 73
     3
  0
TEXT
  5
8C
330
1F
100
AcDbEntity
  8
Layer55
  6
Continuous
 62
     7
 48
25.4
100
AcDbText
 10
12.1444444444
 20
31.9333333333
 30
0.0
 40
4.0
  1
1:1
  7
SEACAD_arial_ttfB
 11
12.1444444444
 21
35.9333333333
 31
0.0
100
AcDbText
 73
     3
  0
TEXT
  5
8D
330
1F
100
AcDbEntity
  8
Layer55
  6
Continuous
 62
     7
 48
25.4
100
AcDbText
 10
18.9611111111
 20
8.6666666667
 30
0.0
 40
5.0
  1
x
  7
SEACAD_arial_ttfB
 11
18.9611111111
 21
13.6666666667
 31
0.0
100
AcDbText
 73
     3
  0
TEXT
  5
8E
330
1F
100
AcDbEntity
  8
Layer55
  6
Continuous
 62
     7
 48
25.4
100
AcDbText
 10
180.6888888889
 20
13.9333333333
 30
0.0
 40
4.0
  1
28.690
  7
SEACAD_arial_ttfB
 11
180.6888888889
 21
17.9333333333
 31
0.0
100
AcDbText
 73
     3
  0
LINE
  5
90
330
1F
100
AcDbEntity
  8
Layer1
  6
HIDDEN2
 62
     7
 48
25.4
100
AcDbLine
 10
88.0919938407
 20
141.5269595077
 30
0.0
 11
89.8467515187
 21
108.0442027775
 31
0.0
  0
ARC
  5
91
330
1F
100
AcDbEntity
  8
Layer1
  6
HIDDEN2
 62
     7
 48
25.4
100
AcDbCircle
 10
-2229.5398500511
 20
306.7169943532
 30
0.0
 40
2344.590852704429
100
AcDbArc
 50
355.1761393382
 51
355.9262179173
  0
LINE
  5
92
330
1F
100
AcDbEntity
  8
Layer1
  6
Continuous
 62
     7
 48
25.4
100
AcDbLine
 10
46.3971822242
 20
103.8546277093
 30
0.0
 11
46.6971822242
 21
103.8546277093
 31
0.0
  0
LINE
  5
93
330
1F
100
AcDbEntity
  8
Layer1
  6
Continuous
 62
     7
 48
25.4
100
AcDbLine
 10
46.6971822242
 20
145.8546277093
 30
0.0
 11
46.3971822242
 21
145.8546277093
 31
0.0
  0
ARC
  5
94
330
1F
100
AcDbEntity
  8
Layer1
  6
Continuous
 62
     7
 48
25.4
100
AcDbCircle
 10
46.3971822242
 20
145.6546277093
 30
0.0
 40
0.2
100
AcDbArc
 50
90.0
 51
180.0
  0
ARC
  5
95
330
1F
100
AcDbEntity
  8
Layer1
  6
Continuous
 62
     7
 48
25.4
100
AcDbCircle
 10
46.3971822242
 20
104.0546277093
 30
0.0
 40
0.1999999999999988
100
AcDbArc
 50
180.0
 51
270.0
  0
LINE
  5
96
330
1F
100
AcDbEntity
  8
Layer1
  6
Continuous
 62
     7
 48
25.4
100
AcDbLine
 10
46.1971822242
 20
145.6546277093
 30
0.0
 11
46.1971822242
 21
104.0546277093
 31
0.0
  0
LINE
  5
97
330
1F
100
AcDbEntity
  8
Layer2
  6
Continuous
 62
     7
 48
25.4
100
AcDbLine
 10
46.3971822242
 20
203.8546277093
 30
0.0
 11
46.6971822242
 21
203.8546277093
 31
0.0
  0
LINE
  5
98
330
1F
100
AcDbEntity
  8
Layer2
  6
Continuous
 62
     7
 48
25.4
100
AcDbLine
 10
46.6971822242
 20
245.8546277093
 30
0.0
 11
46.3971822242
 21
245.8546277093
 31
0.0
  0
ARC
  5
99
330
1F
100
AcDbEntity
  8
Layer2
  6
Continuous
 62
     7
 48
25.4
100
AcDbCircle
 10
46.3971822242
 20
245.6546277093
 30
0.0
 40
0.2
100
AcDbArc
 50
90.0
 51
180.0
  0
ARC
  5
9A
330
1F
100
AcDbEntity
  8
Layer2
  6
Continuous
 62
     7
 48
25.4
100
AcDbCircle
 10
46.3971822242
 20
204.0546277093
 30
0.0
 40
0.1999999999999988
100
AcDbArc
 50
180.0
 51
270.0
  0
LINE
  5
9B
330
1F
100
AcDbEntity
  8
Layer2
  6
Continuous
 62
     7
 48
25.4
100
AcDbLine
 10
46.1971822242
 20
245.6546277093
 30
0.0
 11
46.1971822242
 21
204.0546277093
 31
0.0
  0
ARC
  5
9D
330
1F
100
AcDbEntity
  8
Auto_-_ausblenden
  6
Continuous
 62
     7
 48
25.4
100
AcDbCircle
 10
166.6971742829
 20
124.8546259178
 30
0.0
 40
17.9999999999959
100
AcDbArc
 50
302.731145204
 51
309.1198372551
  0
ARC
  5
9E
330
1F
100
AcDbEntity
  8
Auto_-_ausblenden
  6
Continuous
 62
     7
 48
25.4
100
AcDbCircle
 10
175.9971742829
 20
110.3856936836
 30
0.0
 40
0.7999999999870179
100
AcDbArc
 50
269.9999999997
 51
302.7311452043
  0
LINE
  5
9F
330
1F
100
AcDbEntity
  8
Auto_-_ausblenden
  6
Continuous
 62
     7
 48
25.4
100
AcDbLine
 10
175.1971742829
 20
110.3856936836
 30
0.0
 11
175.1971742829
 21
111.2000530375
 31
0.0
  0
ARC
  5
A0
330
1F
100
AcDbEntity
  8
Auto_-_ausblenden
  6
Continuous
 62
     7
 48
25.4
100
AcDbCircle
 10
166.6971742829
 20
124.8546259178
 30
0.0
 40
18.00000000000163
100
AcDbArc
 50
50.8801627449
 51
57.2688547959
  0
ARC
  5
A1
330
1F
100
AcDbEntity
  8
Auto_-_ausblenden
  6
Continuous
 62
     7
 48
25.4
100
AcDbCircle
 10
175.9971742829
 20
139.3235581521
 30
0.0
 40
0.7999999999868691
100
AcDbArc
 50
57.2688547957
 51
90.0000000003
  0
LINE
  5
A2
330
1F
100
AcDbEntity
  8
Auto_-_ausblenden
  6
Continuous
 62
     7
 48
25.4
100
AcDbLine
 10
175.1971742829
 20
138.5091987982
 30
0.0
 11
175.1971742829
 21
139.3235581521
 31
0.0
  0
ARC
  5
A3
330
1F
100
AcDbEntity
  8
Auto_-_ausblenden
  6
Continuous
 62
     7
 48
25.4
100
AcDbCircle
 10
166.6971742829
 20
124.8546259178
 30
0.0
 40
17.99999999999906
100
AcDbArc
 50
122.731145204
 51
129.1198372551
  0
ARC
  5
A4
330
1F
100
AcDbEntity
  8
Auto_-_ausblenden
  6
Continuous
 62
     7
 48
25.4
100
AcDbCircle
 10
157.3971742829
 20
139.3235581521
 30
0.0
 40
0.7999999999868186
100
AcDbArc
 50
89.9999999997
 51
122.7311452043
  0
LINE
  5
A5
330
1F
100
AcDbEntity
  8
Auto_-_ausblenden
  6
Continuous
 62
     7
 48
25.4
100
AcDbLine
 10
158.1971742829
 20
139.3235581521
 30
0.0
 11
158.1971742829
 21
138.5091987982
 31
0.0
  0
ARC
  5
A6
330
1F
100
AcDbEntity
  8
Auto_-_ausblenden
  6
Continuous
 62
     7
 48
25.4
100
AcDbCircle
 10
166.6971742829
 20
124.8572246
 30
0.0
 40
18.00218611039302
100
AcDbArc
 50
237.3232543044
 51
302.6173864014
  0
ARC
  5
A7
330
1F
100
AcDbEntity
  8
Auto_-_ausblenden
  6
Continuous
 62
     7
 48
25.4
100
AcDbCircle
 10
166.6971742829
 20
124.8572246
 30
0.0
 40
18.00218611039302
100
AcDbArc
 50
309.2781065093
 51
313.849283584
  0
ARC
  5
A8
330
1F
100
AcDbEntity
  8
Auto_-_ausblenden
  6
Continuous
 62
     7
 48
25.4
100
AcDbCircle
 10
166.6971742829
 20
124.8528368251
 30
0.0
 40
18.00150504118691
100
AcDbArc
 50
40.0347817804
 51
45.0921295959
  0
ARC
  5
A9
330
1F
100
AcDbEntity
  8
Auto_-_ausblenden
  6
Continuous
 62
     7
 48
25.4
100
AcDbCircle
 10
166.6971742829
 20
124.8528368251
 30
0.0
 40
18.00150504118691
100
AcDbArc
 50
57.5774478872
 51
122.6019361558
  0
ARC
  5
AA
330
1F
100
AcDbEntity
  8
Auto_-_ausblenden
  6
Continuous
 62
     7
 48
25.4
100
AcDbCircle
 10
166.6971742829
 20
124.8528368251
 30
0.0
 40
18.00150504118691
100
AcDbArc
 50
134.6783830385
 51
139.8956840322
  0
ARC
  5
AB
330
1F
100
AcDbEntity
  8
Auto_-_ausblenden
  6
Continuous
 62
     7
 48
25.4
100
AcDbCircle
 10
157.3971742829
 20
110.3856936836
 30
0.0
 40
0.7999999999870022
100
AcDbArc
 50
237.2688547957
 51
270.0000000003
  0
LINE
  5
AC
330
1F
100
AcDbEntity
  8
Auto_-_ausblenden
  6
Continuous
 62
     7
 48
25.4
100
AcDbLine
 10
158.1971742829
 20
111.2000530375
 30
0.0
 11
158.1971742829
 21
110.3856936836
 31
0.0
  0
ARC
  5
AD
330
1F
100
AcDbEntity
  8
Auto_-_ausblenden
  6
Continuous
 62
     7
 48
25.4
100
AcDbCircle
 10
166.6971742829
 20
124.8546259178
 30
0.0
 40
18.00000000000487
100
AcDbArc
 50
230.8801627449
 51
237.2688547959
  0
ARC
  5
AE
330
1F
100
AcDbEntity
  8
Auto_-_ausblenden
  6
Continuous
 62
     7
 48
25.4
100
AcDbCircle
 10
166.6971742829
 20
124.8546259178
 30
0.0
 40
18.00000000000001
100
AcDbArc
 50
309.1198372551
 51
50.8801627449
  0
LINE
  5
AF
330
1F
100
AcDbEntity
  8
Auto_-_ausblenden
  6
Continuous
 62
     7
 48
25.4
100
AcDbLine
 10
175.1971742829
 20
111.2000530375
 30
0.0
 11
175.1971742829
 21
138.5091987982
 31
0.0
  0
ARC
  5
B0
330
1F
100
AcDbEntity
  8
Auto_-_ausblenden
  6
Continuous
 62
     7
 48
25.4
100
AcDbCircle
 10
166.6971742829
 20
124.8546259178
 30
0.0
 40
18.00000000000001
100
AcDbArc
 50
129.1198372551
 51
230.8801627449
  0
LINE
  5
B1
330
1F
100
AcDbEntity
  8
Auto_-_ausblenden
  6
Continuous
 62
     7
 48
25.4
100
AcDbLine
 10
158.1971742829
 20
138.5091987982
 30
0.0
 11
158.1971742829
 21
111.2000530375
 31
0.0
  0
CIRCLE
  5
B2
330
1F
100
AcDbEntity
  8
Auto_-_ausblenden
  6
Continuous
 62
     7
 48
25.4
100
AcDbCircle
 10
166.6971742829
 20
124.8546259178
 30
0.0
 40
22.49999999999999
  0
CIRCLE
  5
B3
330
1F
100
AcDbEntity
  8
Auto_-_ausblenden
  6
Continuous
 62
     7
 48
25.4
100
AcDbCircle
 10
166.6971742829
 20
124.8546259178
 30
0.0
 40
27.5
  0
ARC
  5
B4
330
1F
100
AcDbEntity
  8
Auto_-_ausblenden
  6
Continuous
 62
     7
 48
25.4
100
AcDbCircle
 10
157.3970891911
 20
110.3857787754
 30
0.0
 40
0.8000850963756309
100
AcDbArc
 50
270.0060936067
 51
359.9939063933
  0
ARC
  5
B5
330
1F
100
AcDbEntity
  8
Auto_-_ausblenden
  6
Continuous
 62
     7
 48
25.4
100
AcDbCircle
 10
175.9972593748
 20
110.3857787754
 30
0.0
 40
0.8000850963756304
100
AcDbArc
 50
180.0060936067
 51
269.9939063933
  0
ARC
  5
B6
330
1F
100
AcDbEntity
  8
Auto_-_ausblenden
  6
Continuous
 62
     7
 48
25.4
100
AcDbCircle
 10
175.9972593748
 20
139.3234730603
 30
0.0
 40
0.8000850963756208
100
AcDbArc
 50
90.0060936067
 51
179.9939063933
  0
ARC
  5
B7
330
1F
100
AcDbEntity
  8
Auto_-_ausblenden
  6
Continuous
 62
     7
 48
25.4
100
AcDbCircle
 10
157.3970891911
 20
139.3234730603
 30
0.0
 40
0.8000850963756341
100
AcDbArc
 50
0.0060936067
 51
89.9939063933
  0
INSERT
  5
BA
330
1F
100
AcDbEntity
  8
Layer3
100
AcDbBlockReference
  2
GDimGGroup
 10
0.0
 20
0.0
 30
0.0
  0
INSERT
  5
C8
330
1F
100
AcDbEntity
  8
Layer3
100
AcDbBlockReference
  2
GDimGGroup1
 10
0.0
 20
0.0
 30
0.0
  0
INSERT
  5
D5
330
1F
100
AcDbEntity
  8
Layer3
100
AcDbBlockReference
  2
GDimGGroup2
 10
0.0
 20
0.0
 30
0.0
  0
LINE
  5
E2
330
1F
100
AcDbEntity
  8
MDS_Layer_90
  6
Continuous
 62
     7
 48
25.4
100
AcDbLine
 10
6.6
 20
291.0
 30
0.0
 11
205.0
 21
291.0
 31
0.0
  0
LINE
  5
E3
330
1F
100
AcDbEntity
  8
MDS_Layer_90
  6
Continuous
 62
     7
 48
25.4
100
AcDbLine
 10
6.6
 20
291.0
 30
0.0
 11
6.6
 21
45.0
 31
0.0
  0
LINE
  5
E5
330
1F
100
AcDbEntity
  8
MDS_Layer_94
  6
Continuous
 62
     7
 48
25.4
100
AcDbLine
 10
85.0
 20
30.0
 30
0.0
 11
105.0
 21
30.0
 31
0.0
  0
LINE
  5
E6
330
1F
100
AcDbEntity
  8
MDS_Layer_94
  6
Continuous
 62
     7
 48
25.4
100
AcDbLine
 10
125.0
 20
35.0
 30
0.0
 11
145.0
 21
35.0
 31
0.0
  0
LINE
  5
E7
330
1F
100
AcDbEntity
  8
MDS_Layer_94
  6
Continuous
 62
     7
 48
25.4
100
AcDbLine
 10
105.0
 20
30.0
 30
0.0
 11
125.0
 21
30.0
 31
0.0
  0
LINE
  5
E8
330
1F
100
AcDbEntity
  8
MDS_Layer_94
  6
Continuous
 62
     7
 48
25.4
100
AcDbLine
 10
105.0
 20
25.0
 30
0.0
 11
105.0
 21
45.0
 31
0.0
  0
LINE
  5
E9
330
1F
100
AcDbEntity
  8
MDS_Layer_94
  6
Continuous
 62
     7
 48
25.4
100
AcDbLine
 10
25.6
 20
45.0
 30
0.0
 11
25.6
 21
25.0
 31
0.0
  0
LINE
  5
EA
330
1F
100
AcDbEntity
  8
MDS_Layer_94
  6
Continuous
 62
     7
 48
25.4
100
AcDbLine
 10
85.0
 20
25.0
 30
0.0
 11
105.0
 21
25.0
 31
0.0
  0
LINE
  5
EB
330
1F
100
AcDbEntity
  8
MDS_Layer_94
  6
Continuous
 62
     7
 48
25.4
100
AcDbLine
 10
125.0
 20
30.0
 30
0.0
 11
145.0
 21
30.0
 31
0.0
  0
LINE
  5
EC
330
1F
100
AcDbEntity
  8
MDS_Layer_94
  6
Continuous
 62
     7
 48
25.4
100
AcDbLine
 10
105.0
 20
25.0
 30
0.0
 11
125.0
 21
25.0
 31
0.0
  0
LINE
  5
ED
330
1F
100
AcDbEntity
  8
MDS_Layer_94
  6
Continuous
 62
     7
 48
25.4
100
AcDbLine
 10
125.0
 20
25.0
 30
0.0
 11
125.0
 21
45.0
 31
0.0
  0
LINE
  5
EE
330
1F
100
AcDbEntity
  8
MDS_Layer_94
  6
Continuous
 62
     7
 48
25.4
100
AcDbLine
 10
145.0
 20
25.0
 30
0.0
 11
145.0
 21
45.0
 31
0.0
  0
LINE
  5
EF
330
1F
100
AcDbEntity
  8
MDS_Layer_94
  6
Continuous
 62
     7
 48
25.4
100
AcDbLine
 10
125.0
 20
25.0
 30
0.0
 11
145.0
 21
25.0
 31
0.0
  0
LINE
  5
F0
330
1F
100
AcDbEntity
  8
MDS_Layer_94
  6
Continuous
 62
     7
 48
25.4
100
AcDbLine
 10
85.0
 20
40.0
 30
0.0
 11
105.0
 21
40.0
 31
0.0
  0
LINE
  5
F1
330
1F
100
AcDbEntity
  8
MDS_Layer_94
  6
Continuous
 62
     7
 48
25.4
100
AcDbLine
 10
105.0
 20
40.0
 30
0.0
 11
125.0
 21
40.0
 31
0.0
  0
LINE
  5
F2
330
1F
100
AcDbEntity
  8
MDS_Layer_94
  6
Continuous
 62
     7
 48
25.4
100
AcDbLine
 10
125.0
 20
40.0
 30
0.0
 11
145.0
 21
40.0
 31
0.0
  0
LINE
  5
F3
330
1F
100
AcDbEntity
  8
MDS_Layer_94
  6
Continuous
 62
     7
 48
25.4
100
AcDbLine
 10
25.6
 20
35.0
 30
0.0
 11
45.0
 21
35.0
 31
0.0
  0
LINE
  5
F4
330
1F
100
AcDbEntity
  8
MDS_Layer_94
  6
Continuous
 62
     7
 48
25.4
100
AcDbLine
 10
85.0
 20
35.0
 30
0.0
 11
105.0
 21
35.0
 31
0.0
  0
LINE
  5
F5
330
1F
100
AcDbEntity
  8
MDS_Layer_94
  6
Continuous
 62
     7
 48
25.4
100
AcDbLine
 10
105.0
 20
35.0
 30
0.0
 11
125.0
 21
35.0
 31
0.0
  0
LINE
  5
F6
330
1F
100
AcDbEntity
  8
MDS_Layer_94
  6
Continuous
 62
     7
 48
25.4
100
AcDbLine
 10
6.6
 20
5.0168024536
 30
0.0
 11
6.6
 21
25.0
 31
0.0
  0
LINE
  5
F7
330
1F
100
AcDbEntity
  8
MDS_Layer_94
  6
Continuous
 62
     7
 48
25.4
100
AcDbLine
 10
16.1
 20
20.0
 30
0.0
 11
16.1
 21
5.0168024536
 31
0.0
  0
LINE
  5
F8
330
1F
100
AcDbEntity
  8
MDS_Layer_94
  6
Continuous
 62
     7
 48
25.4
100
AcDbLine
 10
6.6
 20
5.0
 30
0.0
 11
45.0
 21
5.0
 31
0.0
  0
LINE
  5
F9
330
1F
100
AcDbEntity
  8
MDS_Layer_94
  6
Continuous
 62
     7
 48
25.4
100
AcDbLine
 10
6.6
 20
39.999
 30
0.0
 11
45.0
 21
39.999
 31
0.0
  0
LINE
  5
FA
330
1F
100
AcDbEntity
  8
MDS_Layer_94
  6
Continuous
 62
     7
 48
25.4
100
AcDbLine
 10
6.6
 20
40.0
 30
0.0
 11
45.0
 21
40.0
 31
0.0
  0
LINE
  5
FB
330
1F
100
AcDbEntity
  8
MDS_Layer_94
  6
Continuous
 62
     7
 48
25.4
100
AcDbLine
 10
6.6
 20
39.998
 30
0.0
 11
45.0
 21
39.998
 31
0.0
  0
LINE
  5
FC
330
1F
100
AcDbEntity
  8
MDS_Layer_94
  6
Continuous
 62
     7
 48
25.4
100
AcDbLine
 10
45.0
 20
5.0
 30
0.0
 11
45.0
 21
25.0
 31
0.0
  0
LINE
  5
FD
330
1F
100
AcDbEntity
  8
MDS_Layer_94
  6
Continuous
 62
     7
 48
25.4
100
AcDbLine
 10
45.0
 20
15.0
 30
0.0
 11
77.0
 21
15.0
 31
0.0
  0
LINE
  5
FE
330
1F
100
AcDbEntity
  8
MDS_Layer_94
  6
Continuous
 62
     7
 48
25.4
100
AcDbLine
 10
77.0
 20
15.0
 30
0.0
 11
109.0
 21
15.0
 31
0.0
  0
LINE
  5
FF
330
1F
100
AcDbEntity
  8
MDS_Layer_94
  6
Continuous
 62
     7
 48
25.4
100
AcDbLine
 10
25.6
 20
5.0168024536
 30
0.0
 11
25.6
 21
25.0
 31
0.0
  0
LINE
  5
100
330
1F
100
AcDbEntity
  8
MDS_Layer_94
  6
Continuous
 62
     7
 48
25.4
100
AcDbLine
 10
45.0
 20
5.0
 30
0.0
 11
77.0
 21
5.0
 31
0.0
  0
LINE
  5
101
330
1F
100
AcDbEntity
  8
MDS_Layer_94
  6
Continuous
 62
     7
 48
25.4
100
AcDbLine
 10
165.0
 20
25.0
 30
0.0
 11
185.0
 21
25.0
 31
0.0
  0
LINE
  5
102
330
1F
100
AcDbEntity
  8
MDS_Layer_94
  6
Continuous
 62
     7
 48
25.4
100
AcDbLine
 10
141.0
 20
15.0
 30
0.0
 11
173.0
 21
15.0
 31
0.0
  0
LINE
  5
103
330
1F
100
AcDbEntity
  8
MDS_Layer_94
  6
Continuous
 62
     7
 48
25.4
100
AcDbLine
 10
205.0
 20
25.0
 30
0.0
 11
205.0
 21
45.0
 31
0.0
  0
LINE
  5
104
330
1F
100
AcDbEntity
  8
MDS_Layer_94
  6
Continuous
 62
     7
 48
25.4
100
AcDbLine
 10
185.0
 20
30.0
 30
0.0
 11
205.0
 21
30.0
 31
0.0
  0
LINE
  5
105
330
1F
100
AcDbEntity
  8
MDS_Layer_94
  6
Continuous
 62
     7
 48
25.4
100
AcDbLine
 10
185.0
 20
35.0
 30
0.0
 11
205.0
 21
35.0
 31
0.0
  0
LINE
  5
106
330
1F
100
AcDbEntity
  8
MDS_Layer_94
  6
Continuous
 62
     7
 48
25.4
100
AcDbLine
 10
185.0
 20
40.0
 30
0.0
 11
205.0
 21
40.0
 31
0.0
  0
LINE
  5
107
330
1F
100
AcDbEntity
  8
MDS_Layer_94
  6
Continuous
 62
     7
 48
25.4
100
AcDbLine
 10
185.0
 20
25.0
 30
0.0
 11
185.0
 21
45.0
 31
0.0
  0
LINE
  5
108
330
1F
100
AcDbEntity
  8
MDS_Layer_94
  6
Continuous
 62
     7
 48
25.4
100
AcDbLine
 10
165.0
 20
30.0
 30
0.0
 11
185.0
 21
30.0
 31
0.0
  0
LINE
  5
109
330
1F
100
AcDbEntity
  8
MDS_Layer_94
  6
Continuous
 62
     7
 48
25.4
100
AcDbLine
 10
165.0
 20
35.0
 30
0.0
 11
185.0
 21
35.0
 31
0.0
  0
LINE
  5
10A
330
1F
100
AcDbEntity
  8
MDS_Layer_94
  6
Continuous
 62
     7
 48
25.4
100
AcDbLine
 10
165.0
 20
40.0
 30
0.0
 11
185.0
 21
40.0
 31
0.0
  0
LINE
  5
10B
330
1F
100
AcDbEntity
  8
MDS_Layer_94
  6
Continuous
 62
     7
 48
25.4
100
AcDbLine
 10
145.0
 20
35.0
 30
0.0
 11
165.0
 21
35.0
 31
0.0
  0
LINE
  5
10C
330
1F
100
AcDbEntity
  8
MDS_Layer_94
  6
Continuous
 62
     7
 48
25.4
100
AcDbLine
 10
165.0
 20
25.0
 30
0.0
 11
165.0
 21
45.0
 31
0.0
  0
LINE
  5
10D
330
1F
100
AcDbEntity
  8
MDS_Layer_94
  6
Continuous
 62
     7
 48
25.4
100
AcDbLine
 10
145.0
 20
40.0
 30
0.0
 11
165.0
 21
40.0
 31
0.0
  0
LINE
  5
10E
330
1F
100
AcDbEntity
  8
MDS_Layer_94
  6
Continuous
 62
     7
 48
25.4
100
AcDbLine
 10
45.0
 20
45.0
 30
0.0
 11
205.0
 21
45.0
 31
0.0
  0
LINE
  5
10F
330
1F
100
AcDbEntity
  8
MDS_Layer_94
  6
Continuous
 62
     7
 48
25.4
100
AcDbLine
 10
25.6
 20
30.0
 30
0.0
 11
45.0
 21
30.0
 31
0.0
  0
LINE
  5
110
330
1F
100
AcDbEntity
  8
MDS_Layer_94
  6
Continuous
 62
     7
 48
25.4
100
AcDbLine
 10
6.6
 20
20.0
 30
0.0
 11
25.6
 21
20.0
 31
0.0
  0
LINE
  5
111
330
1F
100
AcDbEntity
  8
MDS_Layer_94
  6
Continuous
 62
     7
 48
25.4
100
AcDbLine
 10
6.6
 20
15.0
 30
0.0
 11
25.6
 21
15.0
 31
0.0
  0
LINE
  5
112
330
1F
100
AcDbEntity
  8
MDS_Layer_94
  6
Continuous
 62
     7
 48
25.4
100
AcDbLine
 10
6.6
 20
25.0
 30
0.0
 11
45.0
 21
25.0
 31
0.0
  0
LINE
  5
113
330
1F
100
AcDbEntity
  8
MDS_Layer_94
  6
Continuous
 62
     7
 48
25.4
100
AcDbLine
 10
45.0
 20
25.0
 30
0.0
 11
45.0
 21
45.0
 31
0.0
  0
LINE
  5
114
330
1F
100
AcDbEntity
  8
MDS_Layer_94
  6
Continuous
 62
     7
 48
25.4
100
AcDbLine
 10
45.0
 20
40.0
 30
0.0
 11
65.0
 21
40.0
 31
0.0
  0
LINE
  5
115
330
1F
100
AcDbEntity
  8
MDS_Layer_94
  6
Continuous
 62
     7
 48
25.4
100
AcDbLine
 10
45.0
 20
35.0
 30
0.0
 11
65.0
 21
35.0
 31
0.0
  0
LINE
  5
116
330
1F
100
AcDbEntity
  8
MDS_Layer_94
  6
Continuous
 62
     7
 48
25.4
100
AcDbLine
 10
45.0
 20
30.0
 30
0.0
 11
65.0
 21
30.0
 31
0.0
  0
LINE
  5
117
330
1F
100
AcDbEntity
  8
MDS_Layer_94
  6
Continuous
 62
     7
 48
25.4
100
AcDbLine
 10
65.0
 20
25.0
 30
0.0
 11
65.0
 21
45.0
 31
0.0
  0
LINE
  5
118
330
1F
100
AcDbEntity
  8
MDS_Layer_94
  6
Continuous
 62
     7
 48
25.4
100
AcDbLine
 10
45.0
 20
25.0
 30
0.0
 11
65.0
 21
25.0
 31
0.0
  0
LINE
  5
119
330
1F
100
AcDbEntity
  8
MDS_Layer_94
  6
Continuous
 62
     7
 48
25.4
100
AcDbLine
 10
65.0
 20
40.0
 30
0.0
 11
85.0
 21
40.0
 31
0.0
  0
LINE
  5
11A
330
1F
100
AcDbEntity
  8
MDS_Layer_94
  6
Continuous
 62
     7
 48
25.4
100
AcDbLine
 10
65.0
 20
35.0
 30
0.0
 11
85.0
 21
35.0
 31
0.0
  0
LINE
  5
11B
330
1F
100
AcDbEntity
  8
MDS_Layer_94
  6
Continuous
 62
     7
 48
25.4
100
AcDbLine
 10
65.0
 20
30.0
 30
0.0
 11
85.0
 21
30.0
 31
0.0
  0
LINE
  5
11C
330
1F
100
AcDbEntity
  8
MDS_Layer_94
  6
Continuous
 62
     7
 48
25.4
100
AcDbLine
 10
85.0
 20
25.0
 30
0.0
 11
85.0
 21
45.0
 31
0.0
  0
LINE
  5
11D
330
1F
100
AcDbEntity
  8
MDS_Layer_94
  6
Continuous
 62
     7
 48
25.4
100
AcDbLine
 10
65.0
 20
25.0
 30
0.0
 11
85.0
 21
25.0
 31
0.0
  0
LINE
  5
11E
330
1F
100
AcDbEntity
  8
MDS_Layer_94
  6
Continuous
 62
     7
 48
25.4
100
AcDbLine
 10
45.0
 20
45.0
 30
0.0
 11
6.6
 21
45.0
 31
0.0
  0
LINE
  5
11F
330
1F
100
AcDbEntity
  8
MDS_Layer_94
  6
Continuous
 62
     7
 48
25.4
100
AcDbLine
 10
6.6
 20
45.0
 30
0.0
 11
6.6
 21
25.0
 31
0.0
  0
LINE
  5
120
330
1F
100
AcDbEntity
  8
MDS_Layer_94
  6
Continuous
 62
     7
 48
25.4
100
AcDbLine
 10
185.0
 20
25.0
 30
0.0
 11
205.0
 21
25.0
 31
0.0
  0
LINE
  5
121
330
1F
100
AcDbEntity
  8
MDS_Layer_94
  6
Continuous
 62
     7
 48
25.4
100
AcDbLine
 10
77.0
 20
5.0
 30
0.0
 11
109.0
 21
5.0
 31
0.0
  0
LINE
  5
122
330
1F
100
AcDbEntity
  8
MDS_Layer_94
  6
Continuous
 62
     7
 48
25.4
100
AcDbLine
 10
145.0
 20
30.0
 30
0.0
 11
165.0
 21
30.0
 31
0.0
  0
LINE
  5
123
330
1F
100
AcDbEntity
  8
MDS_Layer_94
  6
Continuous
 62
     7
 48
25.4
100
AcDbLine
 10
109.0
 20
5.0
 30
0.0
 11
109.0
 21
25.0
 31
0.0
  0
LINE
  5
124
330
1F
100
AcDbEntity
  8
MDS_Layer_94
  6
Continuous
 62
     7
 48
25.4
100
AcDbLine
 10
109.0
 20
15.0
 30
0.0
 11
141.0
 21
15.0
 31
0.0
  0
LINE
  5
125
330
1F
100
AcDbEntity
  8
MDS_Layer_94
  6
Continuous
 62
     7
 48
25.4
100
AcDbLine
 10
145.0
 20
25.0
 30
0.0
 11
165.0
 21
25.0
 31
0.0
  0
LINE
  5
126
330
1F
100
AcDbEntity
  8
MDS_Layer_94
  6
Continuous
 62
     7
 48
25.4
100
AcDbLine
 10
77.0
 20
5.0
 30
0.0
 11
77.0
 21
25.0
 31
0.0
  0
LINE
  5
127
330
1F
100
AcDbEntity
  8
MDS_Layer_94
  6
Continuous
 62
     7
 48
25.4
100
AcDbLine
 10
205.0
 20
5.0
 30
0.0
 11
205.0
 21
25.0
 31
0.0
  0
LINE
  5
128
330
1F
100
AcDbEntity
  8
MDS_Layer_94
  6
Continuous
 62
     7
 48
25.4
100
AcDbLine
 10
173.0
 20
5.0
 30
0.0
 11
205.0
 21
5.0
 31
0.0
  0
LINE
  5
129
330
1F
100
AcDbEntity
  8
MDS_Layer_94
  6
Continuous
 62
     7
 48
25.4
100
AcDbLine
 10
173.0
 20
5.0
 30
0.0
 11
173.0
 21
25.0
 31
0.0
  0
LINE
  5
12A
330
1F
100
AcDbEntity
  8
MDS_Layer_94
  6
Continuous
 62
     7
 48
25.4
100
AcDbLine
 10
141.0
 20
5.0
 30
0.0
 11
173.0
 21
5.0
 31
0.0
  0
LINE
  5
12B
330
1F
100
AcDbEntity
  8
MDS_Layer_94
  6
Continuous
 62
     7
 48
25.4
100
AcDbLine
 10
109.0
 20
5.0
 30
0.0
 11
141.0
 21
5.0
 31
0.0
  0
LINE
  5
12C
330
1F
100
AcDbEntity
  8
MDS_Layer_94
  6
Continuous
 62
     7
 48
25.4
100
AcDbLine
 10
141.0
 20
5.0
 30
0.0
 11
141.0
 21
25.0
 31
0.0
  0
TEXT
  5
12E
330
1F
100
AcDbEntity
  8
MDS_Layer_94
  6
Continuous
 62
     7
 48
25.4
100
AcDbText
 10
27.2
 20
14.0913731012
 30
0.0
 40
2.5
  1
und
  7
SEACAD_seiso_ttf
 11
27.2
 21
16.5913731012
 31
0.0
100
AcDbText
 73
     3
  0
TEXT
  5
12F
330
1F
100
AcDbEntity
  8
MDS_Layer_94
  6
Continuous
 62
     7
 48
25.4
100
AcDbText
 10
27.2
 20
9.0913731012
 30
0.0
 40
2.5
  1
Varianten
  7
SEACAD_seiso_ttf
 11
27.2
 21
11.5913731012
 31
0.0
100
AcDbText
 73
     3
  0
TEXT
  5
130
330
1F
100
AcDbEntity
  8
MDS_Layer_94
  6
Continuous
 62
     7
 48
25.4
100
AcDbText
 10
7.1240657125
 20
21.5397731012
 30
0.0
 40
2.5
  1
Dateiformat
  7
SEACAD_seiso_ttf
 11
7.1240657125
 21
24.0397731012
 31
0.0
100
AcDbText
 73
     3
  0
TEXT
  5
131
330
1F
100
AcDbEntity
  8
MDS_Layer_94
  6
Continuous
 62
     7
 48
25.4
100
AcDbText
 10
7.4059642026
 20
16.5238108871
 30
0.0
 40
2.0
  1
Raster
  7
SEACAD_arial_ttf
 11
7.4059642026
 21
18.5238108871
 31
0.0
100
AcDbText
 73
     3
  0
TEXT
  5
132
330
1F
100
AcDbEntity
  8
MDS_Layer_94
  6
Continuous
 62
     7
 48
25.4
100
AcDbText
 10
16.9707887071
 20
16.3869274332
 30
0.0
 40
2.0
  1
Vektor
  7
SEACAD_arial_ttf
 11
16.9707887071
 21
18.3869274332
 31
0.0
100
AcDbText
 73
     3
  0
TEXT
  5
133
330
1F
100
AcDbEntity
  8
MDS_Layer_94
  6
Continuous
 62
     7
 48
25.4
100
AcDbText
 10
27.2
 20
31.4228985666
 30
0.0
 40
2.5
  1
Name
  7
SEACAD_seiso_ttf
 11
27.2
 21
33.9228985666
 31
0.0
100
AcDbText
 73
     3
  0
TEXT
  5
134
330
1F
100
AcDbEntity
  8
MDS_Layer_94
  6
Continuous
 62
     7
 48
25.4
100
AcDbText
 10
27.2
 20
19.0913831012
 30
0.0
 40
2.5
  1
Prod.-Nr.
  7
SEACAD_seiso_ttf
 11
27.2
 21
21.5913831012
 31
0.0
100
AcDbText
 73
     3
  0
TEXT
  5
135
330
1F
100
AcDbEntity
  8
MDS_Layer_94
  6
Continuous
 62
     7
 48
25.4
100
AcDbText
 10
27.266739169
 20
26.5531113353
 30
0.0
 40
2.5
  1
Gepruft
  7
SEACAD_seiso_ttf
 11
27.266739169
 21
29.0531113353
 31
0.0
100
AcDbText
 73
     3
  0
TEXT
  5
136
330
1F
100
AcDbEntity
  8
MDS_Layer_94
  6
Continuous
 62
     7
 48
25.4
100
AcDbText
 10
9.468641411
 20
41.4915690176
 30
0.0
 40
2.5
  1
Masstab
  7
SEACAD_seiso_ttf
 11
9.468641411
 21
43.9915690176
 31
0.0
100
AcDbText
 73
     3
  0
TEXT
  5
137
330
1F
100
AcDbEntity
  8
MDS_Layer_94
  6
Continuous
 62
     7
 48
25.4
100
AcDbText
 10
27.2010851897
 20
36.4228985666
 30
0.0
 40
2.5
  1
Datum
  7
SEACAD_seiso_ttf
 11
27.2010851897
 21
38.9228985666
 31
0.0
100
AcDbText
 73
     3
  0
TEXT
  5
138
330
1F
100
AcDbEntity
  8
MDS_Layer_94
  6
Continuous
 62
     7
 48
25.4
100
AcDbText
 10
27.2
 20
41.4250689461
 30
0.0
 40
2.5
  1
And.-Mitt.
  7
SEACAD_seiso_ttf
 11
27.2
 21
43.9250689461
 31
0.0
100
AcDbText
 73
     3
  0
LINE
  5
139
330
1F
100
AcDbEntity
  8
MDS_Layer_90
  6
Continuous
 62
     7
 48
25.4
100
AcDbLine
 10
205.0
 20
291.0
 30
0.0
 11
205.0
 21
45.0
 31
0.0
  0
ENDSEC
  0
SECTION
  2
OBJECTS
  0
DICTIONARY
  5
C
330
0
100
AcDbDictionary
281
     1
  3
ACAD_GROUP
350
D
  3
ACAD_LAYOUT
350
1A
  3
ACAD_MLINESTYLE
350
17
  3
ACAD_PLOTSETTINGS
350
19
  3
ACAD_PLOTSTYLENAME
350
E
  0
DICTIONARY
  5
D
102
{ACAD_REACTORS
330
C
102
}
330
C
100
AcDbDictionary
281
     1
  0
DICTIONARY
  5
1A
102
{ACAD_REACTORS
330
C
102
}
330
C
100
AcDbDictionary
281
     1
  3
Layout1
350
1E
  3
Model
350
22
  0
DICTIONARY
  5
17
102
{ACAD_REACTORS
330
C
102
}
330
C
100
AcDbDictionary
281
     1
  3
Standard
350
18
  0
DICTIONARY
  5
19
102
{ACAD_REACTORS
330
C
102
}
330
C
100
AcDbDictionary
281
     1
  0
ACDBDICTIONARYWDFLT
  5
E
102
{ACAD_REACTORS
330
C
102
}
330
C
100
AcDbDictionary
281
     1
  3
Normal
350
F
100
AcDbDictionaryWithDefault
340
F
  0
LAYOUT
  5
1E
102
{ACAD_REACTORS
330
1A
102
}
330
1A
100
AcDbPlotSettings
  1

  2

  4

  6

 40
0.0
 41
0.0
 42
0.0
 43
0.0
 44
0.0
 45
0.0
 46
0.0
 47
0.0
 48
0.0
 49
0.0
140
0.0
141
0.0
142
1.0
143
1.0
 70
   688
 72
     0
 73
     0
 74
     5
  7

 75
    16
147
1.0
148
0.0
149
0.0
100
AcDbLayout
  1
Layout1
 70
     1
 71
     1
 10
0.0
 20
0.0
 11
210.0
 21
297.0
 12
0.0
 22
0.0
 32
0.0
 14
0.0
 24
0.0
 34
0.0
 15
210.0
 25
297.0
 35
0.0
146
0.0
 13
0.0
 23
0.0
 33
0.0
 16
1.0
 26
0.0
 36
0.0
 17
0.0
 27
1.0
 37
0.0
 76
     0
330
1B
  0
LAYOUT
  5
22
102
{ACAD_REACTORS
330
1A
102
}
330
1A
100
AcDbPlotSettings
  1

  2

  4

  6

 40
0.0
 41
0.0
 42
0.0
 43
0.0
 44
0.0
 45
0.0
 46
0.0
 47
0.0
 48
0.0
 49
0.0
140
0.0
141
0.0
142
1.0
143
1.0
 70
  1712
 72
     0
 73
     0
 74
     0
  7

 75
     0
147
1.0
148
0.0
149
0.0
100
AcDbLayout
  1
Model
 70
     1
 71
     0
 10
0.0
 20
0.0
 11
210.0
 21
297.0
 12
0.0
 22
0.0
 32
0.0
 14
0.0
 24
0.0
 34
0.0
 15
210.0
 25
297.0
 35
0.0
146
0.0
 13
0.0
 23
0.0
 33
0.0
 16
1.0
 26
0.0
 36
0.0
 17
0.0
 27
1.0
 37
0.0
 76
     0
330
1F
  0
MLINESTYLE
  5
18
102
{ACAD_REACTORS
330
17
102
}
330
17
100
AcDbMlineStyle
  2
Standard
 70
     0
  3

 62
   256
 51
90.0
 52
90.0
 71
     2
 49
0.5
 62
   256
  6
BYLAYER
 49
-0.5
 62
   256
  6
BYLAYER
  0
ACDBPLACEHOLDER
  5
F
102
{ACAD_REACTORS
330
E
102
}
330
E
  0
ENDSEC
  0
EOF
